  0
SECTION
  2
HEADER
  9
$ACADVER
  1
AC1009
  9
$INSBASE
 10
0.0
 20
0.0
 30
0.0
  9
$EXTMIN
 10
0.0
 20
-2.960436562073669
 30
0.0
  9
$EXTMAX
 10
441.72097921146002
 20
488.38642344378923
 30
0.0
  9
$LIMMIN
 10
0.0
 20
0.0
  9
$LIMMAX
 10
375.0
 20
270.0
  9
$ORTHOMODE
 70
     0
  9
$REGENMODE
 70
     1
  9
$FILLMODE
 70
     1
  9
$QTEXTMODE
 70
     0
  9
$MIRRTEXT
 70
     0
  9
$DRAGMODE
 70
     2
  9
$LTSCALE
 40
6.0
  9
$OSMODE
 70
  3071
  9
$ATTMODE
 70
     1
  9
$TEXTSIZE
 40
0.2
  9
$TRACEWID
 40
0.05
  9
$TEXTSTYLE
  7
STANDARD
  9
$CLAYER
  8
0
  9
$CELTYPE
  6
BYLAYER
  9
$CECOLOR
 62
   256
  9
$DIMSCALE
 40
1.0
  9
$DIMASZ
 40
3.0
  9
$DIMEXO
 40
1.0
  9
$DIMDLI
 40
6.0
  9
$DIMRND
 40
0.0
  9
$DIMDLE
 40
0.0
  9
$DIMEXE
 40
1.0
  9
$DIMTP
 40
495.0
  9
$DIMTM
 40
0.0
  9
$DIMTXT
 40
3.0
  9
$DIMCEN
 40
0.0
  9
$DIMTSZ
 40
0.0
  9
$DIMTOL
 70
     0
  9
$DIMLIM
 70
     0
  9
$DIMTIH
 70
     0
  9
$DIMTOH
 70
     0
  9
$DIMSE1
 70
     0
  9
$DIMSE2
 70
     0
  9
$DIMTAD
 70
     1
  9
$DIMZIN
 70
     0
  9
$DIMBLK
  1

  9
$DIMASO
 70
     0
  9
$DIMSHO
 70
     0
  9
$DIMPOST
  1

  9
$DIMAPOST
  1

  9
$DIMALT
 70
     0
  9
$DIMALTD
 70
     2
  9
$DIMALTF
 40
25.399999999999999
  9
$DIMLFAC
 40
1.0
  9
$DIMTOFL
 70
     1
  9
$DIMTVP
 40
0.0
  9
$DIMTIX
 70
     1
  9
$DIMSOXD
 70
     0
  9
$DIMSAH
 70
     0
  9
$DIMBLK1
  1

  9
$DIMBLK2
  1

  9
$DIMSTYLE
  2
STANDARD
  9
$DIMCLRD
 70
     0
  9
$DIMCLRE
 70
     0
  9
$DIMCLRT
 70
     4
  9
$DIMTFAC
 40
1.0
  9
$DIMGAP
 40
1.0
  9
$LUNITS
 70
     2
  9
$LUPREC
 70
     4
  9
$SKETCHINC
 40
0.1
  9
$FILLETRAD
 40
2.0
  9
$AUNITS
 70
     0
  9
$AUPREC
 70
     0
  9
$MENU
  1
C:\R13\WIN\SUPPORT\ACAD-I
  9
$ELEVATION
 40
0.0
  9
$PELEVATION
 40
0.0
  9
$THICKNESS
 40
0.0
  9
$LIMCHECK
 70
     0
  9
$BLIPMODE
 70
     0
  9
$CHAMFERA
 40
0.0
  9
$CHAMFERB
 40
0.0
  9
$SKPOLY
 70
     0
  9
$TDCREATE
 40
2451963.4753060648
  9
$TDUPDATE
 40
2456597.6124963192
  9
$TDINDWG
 40
0.0994893287
  9
$TDUSRTIMER
 40
2456556.1794497692
  9
$USRTIMER
 70
     1
  9
$ANGBASE
 50
0.0
  9
$ANGDIR
 70
     0
  9
$PDMODE
 70
     0
  9
$PDSIZE
 40
0.0
  9
$PLINEWID
 40
0.0
  9
$COORDS
 70
     1
  9
$SPLFRAME
 70
     0
  9
$SPLINETYPE
 70
     6
  9
$SPLINESEGS
 70
     8
  9
$ATTDIA
 70
     0
  9
$ATTREQ
 70
     1
  9
$HANDLING
 70
     1
  9
$HANDSEED
  5
C6B9
  9
$SURFTAB1
 70
     6
  9
$SURFTAB2
 70
     6
  9
$SURFTYPE
 70
     6
  9
$SURFU
 70
     6
  9
$SURFV
 70
     6
  9
$UCSNAME
  2

  9
$UCSORG
 10
0.0
 20
0.0
 30
0.0
  9
$UCSXDIR
 10
1.0
 20
0.0
 30
0.0
  9
$UCSYDIR
 10
0.0
 20
1.0
 30
0.0
  9
$PUCSNAME
  2

  9
$PUCSORG
 10
0.0
 20
0.0
 30
0.0
  9
$PUCSXDIR
 10
1.0
 20
0.0
 30
0.0
  9
$PUCSYDIR
 10
0.0
 20
1.0
 30
0.0
  9
$USERI1
 70
     4
  9
$USERI2
 70
     1
  9
$USERI3
 70
     0
  9
$USERI4
 70
     0
  9
$USERI5
 70
     0
  9
$USERR1
 40
1.0
  9
$USERR2
 40
3.0
  9
$USERR3
 40
3.0
  9
$USERR4
 40
3.0
  9
$USERR5
 40
10.0
  9
$WORLDVIEW
 70
     1
  9
$SHADEDGE
 70
     3
  9
$SHADEDIF
 70
    70
  9
$TILEMODE
 70
     1
  9
$MAXACTVP
 70
    16
  9
$PLIMCHECK
 70
     0
  9
$PEXTMIN
 10
1.0000000000000000E+020
 20
1.0000000000000000E+020
 30
1.0000000000000000E+020
  9
$PEXTMAX
 10
-1.0000000000000000E+020
 20
-1.0000000000000000E+020
 30
-1.0000000000000000E+020
  9
$PLIMMIN
 10
0.0
 20
0.0
  9
$PLIMMAX
 10
12.0
 20
9.0
  9
$UNITMODE
 70
     0
  9
$VISRETAIN
 70
     0
  9
$PLINEGEN
 70
     0
  9
$PSLTSCALE
 70
     0
  0
ENDSEC
  0
SECTION
  2
TABLES
  0
TABLE
  2
VPORT
 70
     1
  0
VPORT
  2
*ACTIVE
 70
     0
 10
0.0
 20
0.0
 11
1.0
 21
1.0
 12
220.86049063419199
 22
243.7665549220433
 13
0.0
 23
0.0
 14
10.0
 24
10.0
 15
10.0
 25
10.0
 16
0.0
 26
0.0
 36
1.0
 17
0.0
 27
0.0
 37
0.0
 40
499.17290725334152
 41
2.304913294797688
 42
50.0
 43
0.0
 44
0.0
 50
0.0
 51
0.0
 71
    16
 72
   100
 73
     1
 74
     0
 75
     0
 76
     0
 77
     0
 78
     0
  0
ENDTAB
  0
TABLE
  2
LTYPE
 70
     3
  0
LTYPE
  2
CONTINUOUS
 70
     0
  3
Solid Line
 72
    65
 73
     0
 40
0.0
  0
LTYPE
  2
PHANTOM2
 70
     0
  3
___ _ _ ___ _ _ ___ _ _ ___ _ _
 72
    65
 73
     6
 40
1.25
 49
0.625
 49
-0.125
 49
0.125
 49
-0.125
 49
0.125
 49
-0.125
  0
LTYPE
  2
CENTER
 70
     0
  3
____ _ ____ _ ____ _ ____ _ ____ _ ____ _ ____
 72
    65
 73
     4
 40
2.0
 49
1.25
 49
-0.25
 49
0.25
 49
-0.25
  0
ENDTAB
  0
TABLE
  2
LAYER
 70
     4
  0
LAYER
  2
0
 70
     0
 62
     7
  6
CONTINUOUS
  0
LAYER
  2
1
 70
     0
 62
     1
  6
CENTER
  0
LAYER
  2
3
 70
     0
 62
     3
  6
CONTINUOUS
  0
LAYER
  2
DEFPOINTS
 70
     0
 62
     7
  6
CONTINUOUS
  0
ENDTAB
  0
TABLE
  2
STYLE
 70
     3
  0
STYLE
  2
STANDARD
 70
     0
 40
0.0
 41
1.0
 50
0.0
 71
     0
 42
0.2
  3
SIMPLEX
  4
BIGFONT
  0
STYLE
  2
ANNOTATIVE
 70
     0
 40
0.0
 41
1.0
 50
0.0
 71
     0
 42
0.2
  3
txt
  4

  0
STYLE
  2
STANDARD1
 70
     0
 40
0.0
 41
1.0
 50
0.0
 71
     0
 42
3.0
  3
txt
  4

  0
ENDTAB
  0
TABLE
  2
VIEW
 70
     0
  0
ENDTAB
  0
TABLE
  2
UCS
 70
     0
  0
ENDTAB
  0
TABLE
  2
APPID
 70
    30
  0
APPID
  2
ACAD
 70
     0
  0
APPID
  2
ACADANNOTATIVE
 70
     0
  0
APPID
  2
GENIUS_GENOREF_13
 70
     0
  0
APPID
  2
GENIUS_GENOENT_13
 70
     0
  0
APPID
  2
GENIUS_GENBH_13
 70
     0
  0
APPID
  2
GENIUS_GENOBJ_13
 70
     0
  0
APPID
  2
GENIUS_GENODEF_13
 70
     0
  0
APPID
  2
GENIUS_GENOLIS_13
 70
     0
  0
APPID
  2
GENIUS_GENOBJ-NBEHI-BHF_13
 70
     0
  0
APPID
  2
GENIUS_GENOBJ-NBEHI-BHB_13
 70
     0
  0
APPID
  2
GENIUS_GENOBJ-F-PART_13
 70
     0
  0
APPID
  2
GENIUS_GEFSTDP_13
 70
     0
  0
APPID
  2
GENIUS_GENOBJ-N-RSSYM_13
 70
     0
  0
APPID
  2
GENIUS_GENSYMENT_13
 70
     0
  0
APPID
  2
GENIUS_GENOBJ-N-TIT_13
 70
     0
  0
APPID
  2
GENIUS_GENTITLE_13
 70
     0
  0
APPID
  2
GENIUS_GENZVEED_13
 70
     0
  0
APPID
  2
GENIUS_GENOBJ-N-LEADER_13
 70
     0
  0
APPID
  2
GENIUS_GENOBJ-N-FIL_13
 70
     0
  0
APPID
  2
GENIUS_GENOBJ-N-SEC_13
 70
     0
  0
APPID
  2
GENIUS_GENOBJ-N-CRS_13
 70
     0
  0
APPID
  2
GENIUS_GENOBJ-N-ZOO_13
 70
     0
  0
APPID
  2
GENIUS_GENZOO_13
 70
     0
  0
APPID
  2
GENIUS_GENOBJ-F-TOL_13
 70
     0
  0
APPID
  2
GENIUS_GENFIL_13
 70
     0
  0
APPID
  2
GENIUS_GENOBJ-N-CHA_13
 70
     0
  0
APPID
  2
_CALL_MAC$
 70
     0
  0
APPID
  2
ACAD_EXEMPT_FROM_CAD_STANDARDS
 70
     0
  0
APPID
  2
ACAD_MLEADERVER
 70
     0
  0
APPID
  2
ACAD_NAV_VCDISPLAY
 70
     0
  0
ENDTAB
  0
TABLE
  2
DIMSTYLE
 70
     2
  0
DIMSTYLE
  2
STANDARD
 70
     0
  3

  4

  5

  6

  7

 40
1.0
 41
0.18
 42
0.0625
 43
0.38
 44
0.18
 45
0.0
 46
0.0
 47
0.0
 48
0.0
140
0.18
141
0.09
142
0.0
143
25.399999999999999
144
1.0
145
0.0
146
1.0
147
0.09
 71
     0
 72
     0
 73
     1
 74
     1
 75
     0
 76
     0
 77
     0
 78
     0
170
     0
171
     2
172
     0
173
     0
174
     0
175
     0
176
     0
177
     0
178
     0
  0
DIMSTYLE
  2
ANNOTATIVE
 70
     0
  3

  4

  5

  6

  7

 40
1.0
 41
0.18
 42
0.0625
 43
0.38
 44
0.18
 45
0.0
 46
0.0
 47
0.0
 48
0.0
140
0.18
141
0.09
142
0.0
143
25.399999999999999
144
1.0
145
0.0
146
1.0
147
0.09
 71
     0
 72
     0
 73
     1
 74
     1
 75
     0
 76
     0
 77
     0
 78
     0
170
     0
171
     2
172
     0
173
     0
174
     0
175
     0
176
     0
177
     0
178
     0
  0
ENDTAB
  0
ENDSEC
  0
SECTION
  2
BLOCKS
  0
BLOCK
  8
0
  2
$MODEL_SPACE
 70
     0
 10
0.0
 20
0.0
 30
0.0
  3
$MODEL_SPACE
  1

  0
ENDBLK
  5
C5DA
  8
0
  0
BLOCK
 67
     1
  8
0
  2
$PAPER_SPACE
 70
     0
 10
0.0
 20
0.0
 30
0.0
  3
$PAPER_SPACE
  1

  0
ENDBLK
  5
C5D6
 67
     1
  8
0
  0
ENDSEC
  0
SECTION
  2
ENTITIES
  0
LINE
  5
C18B
  8
1
 10
379.22097921146002
 20
295.90023185652342
 30
0.0
 11
379.22097921145979
 21
25.900231856523369
 31
0.0
  0
LINE
  5
C18C
  8
1
 10
171.79939602693599
 20
295.90023185652342
 30
0.0
 11
171.79939602693591
 21
25.900231856523408
 31
0.0
  0
LINE
  5
C18D
  8
0
 10
183.79939602693599
 20
82.900231856523419
 30
0.0
 11
183.79939602693599
 21
87.900231856546611
 31
0.0
  0
LINE
  5
C18E
  8
0
 10
159.79939602693599
 20
82.900231856523547
 30
0.0
 11
159.79939602693599
 21
87.900231856546498
 31
0.0
  0
LINE
  5
C18F
  8
0
 10
154.29939602693591
 20
80.900231856523405
 30
0.0
 11
156.29939602693591
 21
82.900231856523419
 31
0.0
  0
LINE
  5
C190
  8
0
 10
189.29939602693599
 20
80.900231856523405
 30
0.0
 11
187.29939602693599
 21
82.900231856523419
 31
0.0
  0
LINE
  5
C191
  8
0
 10
187.29939602693599
 20
82.900231856523419
 30
0.0
 11
156.29939602693599
 21
82.900231856523419
 31
0.0
  0
LINE
  5
C195
  8
0
 10
109.29939602693599
 20
35.900231856523533
 30
0.0
 11
109.2993960269359
 21
51.01943794556859
 31
0.0
  0
LINE
  5
C196
  8
DEFPOINTS
 10
150.79939602693599
 20
80.900231856523405
 30
0.0
 11
136.79939602693599
 21
58.900231856523419
 31
0.0
  0
LINE
  5
C197
  8
DEFPOINTS
 10
136.79939602693599
 20
58.900231856523419
 30
0.0
 11
131.05271674630109
 21
57.437440766907223
 31
0.0
  0
LINE
  5
C198
  8
DEFPOINTS
 10
116.29939602693599
 20
52.791140947432488
 30
0.0
 11
116.29939602693599
 21
52.80125612738675
 31
0.0
  0
LINE
  5
C199
  8
DEFPOINTS
 10
123.29939602693599
 20
54.572959129250648
 30
0.0
 11
123.29939602693599
 21
54.583074309204903
 31
0.0
  0
LINE
  5
C19A
  8
DEFPOINTS
 10
130.29939602693599
 20
56.354777311068929
 30
0.0
 11
130.29939602693599
 21
56.468343592984297
 31
0.0
  0
LINE
  5
C19B
  8
DEFPOINTS
 10
110.17314174726199
 20
52.011435857292213
 30
0.0
 11
116.29939602693599
 21
52.791140947432488
 31
0.0
  0
LINE
  5
C19C
  8
DEFPOINTS
 10
117.17314174726199
 20
53.793254039110352
 30
0.0
 11
123.29939602693599
 21
54.572959129250648
 31
0.0
  0
LINE
  5
C19D
  8
DEFPOINTS
 10
124.17314174726209
 20
55.575072220928497
 30
0.0
 11
130.29939602693599
 21
56.354777311068929
 31
0.0
  0
ARC
  5
C19E
  8
DEFPOINTS
 10
131.29939602693599
 20
56.468343592984297
 30
0.0
 40
1.0
 50
104.28109573597069
 51
180.0
  0
ARC
  5
C19F
  8
DEFPOINTS
 10
124.29939602693599
 20
54.583074309204903
 30
0.0
 40
1.0
 50
97.253194612725309
 51
180.0
  0
ARC
  5
C1A0
  8
DEFPOINTS
 10
117.29939602693599
 20
52.80125612738675
 30
0.0
 40
1.0
 50
97.253194612725352
 51
179.9999999999979
  0
ARC
  5
C1A1
  8
DEFPOINTS
 10
110.2993960269359
 20
51.01943794556859
 30
0.0
 40
1.0
 50
97.253194612725352
 51
180.0000000000004
  0
LINE
  5
C1A2
  8
DEFPOINTS
 10
206.7993960269358
 20
58.900231856523419
 30
0.0
 11
136.79939602693619
 21
58.900231856523533
 31
0.0
  0
LINE
  5
C1A3
  8
DEFPOINTS
 10
213.2993960269358
 20
56.354777311068929
 30
0.0
 11
130.29939602693671
 21
56.354777311068929
 31
0.0
  0
LINE
  5
C1A4
  8
DEFPOINTS
 10
220.2993960269358
 20
54.572959129250648
 30
0.0
 11
123.2993960269368
 21
54.572959129250762
 31
0.0
  0
LINE
  5
C1A5
  8
DEFPOINTS
 10
227.2993960269358
 20
52.791140947432488
 30
0.0
 11
116.2993960269369
 21
52.791140947432609
 31
0.0
  0
ARC
  5
C1A6
  8
DEFPOINTS
 10
233.29939602693611
 20
51.01943794556859
 30
0.0
 40
1.0
 50
359.9999999999996
 51
82.746805387274634
  0
ARC
  5
C1A7
  8
DEFPOINTS
 10
226.2993960269358
 20
52.80125612738675
 30
0.0
 40
1.0
 50
0.0000000000016284
 51
82.746805387274634
  0
ARC
  5
C1A8
  8
DEFPOINTS
 10
219.2993960269358
 20
54.583074309204903
 30
0.0
 40
1.0
 50
0.0
 51
82.746805387274676
  0
ARC
  5
C1A9
  8
DEFPOINTS
 10
212.2993960269358
 20
56.468343592984297
 30
0.0
 40
1.0
 50
0.0
 51
75.718904264029248
  0
LINE
  5
C1AA
  8
DEFPOINTS
 10
219.42565030660981
 20
55.575072220928497
 30
0.0
 11
213.2993960269358
 21
56.354777311068929
 31
0.0
  0
LINE
  5
C1AB
  8
DEFPOINTS
 10
226.42565030660981
 20
53.793254039110352
 30
0.0
 11
220.2993960269358
 21
54.572959129250648
 31
0.0
  0
LINE
  5
C1AC
  8
DEFPOINTS
 10
233.42565030661001
 20
52.011435857292213
 30
0.0
 11
227.2993960269358
 21
52.791140947432488
 31
0.0
  0
LINE
  5
C1AD
  8
DEFPOINTS
 10
213.2993960269358
 20
56.354777311068929
 30
0.0
 11
213.2993960269358
 21
56.468343592984297
 31
0.0
  0
LINE
  5
C1AE
  8
DEFPOINTS
 10
220.2993960269358
 20
54.572959129250648
 30
0.0
 11
220.2993960269358
 21
54.583074309204903
 31
0.0
  0
LINE
  5
C1AF
  8
DEFPOINTS
 10
227.2993960269358
 20
52.791140947432488
 30
0.0
 11
227.2993960269358
 21
52.80125612738675
 31
0.0
  0
LINE
  5
C1B0
  8
DEFPOINTS
 10
206.7993960269358
 20
58.900231856523419
 30
0.0
 11
212.5460753075707
 21
57.437440766907223
 31
0.0
  0
LINE
  5
C1B1
  8
DEFPOINTS
 10
192.79939602693599
 20
80.900231856523405
 30
0.0
 11
206.7993960269358
 21
58.900231856523419
 31
0.0
  0
LINE
  5
C1B2
  8
0
 10
192.79939602693599
 20
80.900231856523405
 30
0.0
 11
150.79939602693599
 21
80.900231856523405
 31
0.0
  0
LINE
  5
C1B3
  8
0
 10
234.29939602693599
 20
35.900231856523412
 30
0.0
 11
234.29939602693599
 21
51.01943794556859
 31
0.0
  0
LINE
  5
C1B4
  8
0
 10
234.2993960269358
 20
35.900231856523412
 30
0.0
 11
109.29939602693599
 21
35.900231856523533
 31
0.0
  0
LINE
  5
C1B5
  8
3
 10
184.904896026936
 20
104.9002318565235
 30
0.0
 11
186.79939602693599
 21
101.6188616015841
 31
0.0
  0
LINE
  5
C1B6
  8
3
 10
158.69389602693599
 20
104.9002318565235
 30
0.0
 11
156.79939602693599
 21
101.6188616015841
 31
0.0
  0
LINE
  5
C1B7
  8
0
 10
156.79939602693599
 20
104.9002318565235
 30
0.0
 11
186.79939602693599
 21
104.9002318565235
 31
0.0
  0
LINE
  5
C1B8
  8
0
 10
186.79939602693599
 20
282.40023185652342
 30
0.0
 11
183.29939602693599
 21
285.90023185652342
 31
0.0
  0
LINE
  5
C1B9
  8
0
 10
156.79939602693599
 20
282.40023185652342
 30
0.0
 11
186.79939602693599
 21
282.40023185652342
 31
0.0
  0
LINE
  5
C1BA
  8
0
 10
156.79939602693599
 20
282.40023185652342
 30
0.0
 11
160.29939602693599
 21
285.90023185652342
 31
0.0
  0
LINE
  5
C1BB
  8
0
 10
156.79939602693599
 20
99.611556721927855
 30
0.0
 11
156.79939602693599
 21
119.90023185652331
 31
0.0
  0
LINE
  5
C1BC
  8
3
 10
158.69389602693599
 20
104.9002318565235
 30
0.0
 11
158.69389602693599
 21
119.90023185652331
 31
0.0
  0
LINE
  5
C1BD
  8
3
 10
184.904896026936
 20
104.9002318565234
 30
0.0
 11
184.904896026936
 21
119.90023185652331
 31
0.0
  0
LINE
  5
C1BE
  8
0
 10
186.79939602693599
 20
99.611556721927741
 30
0.0
 11
186.79939602693599
 21
119.90023185652331
 31
0.0
  0
LINE
  5
C1BF
  8
0
 10
160.29939602693599
 20
285.90023185652342
 30
0.0
 11
183.29939602693599
 21
285.90023185652342
 31
0.0
  0
LINE
  5
C1C2
  8
0
 10
156.79939602693599
 20
143.90023185652331
 30
0.0
 11
156.79939602693599
 21
282.40023185652342
 31
0.0
  0
LINE
  5
C1C3
  8
3
 10
158.69389602693599
 20
143.90023185652331
 30
0.0
 11
158.69389602693599
 21
284.2947318565233
 31
0.0
  0
LINE
  5
C1C4
  8
0
 10
186.79939602693599
 20
143.90023185652331
 30
0.0
 11
186.79939602693599
 21
282.40023185652342
 31
0.0
  0
LINE
  5
C1C5
  8
3
 10
184.904896026936
 20
143.90023185652331
 30
0.0
 11
184.904896026936
 21
284.2947318565233
 31
0.0
  0
LINE
  5
C1C6
  8
0
 10
364.22097921146002
 20
104.9002318565234
 30
0.0
 11
394.22097921146002
 21
104.9002318565234
 31
0.0
  0
LINE
  5
C1C7
  8
3
 10
366.11547921146018
 20
104.9002318565234
 30
0.0
 11
364.22097921146002
 21
101.618861601584
 31
0.0
  0
LINE
  5
C1C8
  8
3
 10
392.3264792114602
 20
104.9002318565234
 30
0.0
 11
394.22097921146002
 21
101.618861601584
 31
0.0
  0
LINE
  5
C1C9
  8
0
 10
441.72097921146002
 20
35.900231856523313
 30
0.0
 11
316.72097921146008
 21
35.900231856523412
 31
0.0
  0
LINE
  5
C1CA
  8
0
 10
441.72097921146002
 20
35.900231856523313
 30
0.0
 11
441.72097921146002
 21
51.019437945568491
 31
0.0
  0
LINE
  5
C1CB
  8
0
 10
400.22097921146002
 20
80.900231856523291
 30
0.0
 11
358.22097921146002
 21
80.900231856523291
 31
0.0
  0
LINE
  5
C1CC
  8
DEFPOINTS
 10
400.22097921146002
 20
80.900231856523291
 30
0.0
 11
414.22097921145991
 21
58.900231856523313
 31
0.0
  0
LINE
  5
C1CD
  8
DEFPOINTS
 10
414.22097921145991
 20
58.900231856523313
 30
0.0
 11
419.96765849209498
 21
57.437440766907109
 31
0.0
  0
LINE
  5
C1CE
  8
DEFPOINTS
 10
434.72097921146002
 20
52.791140947432382
 30
0.0
 11
434.72097921146002
 21
52.801256127386637
 31
0.0
  0
LINE
  5
C1CF
  8
DEFPOINTS
 10
427.72097921146002
 20
54.572959129250542
 30
0.0
 11
427.72097921146002
 21
54.58307430920479
 31
0.0
  0
LINE
  5
C1D0
  8
DEFPOINTS
 10
420.72097921146002
 20
56.354777311068787
 30
0.0
 11
420.72097921146002
 21
56.468343592984183
 31
0.0
  0
LINE
  5
C1D1
  8
DEFPOINTS
 10
440.84723349113398
 20
52.011435857292099
 30
0.0
 11
434.72097921146002
 21
52.791140947432382
 31
0.0
  0
LINE
  5
C1D2
  8
DEFPOINTS
 10
433.84723349113398
 20
53.793254039110252
 30
0.0
 11
427.72097921146002
 21
54.572959129250542
 31
0.0
  0
LINE
  5
C1D3
  8
DEFPOINTS
 10
426.84723349113398
 20
55.575072220928412
 30
0.0
 11
420.72097921146002
 21
56.354777311068787
 31
0.0
  0
ARC
  5
C1D4
  8
DEFPOINTS
 10
419.72097921146002
 20
56.468343592984183
 30
0.0
 40
1.0
 50
0.0
 51
75.718904264029248
  0
ARC
  5
C1D5
  8
DEFPOINTS
 10
426.72097921145991
 20
54.58307430920479
 30
0.0
 40
1.0
 50
0.0
 51
82.746805387274676
  0
ARC
  5
C1D6
  8
DEFPOINTS
 10
433.72097921146002
 20
52.801256127386637
 30
0.0
 40
1.0
 50
0.0000000000016284
 51
82.746805387274634
  0
ARC
  5
C1D7
  8
DEFPOINTS
 10
440.72097921146002
 20
51.019437945568491
 30
0.0
 40
1.0
 50
359.9999999999996
 51
82.746805387274634
  0
LINE
  5
C1D8
  8
DEFPOINTS
 10
434.72097921146002
 20
52.791140947432382
 30
0.0
 11
323.72097921146087
 21
52.791140947432488
 31
0.0
  0
LINE
  5
C1D9
  8
DEFPOINTS
 10
427.72097921146002
 20
54.572959129250542
 30
0.0
 11
330.72097921146087
 21
54.572959129250648
 31
0.0
  0
LINE
  5
C1DA
  8
DEFPOINTS
 10
420.72097921146002
 20
56.354777311068787
 30
0.0
 11
337.72097921146081
 21
56.354777311068787
 31
0.0
  0
LINE
  5
C1DB
  8
DEFPOINTS
 10
414.22097921145991
 20
58.900231856523313
 30
0.0
 11
344.22097921146042
 21
58.900231856523419
 31
0.0
  0
ARC
  5
C1DC
  8
DEFPOINTS
 10
317.72097921146008
 20
51.019437945568491
 30
0.0
 40
1.0
 50
97.253194612725352
 51
180.0000000000004
  0
ARC
  5
C1DD
  8
DEFPOINTS
 10
324.72097921146008
 20
52.801256127386637
 30
0.0
 40
1.0
 50
97.253194612725352
 51
179.9999999999979
  0
ARC
  5
C1DE
  8
DEFPOINTS
 10
331.72097921146008
 20
54.58307430920479
 30
0.0
 40
1.0
 50
97.253194612725309
 51
180.0
  0
ARC
  5
C1DF
  8
DEFPOINTS
 10
338.72097921146008
 20
56.468343592984183
 30
0.0
 40
1.0
 50
104.28109573597069
 51
180.0
  0
LINE
  5
C1E0
  8
DEFPOINTS
 10
331.59472493178612
 20
55.575072220928412
 30
0.0
 11
337.72097921146008
 21
56.354777311068787
 31
0.0
  0
LINE
  5
C1E1
  8
DEFPOINTS
 10
324.59472493178612
 20
53.793254039110252
 30
0.0
 11
330.72097921146008
 21
54.572959129250542
 31
0.0
  0
LINE
  5
C1E2
  8
DEFPOINTS
 10
317.59472493178612
 20
52.011435857292099
 30
0.0
 11
323.72097921146008
 21
52.791140947432382
 31
0.0
  0
LINE
  5
C1E3
  8
DEFPOINTS
 10
337.72097921146008
 20
56.354777311068787
 30
0.0
 11
337.72097921146008
 21
56.468343592984183
 31
0.0
  0
LINE
  5
C1E4
  8
DEFPOINTS
 10
330.72097921146008
 20
54.572959129250542
 30
0.0
 11
330.72097921146008
 21
54.58307430920479
 31
0.0
  0
LINE
  5
C1E5
  8
DEFPOINTS
 10
323.72097921146008
 20
52.791140947432382
 30
0.0
 11
323.72097921146008
 21
52.801256127386637
 31
0.0
  0
LINE
  5
C1E6
  8
DEFPOINTS
 10
344.22097921146002
 20
58.900231856523313
 30
0.0
 11
338.47429993082523
 21
57.437440766907109
 31
0.0
  0
LINE
  5
C1E7
  8
DEFPOINTS
 10
358.22097921146002
 20
80.900231856523291
 30
0.0
 11
344.22097921146002
 21
58.900231856523313
 31
0.0
  0
LINE
  5
C1E8
  8
0
 10
316.72097921146008
 20
35.900231856523412
 30
0.0
 11
316.72097921146008
 21
51.019437945568491
 31
0.0
  0
LINE
  5
C1EC
  8
0
 10
394.72097921146002
 20
82.900231856523277
 30
0.0
 11
363.72097921146002
 21
82.900231856523277
 31
0.0
  0
LINE
  5
C1ED
  8
0
 10
396.72097921146002
 20
80.900231856523291
 30
0.0
 11
394.72097921146002
 21
82.900231856523277
 31
0.0
  0
LINE
  5
C1EE
  8
0
 10
361.72097921146002
 20
80.900231856523291
 30
0.0
 11
363.72097921146002
 21
82.900231856523277
 31
0.0
  0
LINE
  5
C1EF
  8
0
 10
367.22097921146002
 20
82.900231856523419
 30
0.0
 11
367.22097921146042
 21
87.900231856545702
 31
0.0
  0
LINE
  5
C1F0
  8
0
 10
391.22097921146002
 20
82.900231856523277
 30
0.0
 11
391.22097921146002
 21
87.900231856546043
 31
0.0
  0
LINE
  5
C1F1
  8
0
 10
367.72097921146002
 20
285.90023185652319
 30
0.0
 11
390.72097921146002
 21
285.90023185652319
 31
0.0
  0
LINE
  5
C1F2
  8
0
 10
364.22097921146002
 20
282.40023185652319
 30
0.0
 11
367.72097921146002
 21
285.90023185652319
 31
0.0
  0
LINE
  5
C1F3
  8
0
 10
364.22097921146002
 20
282.40023185652319
 30
0.0
 11
394.22097921146002
 21
282.40023185652319
 31
0.0
  0
LINE
  5
C1F4
  8
0
 10
394.22097921146002
 20
282.40023185652319
 30
0.0
 11
390.72097921146002
 21
285.90023185652319
 31
0.0
  0
LINE
  5
C1F5
  8
3
 10
392.32647921146003
 20
143.90023185652331
 30
0.0
 11
392.3264792114602
 21
284.29473185652307
 31
0.0
  0
LINE
  5
C1F6
  8
0
 10
394.22097921146002
 20
143.90023185652331
 30
0.0
 11
394.22097921146002
 21
282.40023185652319
 31
0.0
  0
LINE
  5
C1F7
  8
3
 10
366.11547921146018
 20
143.90023185652331
 30
0.0
 11
366.11547921146018
 21
284.29473185652307
 31
0.0
  0
LINE
  5
C1F8
  8
0
 10
364.22097921146002
 20
143.90023185652331
 30
0.0
 11
364.22097921146002
 21
282.40023185652319
 31
0.0
  0
LINE
  5
C1F9
  8
0
 10
394.22097921146002
 20
99.611556721928423
 30
0.0
 11
394.22097921146002
 21
119.90023185652321
 31
0.0
  0
LINE
  5
C1FA
  8
3
 10
392.3264792114602
 20
104.90023185652331
 30
0.0
 11
392.32647921146003
 21
119.90023185652321
 31
0.0
  0
LINE
  5
C1FB
  8
3
 10
366.11547921146018
 20
104.9002318565234
 30
0.0
 11
366.11547921146018
 21
119.90023185652321
 31
0.0
  0
LINE
  5
C1FC
  8
0
 10
364.22097921146002
 20
99.611556721928764
 30
0.0
 11
364.22097921146002
 21
119.90023185652321
 31
0.0
  0
LINE
  5
C1FD
  8
0
 10
393.72097921146002
 20
87.900231856546043
 30
0.0
 11
364.72097921145968
 21
87.900231856545702
 31
0.0
  0
LINE
  5
C1FE
  8
0
 10
364.72097921145968
 20
99.900231856523405
 30
0.0
 11
393.72097921146042
 21
99.900231856522964
 31
0.0
  0
LINE
  5
C1FF
  8
0
 10
393.72097921145968
 20
99.900231856523405
 30
0.0
 11
396.54148728714819
 21
98.271810759773089
 31
0.0
  0
ARC
  5
C200
  8
0
 10
392.2113602682258
 20
91.944088476652169
 30
0.0
 40
7.6674682452751766
 50
64.384247470457865
 51
124.38424746800629
  0
ARC
  5
C201
  8
0
 10
392.2113602682258
 20
91.944088476652169
 30
0.0
 40
7.6674682452751766
 50
55.615752531993721
 51
55.615752531993721
  0
ARC
  5
C202
  8
0
 10
392.2113602682258
 20
95.856375236416952
 30
0.0
 40
7.6674682452751766
 50
304.38424746800621
 51
304.38424746800621
  0
ARC
  5
C203
  8
0
 10
392.2113602682258
 20
95.856375236416952
 30
0.0
 40
7.6674682452751766
 50
235.61575253199371
 51
295.61575252954219
  0
LINE
  5
C204
  8
0
 10
393.72097921145968
 20
87.900231856545702
 30
0.0
 11
396.54148728714819
 21
89.528652953296032
 31
0.0
  0
LINE
  5
C205
  8
0
 10
396.5414872871479
 20
98.271810759772947
 30
0.0
 11
396.54148728743172
 21
89.528652953459741
 31
0.0
  0
LINE
  5
C206
  8
0
 10
387.88123324930382
 20
89.528652953319437
 30
0.0
 11
387.88123324914977
 21
98.271810759772947
 31
0.0
  0
ARC
  5
C207
  8
0
 10
379.22097921153312
 20
116.8491610285342
 30
0.0
 40
28.660254037392811
 50
252.41204622557089
 51
287.58795377412849
  0
LINE
  5
C208
  8
0
 10
370.56072517361542
 20
89.528652953319437
 30
0.0
 11
370.5607251737693
 21
98.271810759772947
 31
0.0
  0
LINE
  5
C209
  8
0
 10
361.90047113577123
 20
98.271810759772947
 30
0.0
 11
361.90047113548752
 21
89.528652953459741
 31
0.0
  0
LINE
  5
C20A
  8
0
 10
364.72097921145968
 20
87.900231856545702
 30
0.0
 11
361.900471135771
 21
89.528652953296032
 31
0.0
  0
ARC
  5
C20B
  8
0
 10
366.23059815469338
 20
95.856375236416952
 30
0.0
 40
7.6674682452751766
 50
244.38424747045789
 51
304.38424746800621
  0
ARC
  5
C20C
  8
0
 10
366.23059815469338
 20
95.856375236416952
 30
0.0
 40
7.6674682452751766
 50
235.61575253199371
 51
235.61575253199371
  0
ARC
  5
C20D
  8
0
 10
379.22097921153312
 20
70.951302684534653
 30
0.0
 40
28.660254037392811
 50
72.412046225871535
 51
107.5879537744291
  0
ARC
  5
C20E
  8
0
 10
366.23059815469338
 20
91.944088476652169
 30
0.0
 40
7.6674682452751766
 50
124.38424746800629
 51
124.38424746800629
  0
ARC
  5
C20F
  8
0
 10
366.23059815469338
 20
91.944088476652169
 30
0.0
 40
7.6674682452751766
 50
55.615752531993721
 51
115.61575252954211
  0
LINE
  5
C210
  8
0
 10
364.72097921145968
 20
99.900231856523405
 30
0.0
 11
361.900471135771
 21
98.271810759773089
 31
0.0
  0
LINE
  5
C211
  8
0
 10
171.79939602693599
 20
98.271810759773444
 30
0.0
 11
171.79939602693599
 21
89.528652953291697
 31
0.0
  0
LINE
  5
C212
  8
0
 10
186.29939602693599
 20
87.900231856546498
 30
0.0
 11
157.29939602693759
 21
87.900231856546498
 31
0.0
  0
LINE
  5
C213
  8
0
 10
157.29939602693759
 20
99.900231856523405
 30
0.0
 11
186.2993960269344
 21
99.900231856523405
 31
0.0
  0
ARC
  5
C214
  8
0
 10
164.29939602693599
 20
77.9488979482595
 30
0.0
 40
21.662658773668529
 50
69.743841999599184
 51
110.2561580004008
  0
LINE
  5
C215
  8
0
 10
157.29939602693759
 20
99.900231856523405
 30
0.0
 11
156.79939602693631
 21
99.611556721927954
 31
0.0
  0
LINE
  5
C216
  8
0
 10
157.29939602693759
 20
87.900231856546498
 30
0.0
 11
156.79939602693631
 21
88.188906991142062
 31
0.0
  0
ARC
  5
C217
  8
0
 10
164.29939602693599
 20
109.8515657648104
 30
0.0
 40
21.662658773668529
 50
249.7438419995992
 51
290.25615800040077
  0
LINE
  5
C218
  8
0
 10
156.79939602693599
 20
99.611556721927954
 30
0.0
 11
156.79939602693631
 21
88.188906991141948
 31
0.0
  0
LINE
  5
C219
  8
0
 10
186.79939602693599
 20
99.611556721927954
 30
0.0
 11
186.7993960269358
 21
88.188906991141948
 31
0.0
  0
ARC
  5
C21A
  8
0
 10
179.29939602693599
 20
109.8515657648104
 30
0.0
 40
21.662658773668529
 50
249.7438419995992
 51
290.25615800040077
  0
LINE
  5
C21B
  8
0
 10
186.2993960269344
 20
87.900231856546498
 30
0.0
 11
186.7993960269358
 21
88.188906991142062
 31
0.0
  0
LINE
  5
C21C
  8
0
 10
186.2993960269344
 20
99.900231856523405
 30
0.0
 11
186.7993960269358
 21
99.611556721927954
 31
0.0
  0
ARC
  5
C21D
  8
0
 10
179.29939602693599
 20
77.9488979482595
 30
0.0
 40
21.662658773668529
 50
69.743841999599184
 51
110.2561580004008
  0
LINE
  5
C21F
  8
1
 10
244.2993960269358
 20
415.88642344378923
 30
0.0
 11
99.299396026936066
 21
415.88642344378923
 31
0.0
  0
LINE
  5
C220
  8
1
 10
171.79939602693599
 20
488.38642344378923
 30
0.0
 11
171.79939602693599
 21
343.38642344378923
 31
0.0
  0
CIRCLE
  5
C221
  8
0
 10
171.79939602693599
 20
415.88642344378923
 30
0.0
 40
34.999999999999829
  0
CIRCLE
  5
C222
  8
0
 10
171.79939602693599
 20
415.88642344378923
 30
0.0
 40
41.499999999999901
  0
CIRCLE
  5
C223
  8
0
 10
171.79939602693599
 20
415.88642344378923
 30
0.0
 40
48.499999999999901
  0
CIRCLE
  5
C224
  8
0
 10
171.79939602693599
 20
415.88642344378923
 30
0.0
 40
55.499999999999503
  0
CIRCLE
  5
C225
  8
0
 10
171.79939602693599
 20
415.88642344378923
 30
0.0
 40
62.499999999999929
  0
CIRCLE
  5
C236
  8
0
 10
171.79939602693599
 20
415.88642344378923
 30
0.0
 40
15.0
  0
LINE
  5
C237
  8
0
 10
185.07839602693599
 20
392.88642344378928
 30
0.0
 11
158.520396026936
 21
392.88642344378928
 31
0.0
  0
LINE
  5
C238
  8
0
 10
185.07839602693599
 20
438.88642344378923
 30
0.0
 11
158.520396026936
 21
438.88642344378923
 31
0.0
  0
LINE
  5
C239
  8
0
 10
158.520396026936
 20
392.88642344378928
 30
0.0
 11
145.24939602693601
 21
415.88642344378923
 31
0.0
  0
LINE
  5
C23A
  8
0
 10
145.24939602693601
 20
415.88642344378923
 30
0.0
 11
158.520396026936
 21
438.88642344378923
 31
0.0
  0
LINE
  5
C23B
  8
0
 10
185.07839602693599
 20
392.88642344378928
 30
0.0
 11
198.34939602693601
 21
415.88642344378923
 31
0.0
  0
LINE
  5
C23C
  8
0
 10
198.34939602693601
 20
415.88642344378923
 30
0.0
 11
185.07839602693599
 21
438.88642344378923
 31
0.0
  0
CIRCLE
  5
C371
  8
0
 10
171.79939602693599
 20
415.88642344378923
 30
0.0
 40
22.0
  0
LINE
  5
C3EC
  8
0
 10
402.22097921145991
 20
143.90023185652331
 30
0.0
 11
402.22097921145991
 21
119.90023185652331
 31
0.0
  0
LINE
  5
C3ED
  8
0
 10
402.22097921145991
 20
119.90023185652331
 30
0.0
 11
356.22097921146002
 21
119.90023185652331
 31
0.0
  0
LINE
  5
C3EE
  8
0
 10
356.22097921146002
 20
119.90023185652331
 30
0.0
 11
356.22097921146002
 21
143.90023185652331
 31
0.0
  0
LINE
  5
C3EF
  8
0
 10
356.22097921146002
 20
143.90023185652331
 30
0.0
 11
402.22097921145991
 21
143.90023185652331
 31
0.0
  0
LINE
  5
C3F0
  8
0
 10
379.22097921146002
 20
123.4502318565233
 30
0.0
 11
379.22097921146002
 21
140.35023185652329
 31
0.0
  0
ARC
  5
C3F1
  8
0
 10
390.72097921145991
 20
123.498471293143
 30
0.0
 40
20.401760563380279
 50
55.689540662732192
 51
124.3104593372678
  0
ARC
  5
C3F2
  8
0
 10
367.72097921146002
 20
123.498471293143
 30
0.0
 40
20.4017605633803
 50
55.689540662732192
 51
124.3104593372678
  0
ARC
  5
C3F3
  8
0
 10
367.72097921146002
 20
140.30199241990351
 30
0.0
 40
20.401760563380279
 50
235.68954066273221
 51
304.31045933726779
  0
ARC
  5
C3F4
  8
0
 10
390.72097921145991
 20
140.30199241990351
 30
0.0
 40
20.401760563380279
 50
235.68954066273221
 51
304.31045933726779
  0
LINE
  5
C3F5
  8
0
 10
198.34939602693609
 20
140.9810848565233
 30
0.0
 11
198.34939602693601
 21
122.8193788565233
 31
0.0
  0
LINE
  5
C3F6
  8
0
 10
145.24939602693601
 20
122.8193788565233
 30
0.0
 11
145.2493960269361
 21
140.9810848565233
 31
0.0
  0
LINE
  5
C3F7
  8
0
 10
185.07939602693611
 20
122.8193788565233
 30
0.0
 11
185.07939602693611
 21
140.9810848565233
 31
0.0
  0
LINE
  5
C3F8
  8
0
 10
158.51939602693599
 20
122.8193788565233
 30
0.0
 11
158.51939602693611
 21
140.9810848565233
 31
0.0
  0
LINE
  5
C3F9
  8
0
 10
193.79939602693599
 20
143.90023185652331
 30
0.0
 11
149.79939602693599
 21
143.90023185652331
 31
0.0
  0
ARC
  5
C3FA
  8
0
 10
191.7143960269361
 20
134.90023185652331
 30
0.0
 40
9.0
 50
72.129239965408985
 51
137.49532599999731
  0
ARC
  5
C3FB
  8
0
 10
171.79939602693611
 20
112.2334768565233
 30
0.0
 40
31.666754999999998
 50
65.205353999999843
 51
114.7946460000001
  0
ARC
  5
C3FC
  8
0
 10
151.88439602693609
 20
134.90023185652331
 30
0.0
 40
9.0
 50
42.504674000002638
 51
107.87076003459789
  0
ARC
  5
C3FD
  8
0
 10
151.884396026936
 20
128.90023185652331
 30
0.0
 40
9.0
 50
252.12923996540209
 51
317.49532599999742
  0
ARC
  5
C3FE
  8
0
 10
171.79939602693599
 20
151.5669868565233
 30
0.0
 40
31.666754999999998
 50
245.20535399999989
 51
294.79464600000011
  0
ARC
  5
C3FF
  8
0
 10
191.7143960269361
 20
128.90023185652331
 30
0.0
 40
9.0
 50
222.50467400000261
 51
287.870760034591
  0
LINE
  5
C400
  8
0
 10
193.79939602693599
 20
119.90023185652331
 30
0.0
 11
149.79939602693599
 21
119.90023185652331
 31
0.0
  0
CIRCLE
  5
C40C
  8
3
 10
171.79939602693591
 20
415.88642344378923
 30
0.0
 40
13.105499999999999
  0
LINE
  5
C41B
  8
0
 10
145.24939602943499
 20
140.98108500662991
 30
0.0
 11
149.79939602693599
 21
143.90023185652331
 31
0.0
  0
LINE
  5
C41C
  8
0
 10
145.24939602943499
 20
122.8193787064168
 30
0.0
 11
149.79939602693599
 21
119.90023185652331
 31
0.0
  0
LINE
  5
C41D
  8
0
 10
198.34939602443711
 20
122.8193787064167
 30
0.0
 11
193.79939602693599
 21
119.90023185652331
 31
0.0
  0
LINE
  5
C41E
  8
0
 10
193.79939602693599
 20
143.90023185652331
 30
0.0
 11
198.3493960244372
 21
140.98108500662991
 31
0.0
  0
TEXT
  5
C65C
  8
0
 62
     3
 10
0.0
 20
0.0
 30
0.0
 40
10.0
  1
LVA125B30B
  7
STANDARD1
  0
ENDSEC
  0
EOF
