  0
SECTION
  2
HEADER
  9
$ACADVER
  1
AC1009
  9
$INSBASE
 10
0.0
 20
0.0
 30
0.0
  9
$EXTMIN
 10
0.0
 20
-2.960436562073669
 30
0.0
  9
$EXTMAX
 10
173.0728274351444
 20
295.41948524698819
 30
0.0
  9
$LIMMIN
 10
0.0
 20
0.0
  9
$LIMMAX
 10
375.0
 20
270.0
  9
$ORTHOMODE
 70
     1
  9
$REGENMODE
 70
     1
  9
$FILLMODE
 70
     1
  9
$QTEXTMODE
 70
     0
  9
$MIRRTEXT
 70
     0
  9
$DRAGMODE
 70
     2
  9
$LTSCALE
 40
6.0
  9
$OSMODE
 70
  3071
  9
$ATTMODE
 70
     1
  9
$TEXTSIZE
 40
0.2
  9
$TRACEWID
 40
0.05
  9
$TEXTSTYLE
  7
STANDARD
  9
$CLAYER
  8
0
  9
$CELTYPE
  6
BYLAYER
  9
$CECOLOR
 62
   256
  9
$DIMSCALE
 40
1.0
  9
$DIMASZ
 40
3.0
  9
$DIMEXO
 40
1.0
  9
$DIMDLI
 40
6.0
  9
$DIMRND
 40
0.0
  9
$DIMDLE
 40
0.0
  9
$DIMEXE
 40
1.0
  9
$DIMTP
 40
495.0
  9
$DIMTM
 40
0.0
  9
$DIMTXT
 40
3.0
  9
$DIMCEN
 40
0.0
  9
$DIMTSZ
 40
0.0
  9
$DIMTOL
 70
     0
  9
$DIMLIM
 70
     0
  9
$DIMTIH
 70
     0
  9
$DIMTOH
 70
     0
  9
$DIMSE1
 70
     0
  9
$DIMSE2
 70
     0
  9
$DIMTAD
 70
     1
  9
$DIMZIN
 70
     0
  9
$DIMBLK
  1

  9
$DIMASO
 70
     0
  9
$DIMSHO
 70
     0
  9
$DIMPOST
  1

  9
$DIMAPOST
  1

  9
$DIMALT
 70
     0
  9
$DIMALTD
 70
     2
  9
$DIMALTF
 40
25.399999999999999
  9
$DIMLFAC
 40
1.0
  9
$DIMTOFL
 70
     1
  9
$DIMTVP
 40
0.0
  9
$DIMTIX
 70
     1
  9
$DIMSOXD
 70
     0
  9
$DIMSAH
 70
     0
  9
$DIMBLK1
  1

  9
$DIMBLK2
  1

  9
$DIMSTYLE
  2
STANDARD
  9
$DIMCLRD
 70
     0
  9
$DIMCLRE
 70
     0
  9
$DIMCLRT
 70
     4
  9
$DIMTFAC
 40
1.0
  9
$DIMGAP
 40
1.0
  9
$LUNITS
 70
     2
  9
$LUPREC
 70
     4
  9
$SKETCHINC
 40
0.1
  9
$FILLETRAD
 40
2.0
  9
$AUNITS
 70
     0
  9
$AUPREC
 70
     0
  9
$MENU
  1
C:\R13\WIN\SUPPORT\ACAD-I
  9
$ELEVATION
 40
0.0
  9
$PELEVATION
 40
0.0
  9
$THICKNESS
 40
0.0
  9
$LIMCHECK
 70
     0
  9
$BLIPMODE
 70
     0
  9
$CHAMFERA
 40
0.0
  9
$CHAMFERB
 40
0.0
  9
$SKPOLY
 70
     0
  9
$TDCREATE
 40
2451962.414850533
  9
$TDUPDATE
 40
2456597.6126738079
  9
$TDINDWG
 40
0.1357632523
  9
$TDUSRTIMER
 40
2456555.0830374071
  9
$USRTIMER
 70
     1
  9
$ANGBASE
 50
0.0
  9
$ANGDIR
 70
     0
  9
$PDMODE
 70
     0
  9
$PDSIZE
 40
0.0
  9
$PLINEWID
 40
0.0
  9
$COORDS
 70
     1
  9
$SPLFRAME
 70
     0
  9
$SPLINETYPE
 70
     6
  9
$SPLINESEGS
 70
     8
  9
$ATTDIA
 70
     0
  9
$ATTREQ
 70
     1
  9
$HANDLING
 70
     1
  9
$HANDSEED
  5
46E5
  9
$SURFTAB1
 70
     6
  9
$SURFTAB2
 70
     6
  9
$SURFTYPE
 70
     6
  9
$SURFU
 70
     6
  9
$SURFV
 70
     6
  9
$UCSNAME
  2

  9
$UCSORG
 10
0.0
 20
0.0
 30
0.0
  9
$UCSXDIR
 10
1.0
 20
0.0
 30
0.0
  9
$UCSYDIR
 10
0.0
 20
1.0
 30
0.0
  9
$PUCSNAME
  2

  9
$PUCSORG
 10
0.0
 20
0.0
 30
0.0
  9
$PUCSXDIR
 10
1.0
 20
0.0
 30
0.0
  9
$PUCSYDIR
 10
0.0
 20
1.0
 30
0.0
  9
$USERI1
 70
     4
  9
$USERI2
 70
     1
  9
$USERI3
 70
     0
  9
$USERI4
 70
     0
  9
$USERI5
 70
     0
  9
$USERR1
 40
1.0
  9
$USERR2
 40
3.0
  9
$USERR3
 40
3.0
  9
$USERR4
 40
3.0
  9
$USERR5
 40
10.0
  9
$WORLDVIEW
 70
     1
  9
$SHADEDGE
 70
     3
  9
$SHADEDIF
 70
    70
  9
$TILEMODE
 70
     1
  9
$MAXACTVP
 70
    16
  9
$PLIMCHECK
 70
     0
  9
$PEXTMIN
 10
1.0000000000000000E+020
 20
1.0000000000000000E+020
 30
1.0000000000000000E+020
  9
$PEXTMAX
 10
-1.0000000000000000E+020
 20
-1.0000000000000000E+020
 30
-1.0000000000000000E+020
  9
$PLIMMIN
 10
0.0
 20
0.0
  9
$PLIMMAX
 10
12.0
 20
9.0
  9
$UNITMODE
 70
     0
  9
$VISRETAIN
 70
     0
  9
$PLINEGEN
 70
     0
  9
$PSLTSCALE
 70
     0
  0
ENDSEC
  0
SECTION
  2
TABLES
  0
TABLE
  2
VPORT
 70
     1
  0
VPORT
  2
*ACTIVE
 70
     0
 10
0.0
 20
0.0
 11
1.0
 21
1.0
 12
187.49427839065231
 22
146.8794137751234
 13
0.0
 23
0.0
 14
10.0
 24
10.0
 15
10.0
 25
10.0
 16
0.0
 26
0.0
 36
1.0
 17
0.0
 27
0.0
 37
0.0
 40
303.1117724152362
 41
2.304913294797688
 42
50.0
 43
0.0
 44
0.0
 50
0.0
 51
0.0
 71
    16
 72
   100
 73
     1
 74
     0
 75
     0
 76
     0
 77
     0
 78
     0
  0
ENDTAB
  0
TABLE
  2
LTYPE
 70
     3
  0
LTYPE
  2
CONTINUOUS
 70
     0
  3
Solid Line
 72
    65
 73
     0
 40
0.0
  0
LTYPE
  2
PHANTOM2
 70
     0
  3
___ _ _ ___ _ _ ___ _ _ ___ _ _
 72
    65
 73
     6
 40
1.25
 49
0.625
 49
-0.125
 49
0.125
 49
-0.125
 49
0.125
 49
-0.125
  0
LTYPE
  2
CENTER
 70
     0
  3
____ _ ____ _ ____ _ ____ _ ____ _ ____ _ ____
 72
    65
 73
     4
 40
2.0
 49
1.25
 49
-0.25
 49
0.25
 49
-0.25
  0
ENDTAB
  0
TABLE
  2
LAYER
 70
     3
  0
LAYER
  2
0
 70
     0
 62
     7
  6
CONTINUOUS
  0
LAYER
  2
1
 70
     0
 62
     1
  6
CENTER
  0
LAYER
  2
3
 70
     0
 62
     3
  6
CONTINUOUS
  0
ENDTAB
  0
TABLE
  2
STYLE
 70
     3
  0
STYLE
  2
STANDARD
 70
     0
 40
0.0
 41
1.0
 50
0.0
 71
     0
 42
0.2
  3
SIMPLEX
  4
BIGFONT
  0
STYLE
  2
ANNOTATIVE
 70
     0
 40
0.0
 41
1.0
 50
0.0
 71
     0
 42
0.2
  3
txt
  4

  0
STYLE
  2
STANDARD1
 70
     0
 40
0.0
 41
1.0
 50
0.0
 71
     0
 42
3.0
  3
txt
  4

  0
ENDTAB
  0
TABLE
  2
VIEW
 70
     0
  0
ENDTAB
  0
TABLE
  2
UCS
 70
     0
  0
ENDTAB
  0
TABLE
  2
APPID
 70
    29
  0
APPID
  2
ACAD
 70
     0
  0
APPID
  2
ACADANNOTATIVE
 70
     0
  0
APPID
  2
GENIUS_GENOREF_13
 70
     0
  0
APPID
  2
GENIUS_GENOENT_13
 70
     0
  0
APPID
  2
GENIUS_GENBH_13
 70
     0
  0
APPID
  2
GENIUS_GENOBJ_13
 70
     0
  0
APPID
  2
GENIUS_GENODEF_13
 70
     0
  0
APPID
  2
GENIUS_GENOLIS_13
 70
     0
  0
APPID
  2
GENIUS_GENOBJ-NBEHI-BHF_13
 70
     0
  0
APPID
  2
GENIUS_GENOBJ-NBEHI-BHB_13
 70
     0
  0
APPID
  2
GENIUS_GENOBJ-F-PART_13
 70
     0
  0
APPID
  2
GENIUS_GEFSTDP_13
 70
     0
  0
APPID
  2
GENIUS_GENOBJ-N-RSSYM_13
 70
     0
  0
APPID
  2
GENIUS_GENSYMENT_13
 70
     0
  0
APPID
  2
GENIUS_GENOBJ-N-TIT_13
 70
     0
  0
APPID
  2
GENIUS_GENTITLE_13
 70
     0
  0
APPID
  2
GENIUS_GENZVEED_13
 70
     0
  0
APPID
  2
GENIUS_GENOBJ-N-LEADER_13
 70
     0
  0
APPID
  2
GENIUS_GENOBJ-N-FIL_13
 70
     0
  0
APPID
  2
GENIUS_GENOBJ-N-SEC_13
 70
     0
  0
APPID
  2
GENIUS_GENOBJ-N-CRS_13
 70
     0
  0
APPID
  2
GENIUS_GENOBJ-N-ZOO_13
 70
     0
  0
APPID
  2
GENIUS_GENZOO_13
 70
     0
  0
APPID
  2
GENIUS_GENOBJ-F-TOL_13
 70
     0
  0
APPID
  2
GENIUS_GENFIL_13
 70
     0
  0
APPID
  2
GENIUS_GENOBJ-N-CHA_13
 70
     0
  0
APPID
  2
ACAD_EXEMPT_FROM_CAD_STANDARDS
 70
     0
  0
APPID
  2
ACAD_MLEADERVER
 70
     0
  0
APPID
  2
ACAD_NAV_VCDISPLAY
 70
     0
  0
ENDTAB
  0
TABLE
  2
DIMSTYLE
 70
     2
  0
DIMSTYLE
  2
STANDARD
 70
     0
  3

  4

  5

  6

  7

 40
1.0
 41
0.18
 42
0.0625
 43
0.38
 44
0.18
 45
0.0
 46
0.0
 47
0.0
 48
0.0
140
0.18
141
0.09
142
0.0
143
25.399999999999999
144
1.0
145
0.0
146
1.0
147
0.09
 71
     0
 72
     0
 73
     1
 74
     1
 75
     0
 76
     0
 77
     0
 78
     0
170
     0
171
     2
172
     0
173
     0
174
     0
175
     0
176
     0
177
     0
178
     0
  0
DIMSTYLE
  2
ANNOTATIVE
 70
     0
  3

  4

  5

  6

  7

 40
1.0
 41
0.18
 42
0.0625
 43
0.38
 44
0.18
 45
0.0
 46
0.0
 47
0.0
 48
0.0
140
0.18
141
0.09
142
0.0
143
25.399999999999999
144
1.0
145
0.0
146
1.0
147
0.09
 71
     0
 72
     0
 73
     1
 74
     1
 75
     0
 76
     0
 77
     0
 78
     0
170
     0
171
     2
172
     0
173
     0
174
     0
175
     0
176
     0
177
     0
178
     0
  0
ENDTAB
  0
ENDSEC
  0
SECTION
  2
BLOCKS
  0
BLOCK
  8
0
  2
$MODEL_SPACE
 70
     0
 10
0.0
 20
0.0
 30
0.0
  3
$MODEL_SPACE
  1

  0
ENDBLK
  5
4608
  8
0
  0
BLOCK
 67
     1
  8
0
  2
$PAPER_SPACE
 70
     0
 10
0.0
 20
0.0
 30
0.0
  3
$PAPER_SPACE
  1

  0
ENDBLK
  5
4604
 67
     1
  8
0
  0
ENDSEC
  0
SECTION
  2
ENTITIES
  0
ARC
  5
419A
  8
0
 10
171.0728274351444
 20
37.229097131476287
 30
0.0
 40
2.0
 50
359.9999999999996
 51
59.036243467926461
  0
ARC
  5
419B
  8
0
 10
166.07282743514421
 20
42.22909713147628
 30
0.0
 40
2.0
 50
0.0
 51
59.036243467926177
  0
ARC
  5
419C
  8
0
 10
161.07282743514421
 20
47.007411966560603
 30
0.0
 40
2.0
 50
359.9999999999992
 51
68.198590513648284
  0
ARC
  5
419D
  8
0
 10
156.0728274351444
 20
50.361477889414623
 30
0.0
 40
2.0
 50
0.0000000000008142
 51
89.999999999999943
  0
LINE
  5
419E
  8
0
 10
168.07282743514421
 20
41.361477889414388
 30
0.0
 11
172.10181894599941
 21
38.944082982901421
 31
0.0
  0
LINE
  5
419F
  8
0
 10
158.0728274351444
 20
50.361477889414388
 30
0.0
 11
158.0728274351444
 21
50.361477889414623
 31
0.0
  0
LINE
  5
41A0
  8
0
 10
130.0728274351444
 20
52.361477889414637
 30
0.0
 11
156.0728274351444
 21
52.361477889414637
 31
0.0
  0
LINE
  5
41A1
  8
0
 10
158.0728274351444
 20
50.361477889414388
 30
0.0
 11
161.81560878785251
 21
48.864365348331198
 31
0.0
  0
LINE
  5
41A2
  8
0
 10
163.0728274351444
 20
46.361477889414388
 30
0.0
 11
167.10181894599941
 21
43.944082982901421
 31
0.0
  0
LINE
  5
41A3
  8
0
 10
168.07282743514421
 20
41.361477889414388
 30
0.0
 11
168.07282743514421
 21
42.22909713147628
 31
0.0
  0
LINE
  5
41A4
  8
0
 10
163.0728274351444
 20
46.361477889414388
 30
0.0
 11
163.07282743514421
 21
47.007411966560603
 31
0.0
  0
LINE
  5
41A5
  8
0
 10
128.0728274351444
 20
50.361477889414623
 30
0.0
 11
158.07282743514421
 21
50.361477889414623
 31
0.0
  0
LINE
  5
41A6
  8
0
 10
123.0728274351444
 20
46.36147788941463
 30
0.0
 11
163.0728274351444
 21
46.361477889414388
 31
0.0
  0
LINE
  5
41A7
  8
0
 10
118.0728274351445
 20
41.361477889414388
 30
0.0
 11
168.07282743514421
 21
41.361477889414388
 31
0.0
  0
LINE
  5
41AA
  8
0
 10
113.5728274351444
 20
28.36147788941463
 30
0.0
 11
172.57282743514409
 21
28.36147788941463
 31
0.0
  0
LINE
  5
41AB
  8
0
 10
173.07282743514421
 20
28.86147788941463
 30
0.0
 11
173.0728274351444
 21
37.229097131476287
 31
0.0
  0
LINE
  5
41AC
  8
0
 10
173.07282743514421
 20
28.86147788941463
 30
0.0
 11
172.57282743514421
 21
28.36147788941463
 31
0.0
  0
CIRCLE
  5
41AD
  8
0
 10
51.8890247178308
 20
260.41948524698807
 30
0.0
 40
30.0
  0
CIRCLE
  5
41AE
  8
0
 10
51.8890247178308
 20
260.41948524698807
 30
0.0
 40
25.0
  0
CIRCLE
  5
41AF
  8
0
 10
51.8890247178308
 20
260.41948524698807
 30
0.0
 40
20.00000000000006
  0
LINE
  5
41B0
  8
1
 10
51.8890247178308
 20
295.41948524698819
 30
0.0
 11
51.8890247178308
 21
225.4194852469881
 31
0.0
  0
LINE
  5
41B1
  8
1
 10
86.889024717830779
 20
260.41948524698807
 30
0.0
 11
16.8890247178308
 21
260.41948524698807
 31
0.0
  0
LINE
  5
41BF
  8
0
 10
113.0728274351445
 20
28.86147788941463
 30
0.0
 11
113.5728274351445
 21
28.36147788941463
 31
0.0
  0
LINE
  5
41C0
  8
0
 10
113.0728274351445
 20
28.86147788941463
 30
0.0
 11
113.0728274351444
 21
37.229097131476287
 31
0.0
  0
LINE
  5
41C2
  8
0
 10
123.0728274351444
 20
46.361477889414388
 30
0.0
 11
123.0728274351445
 21
47.007411966560603
 31
0.0
  0
LINE
  5
41C3
  8
0
 10
118.0728274351445
 20
41.361477889414388
 30
0.0
 11
118.0728274351445
 21
42.22909713147628
 31
0.0
  0
LINE
  5
41C4
  8
0
 10
123.0728274351444
 20
46.361477889414388
 30
0.0
 11
119.0438359242894
 21
43.944082982901421
 31
0.0
  0
LINE
  5
41C5
  8
0
 10
128.0728274351444
 20
50.361477889414388
 30
0.0
 11
124.3300460824363
 21
48.864365348331198
 31
0.0
  0
LINE
  5
41C6
  8
0
 10
128.0728274351444
 20
50.361477889414388
 30
0.0
 11
128.0728274351444
 21
50.361477889414623
 31
0.0
  0
LINE
  5
41C7
  8
0
 10
118.0728274351445
 20
41.361477889414388
 30
0.0
 11
114.0438359242894
 21
38.944082982901421
 31
0.0
  0
ARC
  5
41C8
  8
0
 10
130.0728274351444
 20
50.361477889414623
 30
0.0
 40
2.0
 50
90.000000000000057
 51
179.9999999999992
  0
ARC
  5
41C9
  8
0
 10
125.0728274351445
 20
47.007411966560603
 30
0.0
 40
2.0
 50
111.8014094863517
 51
180.0000000000008
  0
ARC
  5
41CA
  8
0
 10
120.0728274351445
 20
42.22909713147628
 30
0.0
 40
2.0
 50
120.9637565320738
 51
180.0
  0
ARC
  5
41CB
  8
0
 10
115.0728274351444
 20
37.229097131476287
 30
0.0
 40
2.0
 50
120.9637565320735
 51
180.0000000000004
  0
CIRCLE
  5
41CC
  8
0
 10
51.8890247178308
 20
260.41948524698807
 30
0.0
 40
10.0
  0
CIRCLE
  5
41CD
  8
3
 10
51.8890247178308
 20
260.41948524698807
 30
0.0
 40
8.6470000000000002
  0
LINE
  5
41CE
  8
0
 10
43.228770679986489
 20
245.41948524698819
 30
0.0
 11
60.549278755675353
 21
245.41948524698819
 31
0.0
  0
LINE
  5
41CF
  8
0
 10
60.549278755675353
 20
245.41948524698819
 30
0.0
 11
69.20953279351977
 21
260.41948524698807
 31
0.0
  0
LINE
  5
41D0
  8
0
 10
69.20953279351977
 20
260.41948524698807
 30
0.0
 11
60.549278755675111
 21
275.41948524698807
 31
0.0
  0
LINE
  5
41D1
  8
0
 10
60.549278755675111
 20
275.41948524698807
 30
0.0
 11
43.22877067998671
 21
275.41948524698807
 31
0.0
  0
LINE
  5
41D2
  8
0
 10
43.22877067998671
 20
275.41948524698807
 30
0.0
 11
34.568516642142072
 21
260.41948524698842
 31
0.0
  0
LINE
  5
41D3
  8
0
 10
34.568516642142072
 20
260.41948524698842
 30
0.0
 11
43.228770679986489
 21
245.41948524698819
 31
0.0
  0
CIRCLE
  5
41D4
  8
0
 10
51.8890247178308
 20
260.41948524698807
 30
0.0
 40
14.5
  0
LINE
  5
41D5
  8
3
 10
43.242024717829842
 20
113.3614778894375
 30
0.0
 11
43.242024717829842
 21
208.21447788941489
 31
0.0
  0
LINE
  5
41D6
  8
0
 10
41.88902471782977
 20
113.3614778894375
 30
0.0
 11
41.88902471782977
 21
206.8614778894148
 31
0.0
  0
LINE
  5
41D7
  8
0
 10
61.889024717829777
 20
113.3614778894373
 30
0.0
 11
61.889024717829777
 21
206.8614778894146
 31
0.0
  0
LINE
  5
41D8
  8
3
 10
60.536024717829733
 20
113.3614778894375
 30
0.0
 11
60.536024717829733
 21
208.21447788941461
 31
0.0
  0
LINE
  5
41D9
  8
0
 10
37.389024717829898
 20
113.36147788943779
 30
0.0
 11
34.568516642141283
 21
111.73305679268741
 31
0.0
  0
ARC
  5
41DA
  8
0
 10
38.898643661063723
 20
105.4053345095665
 30
0.0
 40
7.6674682452751766
 50
55.615752531994502
 51
115.6157525295383
  0
ARC
  5
41DB
  8
0
 10
38.898643661063723
 20
105.4053345095665
 30
0.0
 40
7.6674682452751766
 50
124.3842474680055
 51
124.3842474680055
  0
ARC
  5
41DC
  8
0
 10
51.889024717903347
 20
84.412548717448999
 30
0.0
 40
28.660254037392811
 50
72.412046225870014
 51
107.5879537744307
  0
ARC
  5
41DD
  8
0
 10
38.898643661063723
 20
105.3176212693085
 30
0.0
 40
7.6674682452751766
 50
235.6157525319945
 51
235.6157525319945
  0
ARC
  5
41DE
  8
0
 10
38.898643661063723
 20
105.3176212693085
 30
0.0
 40
7.6674682452751766
 50
244.3842474704617
 51
304.38424746800558
  0
LINE
  5
41DF
  8
0
 10
37.389024717829898
 20
97.361477889437325
 30
0.0
 11
34.568516642141283
 21
98.989898986187654
 31
0.0
  0
LINE
  5
41E0
  8
0
 10
34.56851664214151
 20
111.73305679268741
 30
0.0
 11
34.568516641857741
 21
98.989898986351363
 31
0.0
  0
LINE
  5
41E1
  8
0
 10
43.228770679985693
 20
98.989898986211074
 30
0.0
 11
43.22877068013964
 21
111.73305679268741
 31
0.0
  0
ARC
  5
41E2
  8
0
 10
51.889024717903347
 20
126.31040706142581
 30
0.0
 40
28.660254037392811
 50
252.41204622556921
 51
287.58795377413009
  0
LINE
  5
41E3
  8
0
 10
60.549278755674088
 20
98.989898986211074
 30
0.0
 11
60.549278755520149
 21
111.73305679268741
 31
0.0
  0
LINE
  5
41E4
  8
0
 10
69.209532793518292
 20
111.73305679268741
 30
0.0
 11
69.209532793802055
 21
98.989898986351363
 31
0.0
  0
LINE
  5
41E5
  8
0
 10
66.389024717829898
 20
97.361477889437325
 30
0.0
 11
69.20953279351852
 21
98.989898986187654
 31
0.0
  0
ARC
  5
41E6
  8
0
 10
64.87940577459608
 20
105.3176212693085
 30
0.0
 40
7.6674682452751766
 50
235.6157525319945
 51
295.61575252953838
  0
ARC
  5
41E7
  8
0
 10
64.87940577459608
 20
105.3176212693085
 30
0.0
 40
7.6674682452751766
 50
304.38424746800558
 51
304.38424746800558
  0
ARC
  5
41E8
  8
0
 10
64.87940577459608
 20
105.4053345095665
 30
0.0
 40
7.6674682452751766
 50
55.615752531994502
 51
55.615752531994502
  0
ARC
  5
41E9
  8
0
 10
64.87940577459608
 20
105.4053345095665
 30
0.0
 40
7.6674682452751766
 50
64.384247470461645
 51
124.3842474680055
  0
LINE
  5
41EA
  8
0
 10
66.389024717829898
 20
113.36147788943779
 30
0.0
 11
69.20953279351852
 21
111.73305679268741
 31
0.0
  0
LINE
  5
41EB
  8
0
 10
37.389024717829898
 20
113.36147788943779
 30
0.0
 11
66.38902471783058
 21
113.3614778894373
 31
0.0
  0
LINE
  5
41EC
  8
0
 10
66.389024717830353
 20
97.361477889437523
 30
0.0
 11
37.389024717829898
 21
97.361477889437325
 31
0.0
  0
LINE
  5
41EF
  8
0
 10
60.389024717829791
 20
61.361477889376602
 30
0.0
 11
60.389024717829791
 21
54.861477889362497
 31
0.0
  0
LINE
  5
41F0
  8
0
 10
43.38902471782977
 20
61.361477889376602
 30
0.0
 11
43.38902471782977
 21
54.861477889390919
 31
0.0
  0
LINE
  5
41F1
  8
0
 10
63.389024717862981
 20
61.361477889357261
 30
0.0
 11
40.389024717796588
 21
61.361477889395701
 31
0.0
  0
LINE
  5
41F2
  8
0
 10
40.389024717796588
 20
71.361477889395701
 30
0.0
 11
63.389024717862981
 21
71.361477889434127
 31
0.0
  0
ARC
  5
41F3
  8
0
 10
45.889024717862981
 20
53.742675737497379
 30
0.0
 40
17.330127017333279
 50
69.743841997633098
 51
110.2561580023669
  0
LINE
  5
41F4
  8
0
 10
39.889024717847967
 20
71.072802754830718
 30
0.0
 11
40.389024717862981
 21
71.361477889434127
 31
0.0
  0
LINE
  5
41F5
  8
0
 10
39.889024717847967
 20
61.650153023960669
 30
0.0
 11
40.389024717862981
 21
61.361477889357261
 31
0.0
  0
ARC
  5
41F6
  8
0
 10
45.889024717862981
 20
78.98028004129398
 30
0.0
 40
17.330127017333279
 50
249.7438419976331
 51
290.25615800236699
  0
LINE
  5
41F7
  8
0
 10
39.889024717847967
 20
71.072802754830718
 30
0.0
 11
39.889024717862981
 21
61.650153023952043
 31
0.0
  0
LINE
  5
41F9
  8
0
 10
63.88902471787798
 20
71.072802754830718
 30
0.0
 11
63.889024717862981
 21
61.650153023952043
 31
0.0
  0
ARC
  5
41FA
  8
0
 10
57.889024717862981
 20
78.98028004129398
 30
0.0
 40
17.330127017333279
 50
249.7438419976331
 51
290.25615800236699
  0
LINE
  5
41FB
  8
0
 10
63.88902471787798
 20
61.650153023960669
 30
0.0
 11
63.389024717862981
 21
61.361477889357261
 31
0.0
  0
LINE
  5
41FC
  8
0
 10
63.88902471787798
 20
71.072802754830718
 30
0.0
 11
63.389024717862981
 21
71.361477889434127
 31
0.0
  0
ARC
  5
41FD
  8
0
 10
57.889024717862981
 20
53.742675737497379
 30
0.0
 40
17.330127017333279
 50
69.743841997633098
 51
110.2561580023669
  0
LINE
  5
41FE
  8
0
 10
44.389024717829763
 20
209.3614778894148
 30
0.0
 11
59.389024717829777
 21
209.3614778894146
 31
0.0
  0
LINE
  5
41FF
  8
0
 10
61.889024717829777
 20
71.3614778894148
 30
0.0
 11
61.889024717829777
 21
97.361477889437325
 31
0.0
  0
LINE
  5
4200
  8
3
 10
60.536024717829733
 20
75.3614778894148
 30
0.0
 11
60.536024717829733
 21
97.361477889437325
 31
0.0
  0
LINE
  5
4201
  8
3
 10
43.242024717829842
 20
75.3614778894148
 30
0.0
 11
43.242024717829842
 21
97.361477889437083
 31
0.0
  0
LINE
  5
4202
  8
0
 10
41.88902471782977
 20
71.3614778894148
 30
0.0
 11
41.88902471782977
 21
97.361477889437325
 31
0.0
  0
LINE
  5
4203
  8
0
 10
41.88902471782977
 20
206.8614778894148
 30
0.0
 11
44.389024717829763
 21
209.3614778894148
 31
0.0
  0
LINE
  5
4204
  8
0
 10
59.389024717829777
 20
209.3614778894146
 30
0.0
 11
61.889024717829777
 21
206.8614778894146
 31
0.0
  0
LINE
  5
4205
  8
0
 10
41.88902471782977
 20
206.8614778894148
 30
0.0
 11
61.889024717829777
 21
206.8614778894146
 31
0.0
  0
LINE
  5
4206
  8
0
 10
61.889024717829777
 20
75.3614778894148
 30
0.0
 11
41.88902471782977
 21
75.3614778894148
 31
0.0
  0
LINE
  5
4207
  8
3
 10
43.242024717829842
 20
75.3614778894148
 30
0.0
 11
41.88902471782977
 21
73.01801314677391
 31
0.0
  0
LINE
  5
4208
  8
3
 10
60.536024717829733
 20
75.3614778894148
 30
0.0
 11
61.889024717829777
 21
73.01801314677391
 31
0.0
  0
LINE
  5
420A
  8
0
 10
154.5728274350904
 20
61.361477889495958
 30
0.0
 11
131.57282743530601
 21
61.361477889495958
 31
0.0
  0
LINE
  5
420B
  8
0
 10
131.57282743519829
 20
71.361477889495958
 30
0.0
 11
154.5728274350904
 21
71.361477889495958
 31
0.0
  0
ARC
  5
420C
  8
0
 10
153.46513228061181
 20
64.938828159210289
 30
0.0
 40
6.1339745957208196
 50
64.384247469843373
 51
124.3842474712085
  0
LINE
  5
420D
  8
0
 10
156.9292338957712
 20
70.001005985101756
 30
0.0
 11
154.5728274350904
 21
71.361477889495958
 31
0.0
  0
LINE
  5
420E
  8
0
 10
156.9292338957712
 20
62.72194979389019
 30
0.0
 11
154.5728274350904
 21
61.361477889495958
 31
0.0
  0
ARC
  5
420F
  8
0
 10
153.46513228061181
 20
67.784127619781657
 30
0.0
 40
6.1339745957208196
 50
235.6157525287914
 51
295.61575253015661
  0
LINE
  5
4210
  8
0
 10
156.92923389574941
 20
70.001005985101756
 30
0.0
 11
156.92923389574941
 21
62.721949793877442
 31
0.0
  0
LINE
  5
4211
  8
0
 10
150.00103066547359
 20
70.001005985101756
 30
0.0
 11
150.00103066547359
 21
62.72194979389019
 31
0.0
  0
LINE
  5
4212
  8
0
 10
136.14462420492291
 20
70.001005985101756
 30
0.0
 11
136.14462420492291
 21
62.72194979389019
 31
0.0
  0
LINE
  5
4213
  8
0
 10
129.21642097464709
 20
70.001005985101756
 30
0.0
 11
129.21642097464709
 21
62.721949793877442
 31
0.0
  0
ARC
  5
4214
  8
0
 10
143.07282743519829
 20
84.578356252200351
 30
0.0
 40
22.928203228139491
 50
252.41204622431411
 51
287.58795377568589
  0
ARC
  5
4215
  8
0
 10
132.6805225897848
 20
67.784127619781657
 30
0.0
 40
6.1339745957208196
 50
244.38424746984339
 51
304.3842474712086
  0
LINE
  5
4216
  8
0
 10
129.21642097462529
 20
62.72194979389019
 30
0.0
 11
131.57282743530601
 21
61.361477889495958
 31
0.0
  0
LINE
  5
4217
  8
0
 10
129.21642097462529
 20
70.001005985101756
 30
0.0
 11
131.57282743530601
 21
71.361477889495958
 31
0.0
  0
ARC
  5
4218
  8
0
 10
132.6805225897848
 20
64.938828159210289
 30
0.0
 40
6.1339745957208196
 50
55.615752528791369
 51
115.6157525301566
  0
ARC
  5
4219
  8
0
 10
143.07282743519829
 20
48.144599526791581
 30
0.0
 40
22.928203228139491
 50
72.412046224314139
 51
107.5879537756858
  0
LINE
  5
421A
  8
3
 10
151.71982743514431
 20
75.3614778894148
 30
0.0
 11
153.0728274351444
 21
73.01801314677391
 31
0.0
  0
LINE
  5
421B
  8
3
 10
134.42582743514441
 20
75.3614778894148
 30
0.0
 11
133.0728274351444
 21
73.01801314677391
 31
0.0
  0
LINE
  5
421C
  8
0
 10
153.0728274351444
 20
75.3614778894148
 30
0.0
 11
133.0728274351444
 21
75.3614778894148
 31
0.0
  0
LINE
  5
421D
  8
0
 10
133.0728274351444
 20
206.8614778894148
 30
0.0
 11
153.0728274351444
 21
206.8614778894146
 31
0.0
  0
LINE
  5
421E
  8
0
 10
150.5728274351444
 20
209.3614778894146
 30
0.0
 11
153.0728274351444
 21
206.8614778894146
 31
0.0
  0
LINE
  5
421F
  8
0
 10
133.0728274351444
 20
206.8614778894148
 30
0.0
 11
135.5728274351444
 21
209.3614778894148
 31
0.0
  0
LINE
  5
4220
  8
0
 10
133.0728274351444
 20
71.3614778894148
 30
0.0
 11
133.0728274351444
 21
97.361477889437325
 31
0.0
  0
LINE
  5
4221
  8
3
 10
134.42582743514441
 20
75.3614778894148
 30
0.0
 11
134.42582743514441
 21
97.361477889437083
 31
0.0
  0
LINE
  5
4222
  8
3
 10
151.71982743514431
 20
75.3614778894148
 30
0.0
 11
151.71982743514431
 21
97.361477889437325
 31
0.0
  0
LINE
  5
4223
  8
0
 10
153.0728274351444
 20
71.3614778894148
 30
0.0
 11
153.0728274351444
 21
97.361477889437325
 31
0.0
  0
LINE
  5
4224
  8
0
 10
135.5728274351444
 20
209.3614778894148
 30
0.0
 11
150.5728274351444
 21
209.3614778894146
 31
0.0
  0
LINE
  5
4225
  8
0
 10
134.5728274351444
 20
61.361477889376602
 30
0.0
 11
134.5728274351444
 21
54.861477889390919
 31
0.0
  0
LINE
  5
4226
  8
0
 10
151.5728274351444
 20
61.361477889376602
 30
0.0
 11
151.5728274351444
 21
54.861477889362497
 31
0.0
  0
LINE
  5
4227
  8
0
 10
151.5728274351444
 20
54.861477889362497
 30
0.0
 11
134.5728274351444
 21
54.861477889390713
 31
0.0
  0
ARC
  5
4228
  8
0
 10
143.0817556129285
 20
46.031744070612788
 30
0.0
 40
12.25
 50
133.87987710305001
 51
148.88797918026791
  0
LINE
  5
4229
  8
3
 10
151.71982743514431
 20
113.3614778894375
 30
0.0
 11
151.71982743514431
 21
208.21447788941461
 31
0.0
  0
LINE
  5
422A
  8
0
 10
153.0728274351444
 20
113.3614778894373
 30
0.0
 11
153.0728274351444
 21
206.8614778894146
 31
0.0
  0
LINE
  5
422B
  8
0
 10
133.0728274351444
 20
113.3614778894375
 30
0.0
 11
133.0728274351444
 21
206.8614778894148
 31
0.0
  0
LINE
  5
422C
  8
3
 10
134.42582743514441
 20
113.3614778894375
 30
0.0
 11
134.42582743514441
 21
208.21447788941489
 31
0.0
  0
ARC
  5
422D
  8
0
 10
150.57282743514489
 20
91.410143981173647
 30
0.0
 40
21.662658773668529
 50
69.74384199960231
 51
110.2561580003977
  0
LINE
  5
422E
  8
0
 10
157.5728274351433
 20
113.3614778894375
 30
0.0
 11
158.07282743514469
 21
113.0728027548421
 31
0.0
  0
LINE
  5
422F
  8
0
 10
157.5728274351433
 20
97.361477889438007
 30
0.0
 11
158.07282743514469
 21
97.650153024033429
 31
0.0
  0
ARC
  5
4230
  8
0
 10
150.57282743514489
 20
119.3128117977017
 30
0.0
 40
21.662658773668529
 50
249.7438419996023
 51
290.2561580003977
  0
LINE
  5
4231
  8
0
 10
158.0728274351448
 20
113.0728027548421
 30
0.0
 11
158.07282743514469
 21
97.650153024033429
 31
0.0
  0
LINE
  5
4232
  8
0
 10
128.07282743514489
 20
113.0728027548421
 30
0.0
 11
128.0728274351452
 21
97.650153024033429
 31
0.0
  0
ARC
  5
4233
  8
0
 10
135.572827435145
 20
119.3128117977017
 30
0.0
 40
21.662658773668529
 50
249.7438419996023
 51
290.2561580003977
  0
LINE
  5
4234
  8
0
 10
128.57282743514651
 20
97.361477889438007
 30
0.0
 11
128.0728274351452
 21
97.650153024033429
 31
0.0
  0
LINE
  5
4235
  8
0
 10
128.57282743514651
 20
113.3614778894375
 30
0.0
 11
128.0728274351452
 21
113.0728027548421
 31
0.0
  0
ARC
  5
4236
  8
0
 10
135.572827435145
 20
91.410143981173647
 30
0.0
 40
21.662658773668529
 50
69.74384199960231
 51
110.2561580003977
  0
LINE
  5
4237
  8
0
 10
128.57282743514651
 20
113.3614778894375
 30
0.0
 11
157.5728274351433
 21
113.3614778894375
 31
0.0
  0
LINE
  5
4238
  8
0
 10
157.57282743514489
 20
97.361477889438007
 30
0.0
 11
128.57282743514651
 21
97.361477889438007
 31
0.0
  0
ARC
  5
423A
  8
0
 10
143.0817556129285
 20
46.031744070612788
 30
0.0
 40
12.25
 50
31.112020819732059
 51
46.12012289676111
  0
LINE
  5
423B
  8
1
 10
51.889024717829777
 20
214.3614778894148
 30
0.0
 11
51.889024717829777
 21
23.36147788929512
 31
0.0
  0
LINE
  5
423C
  8
1
 10
143.0728274351444
 20
214.3614778894148
 30
0.0
 11
143.0728274351444
 21
23.361477889414601
 31
0.0
  0
ARC
  5
4360
  8
0
 10
51.89795289561394
 20
46.031744070493318
 30
0.0
 40
12.25
 50
31.112020819732059
 51
46.12012289676111
  0
ARC
  5
4361
  8
0
 10
51.89795289561394
 20
46.031744070493318
 30
0.0
 40
12.25
 50
133.87987710305001
 51
148.88797918026791
  0
LINE
  5
4362
  8
0
 10
60.389024717829791
 20
54.861477889243019
 30
0.0
 11
43.38902471782977
 21
54.861477889271207
 31
0.0
  0
ARC
  5
4363
  8
0
 10
23.889024717829781
 20
37.229097131356809
 30
0.0
 40
2.0
 50
120.9637565320735
 51
180.0000000000004
  0
ARC
  5
4364
  8
0
 10
28.889024717829901
 20
42.229097131356788
 30
0.0
 40
2.0
 50
120.9637565320738
 51
180.0
  0
ARC
  5
4365
  8
0
 10
33.889024717829898
 20
47.007411966441097
 30
0.0
 40
2.0
 50
111.8014094863517
 51
180.0000000000008
  0
ARC
  5
4366
  8
0
 10
38.889024717829791
 20
50.361477889295152
 30
0.0
 40
2.0
 50
90.000000000000057
 51
179.9999999999992
  0
LINE
  5
4367
  8
0
 10
26.889024717829901
 20
41.361477889294903
 30
0.0
 11
22.86003320697478
 21
38.944082982781929
 31
0.0
  0
LINE
  5
4368
  8
0
 10
36.889024717829791
 20
50.361477889294918
 30
0.0
 11
36.889024717829791
 21
50.361477889295152
 31
0.0
  0
LINE
  5
4369
  8
0
 10
36.889024717829791
 20
50.361477889294918
 30
0.0
 11
33.146243365121677
 21
48.86436534821172
 31
0.0
  0
LINE
  5
436A
  8
0
 10
31.889024717829791
 20
46.361477889294903
 30
0.0
 11
27.86003320697478
 21
43.944082982781921
 31
0.0
  0
LINE
  5
436B
  8
0
 10
26.889024717829901
 20
41.361477889294903
 30
0.0
 11
26.889024717829901
 21
42.229097131356788
 31
0.0
  0
LINE
  5
436C
  8
0
 10
31.889024717829791
 20
46.361477889294903
 30
0.0
 11
31.889024717829901
 21
47.007411966441097
 31
0.0
  0
LINE
  5
436E
  8
0
 10
21.889024717829901
 20
28.861477889295148
 30
0.0
 11
21.889024717829791
 21
37.229097131356809
 31
0.0
  0
LINE
  5
436F
  8
0
 10
21.889024717829901
 20
28.861477889295148
 30
0.0
 11
22.389024717829901
 21
28.361477889295148
 31
0.0
  0
LINE
  5
4370
  8
0
 10
81.88902471782967
 20
28.861477889295148
 30
0.0
 11
81.389024717829685
 21
28.361477889295148
 31
0.0
  0
LINE
  5
4371
  8
0
 10
81.88902471782967
 20
28.861477889295148
 30
0.0
 11
81.889024717829784
 21
37.229097131356809
 31
0.0
  0
LINE
  5
4372
  8
0
 10
22.389024717829781
 20
28.361477889295148
 30
0.0
 11
81.389024717829528
 21
28.361477889295148
 31
0.0
  0
LINE
  5
4375
  8
0
 10
26.889024717829901
 20
41.361477889294903
 30
0.0
 11
76.88902471782967
 21
41.361477889294903
 31
0.0
  0
LINE
  5
4376
  8
0
 10
31.889024717829791
 20
46.361477889295131
 30
0.0
 11
71.889024717829784
 21
46.361477889294903
 31
0.0
  0
LINE
  5
4377
  8
0
 10
36.889024717829791
 20
50.361477889295152
 30
0.0
 11
66.88902471782967
 21
50.361477889295152
 31
0.0
  0
LINE
  5
4378
  8
0
 10
71.889024717829784
 20
46.361477889294903
 30
0.0
 11
71.88902471782967
 21
47.007411966441097
 31
0.0
  0
LINE
  5
4379
  8
0
 10
76.88902471782967
 20
41.361477889294903
 30
0.0
 11
76.88902471782967
 21
42.229097131356788
 31
0.0
  0
LINE
  5
437A
  8
0
 10
71.889024717829784
 20
46.361477889294903
 30
0.0
 11
75.918016228684763
 21
43.944082982781921
 31
0.0
  0
LINE
  5
437B
  8
0
 10
66.889024717829784
 20
50.361477889294918
 30
0.0
 11
70.631806070537891
 21
48.86436534821172
 31
0.0
  0
LINE
  5
437C
  8
0
 10
38.889024717829791
 20
52.361477889295138
 30
0.0
 11
64.889024717829784
 21
52.361477889295138
 31
0.0
  0
LINE
  5
437D
  8
0
 10
66.889024717829784
 20
50.361477889294918
 30
0.0
 11
66.889024717829784
 21
50.361477889295152
 31
0.0
  0
LINE
  5
437E
  8
0
 10
76.88902471782967
 20
41.361477889294903
 30
0.0
 11
80.918016228684763
 21
38.944082982781929
 31
0.0
  0
ARC
  5
437F
  8
0
 10
64.889024717829784
 20
50.361477889295152
 30
0.0
 40
2.0
 50
0.0000000000008142
 51
89.999999999999943
  0
ARC
  5
4380
  8
0
 10
69.88902471782967
 20
47.007411966441097
 30
0.0
 40
2.0
 50
359.9999999999992
 51
68.198590513648284
  0
ARC
  5
4381
  8
0
 10
74.88902471782967
 20
42.229097131356788
 30
0.0
 40
2.0
 50
0.0
 51
59.036243467926177
  0
ARC
  5
4382
  8
0
 10
79.889024717829784
 20
37.229097131356809
 30
0.0
 40
2.0
 50
359.9999999999996
 51
59.036243467926461
  0
LINE
  5
4530
  8
0
 10
51.889024717866363
 20
70.001005985000191
 30
0.0
 11
51.889024717866363
 21
62.721949793791211
 31
0.0
  0
LINE
  5
4531
  8
0
 10
143.0728274351444
 20
111.73305679268741
 30
0.0
 11
143.0728274351444
 21
98.989898986187924
 31
0.0
  0
TEXT
  5
4688
  8
0
 62
     3
 10
0.0
 20
0.0
 30
0.0
 40
10.0
  1
LVA60L20B-SUS
  7
STANDARD1
  0
ENDSEC
  0
EOF
