  0
SECTION
  2
HEADER
  9
$ACADVER
  1
AC1009
  9
$INSBASE
 10
0.0
 20
0.0
 30
0.0
  9
$EXTMIN
 10
0.0
 20
-2.960436562073669
 30
0.0
  9
$EXTMAX
 10
164.89155012084339
 20
189.66069440137571
 30
0.0
  9
$LIMMIN
 10
0.0
 20
0.0
  9
$LIMMAX
 10
375.0
 20
270.0
  9
$ORTHOMODE
 70
     1
  9
$REGENMODE
 70
     1
  9
$FILLMODE
 70
     1
  9
$QTEXTMODE
 70
     0
  9
$MIRRTEXT
 70
     0
  9
$DRAGMODE
 70
     2
  9
$LTSCALE
 40
6.0
  9
$OSMODE
 70
  3071
  9
$ATTMODE
 70
     1
  9
$TEXTSIZE
 40
0.2
  9
$TRACEWID
 40
0.05
  9
$TEXTSTYLE
  7
STANDARD
  9
$CLAYER
  8
0
  9
$CELTYPE
  6
BYLAYER
  9
$CECOLOR
 62
   256
  9
$DIMSCALE
 40
1.0
  9
$DIMASZ
 40
3.0
  9
$DIMEXO
 40
1.0
  9
$DIMDLI
 40
6.0
  9
$DIMRND
 40
0.0
  9
$DIMDLE
 40
0.0
  9
$DIMEXE
 40
1.0
  9
$DIMTP
 40
495.0
  9
$DIMTM
 40
0.0
  9
$DIMTXT
 40
3.0
  9
$DIMCEN
 40
0.0
  9
$DIMTSZ
 40
0.0
  9
$DIMTOL
 70
     0
  9
$DIMLIM
 70
     0
  9
$DIMTIH
 70
     0
  9
$DIMTOH
 70
     0
  9
$DIMSE1
 70
     0
  9
$DIMSE2
 70
     0
  9
$DIMTAD
 70
     1
  9
$DIMZIN
 70
     0
  9
$DIMBLK
  1

  9
$DIMASO
 70
     0
  9
$DIMSHO
 70
     0
  9
$DIMPOST
  1

  9
$DIMAPOST
  1

  9
$DIMALT
 70
     0
  9
$DIMALTD
 70
     2
  9
$DIMALTF
 40
25.399999999999999
  9
$DIMLFAC
 40
1.0
  9
$DIMTOFL
 70
     1
  9
$DIMTVP
 40
0.0
  9
$DIMTIX
 70
     1
  9
$DIMSOXD
 70
     0
  9
$DIMSAH
 70
     0
  9
$DIMBLK1
  1

  9
$DIMBLK2
  1

  9
$DIMSTYLE
  2
STANDARD
  9
$DIMCLRD
 70
     0
  9
$DIMCLRE
 70
     0
  9
$DIMCLRT
 70
     4
  9
$DIMTFAC
 40
1.0
  9
$DIMGAP
 40
1.0
  9
$LUNITS
 70
     2
  9
$LUPREC
 70
     4
  9
$SKETCHINC
 40
0.1
  9
$FILLETRAD
 40
2.0
  9
$AUNITS
 70
     0
  9
$AUPREC
 70
     0
  9
$MENU
  1
C:\R13\WIN\SUPPORT\ACAD-I
  9
$ELEVATION
 40
0.0
  9
$PELEVATION
 40
0.0
  9
$THICKNESS
 40
0.0
  9
$LIMCHECK
 70
     0
  9
$BLIPMODE
 70
     0
  9
$CHAMFERA
 40
0.0
  9
$CHAMFERB
 40
0.0
  9
$SKPOLY
 70
     0
  9
$TDCREATE
 40
2451962.4053223608
  9
$TDUPDATE
 40
2456597.6127810529
  9
$TDINDWG
 40
0.0393528241
  9
$TDUSRTIMER
 40
2456555.0756898378
  9
$USRTIMER
 70
     1
  9
$ANGBASE
 50
0.0
  9
$ANGDIR
 70
     0
  9
$PDMODE
 70
     0
  9
$PDSIZE
 40
0.0
  9
$PLINEWID
 40
0.0
  9
$COORDS
 70
     1
  9
$SPLFRAME
 70
     0
  9
$SPLINETYPE
 70
     6
  9
$SPLINESEGS
 70
     8
  9
$ATTDIA
 70
     0
  9
$ATTREQ
 70
     1
  9
$HANDLING
 70
     1
  9
$HANDSEED
  5
3526
  9
$SURFTAB1
 70
     6
  9
$SURFTAB2
 70
     6
  9
$SURFTYPE
 70
     6
  9
$SURFU
 70
     6
  9
$SURFV
 70
     6
  9
$UCSNAME
  2

  9
$UCSORG
 10
0.0
 20
0.0
 30
0.0
  9
$UCSXDIR
 10
1.0
 20
0.0
 30
0.0
  9
$UCSYDIR
 10
0.0
 20
1.0
 30
0.0
  9
$PUCSNAME
  2

  9
$PUCSORG
 10
0.0
 20
0.0
 30
0.0
  9
$PUCSXDIR
 10
1.0
 20
0.0
 30
0.0
  9
$PUCSYDIR
 10
0.0
 20
1.0
 30
0.0
  9
$USERI1
 70
     4
  9
$USERI2
 70
     1
  9
$USERI3
 70
     0
  9
$USERI4
 70
     0
  9
$USERI5
 70
     0
  9
$USERR1
 40
1.0
  9
$USERR2
 40
3.0
  9
$USERR3
 40
3.0
  9
$USERR4
 40
3.0
  9
$USERR5
 40
10.0
  9
$WORLDVIEW
 70
     1
  9
$SHADEDGE
 70
     3
  9
$SHADEDIF
 70
    70
  9
$TILEMODE
 70
     1
  9
$MAXACTVP
 70
    16
  9
$PLIMCHECK
 70
     0
  9
$PEXTMIN
 10
1.0000000000000000E+020
 20
1.0000000000000000E+020
 30
1.0000000000000000E+020
  9
$PEXTMAX
 10
-1.0000000000000000E+020
 20
-1.0000000000000000E+020
 30
-1.0000000000000000E+020
  9
$PLIMMIN
 10
0.0
 20
0.0
  9
$PLIMMAX
 10
12.0
 20
9.0
  9
$UNITMODE
 70
     0
  9
$VISRETAIN
 70
     0
  9
$PLINEGEN
 70
     0
  9
$PSLTSCALE
 70
     0
  0
ENDSEC
  0
SECTION
  2
TABLES
  0
TABLE
  2
VPORT
 70
     1
  0
VPORT
  2
*ACTIVE
 70
     0
 10
0.0
 20
0.0
 11
1.0
 21
1.0
 12
187.49427839065231
 22
134.10366293909439
 13
0.0
 23
0.0
 14
10.0
 24
10.0
 15
10.0
 25
10.0
 16
0.0
 26
0.0
 36
1.0
 17
0.0
 27
0.0
 37
0.0
 40
277.29405978699532
 41
2.304913294797688
 42
50.0
 43
0.0
 44
0.0
 50
0.0
 51
0.0
 71
    16
 72
   100
 73
     1
 74
     0
 75
     0
 76
     0
 77
     0
 78
     0
  0
ENDTAB
  0
TABLE
  2
LTYPE
 70
     3
  0
LTYPE
  2
CONTINUOUS
 70
     0
  3
Solid Line
 72
    65
 73
     0
 40
0.0
  0
LTYPE
  2
PHANTOM2
 70
     0
  3
___ _ _ ___ _ _ ___ _ _ ___ _ _
 72
    65
 73
     6
 40
1.25
 49
0.625
 49
-0.125
 49
0.125
 49
-0.125
 49
0.125
 49
-0.125
  0
LTYPE
  2
CENTER
 70
     0
  3
____ _ ____ _ ____ _ ____ _ ____ _ ____ _ ____
 72
    65
 73
     4
 40
2.0
 49
1.25
 49
-0.25
 49
0.25
 49
-0.25
  0
ENDTAB
  0
TABLE
  2
LAYER
 70
     3
  0
LAYER
  2
0
 70
     0
 62
     7
  6
CONTINUOUS
  0
LAYER
  2
1
 70
     0
 62
     1
  6
CENTER
  0
LAYER
  2
3
 70
     0
 62
     3
  6
CONTINUOUS
  0
ENDTAB
  0
TABLE
  2
STYLE
 70
     3
  0
STYLE
  2
STANDARD
 70
     0
 40
0.0
 41
1.0
 50
0.0
 71
     0
 42
0.2
  3
SIMPLEX
  4
BIGFONT
  0
STYLE
  2
ANNOTATIVE
 70
     0
 40
0.0
 41
1.0
 50
0.0
 71
     0
 42
0.2
  3
txt
  4

  0
STYLE
  2
STANDARD1
 70
     0
 40
0.0
 41
1.0
 50
0.0
 71
     0
 42
3.0
  3
txt
  4

  0
ENDTAB
  0
TABLE
  2
VIEW
 70
     0
  0
ENDTAB
  0
TABLE
  2
UCS
 70
     0
  0
ENDTAB
  0
TABLE
  2
APPID
 70
    29
  0
APPID
  2
ACAD
 70
     0
  0
APPID
  2
ACADANNOTATIVE
 70
     0
  0
APPID
  2
GENIUS_GENOREF_13
 70
     0
  0
APPID
  2
GENIUS_GENOENT_13
 70
     0
  0
APPID
  2
GENIUS_GENBH_13
 70
     0
  0
APPID
  2
GENIUS_GENOBJ_13
 70
     0
  0
APPID
  2
GENIUS_GENODEF_13
 70
     0
  0
APPID
  2
GENIUS_GENOLIS_13
 70
     0
  0
APPID
  2
GENIUS_GENOBJ-NBEHI-BHF_13
 70
     0
  0
APPID
  2
GENIUS_GENOBJ-NBEHI-BHB_13
 70
     0
  0
APPID
  2
GENIUS_GENOBJ-F-PART_13
 70
     0
  0
APPID
  2
GENIUS_GEFSTDP_13
 70
     0
  0
APPID
  2
GENIUS_GENOBJ-N-RSSYM_13
 70
     0
  0
APPID
  2
GENIUS_GENSYMENT_13
 70
     0
  0
APPID
  2
GENIUS_GENOBJ-N-TIT_13
 70
     0
  0
APPID
  2
GENIUS_GENTITLE_13
 70
     0
  0
APPID
  2
GENIUS_GENZVEED_13
 70
     0
  0
APPID
  2
GENIUS_GENOBJ-N-LEADER_13
 70
     0
  0
APPID
  2
GENIUS_GENOBJ-N-FIL_13
 70
     0
  0
APPID
  2
GENIUS_GENOBJ-N-SEC_13
 70
     0
  0
APPID
  2
GENIUS_GENOBJ-N-CRS_13
 70
     0
  0
APPID
  2
GENIUS_GENOBJ-N-ZOO_13
 70
     0
  0
APPID
  2
GENIUS_GENZOO_13
 70
     0
  0
APPID
  2
GENIUS_GENOBJ-F-TOL_13
 70
     0
  0
APPID
  2
GENIUS_GENFIL_13
 70
     0
  0
APPID
  2
GENIUS_GENOBJ-N-CHA_13
 70
     0
  0
APPID
  2
ACAD_EXEMPT_FROM_CAD_STANDARDS
 70
     0
  0
APPID
  2
ACAD_MLEADERVER
 70
     0
  0
APPID
  2
ACAD_NAV_VCDISPLAY
 70
     0
  0
ENDTAB
  0
TABLE
  2
DIMSTYLE
 70
     2
  0
DIMSTYLE
  2
STANDARD
 70
     0
  3

  4

  5

  6

  7

 40
1.0
 41
0.18
 42
0.0625
 43
0.38
 44
0.18
 45
0.0
 46
0.0
 47
0.0
 48
0.0
140
0.18
141
0.09
142
0.0
143
25.399999999999999
144
1.0
145
0.0
146
1.0
147
0.09
 71
     0
 72
     0
 73
     1
 74
     1
 75
     0
 76
     0
 77
     0
 78
     0
170
     0
171
     2
172
     0
173
     0
174
     0
175
     0
176
     0
177
     0
178
     0
  0
DIMSTYLE
  2
ANNOTATIVE
 70
     0
  3

  4

  5

  6

  7

 40
1.0
 41
0.18
 42
0.0625
 43
0.38
 44
0.18
 45
0.0
 46
0.0
 47
0.0
 48
0.0
140
0.18
141
0.09
142
0.0
143
25.399999999999999
144
1.0
145
0.0
146
1.0
147
0.09
 71
     0
 72
     0
 73
     1
 74
     1
 75
     0
 76
     0
 77
     0
 78
     0
170
     0
171
     2
172
     0
173
     0
174
     0
175
     0
176
     0
177
     0
178
     0
  0
ENDTAB
  0
ENDSEC
  0
SECTION
  2
BLOCKS
  0
BLOCK
  8
0
  2
$MODEL_SPACE
 70
     0
 10
0.0
 20
0.0
 30
0.0
  3
$MODEL_SPACE
  1

  0
ENDBLK
  5
3449
  8
0
  0
BLOCK
 67
     1
  8
0
  2
$PAPER_SPACE
 70
     0
 10
0.0
 20
0.0
 30
0.0
  3
$PAPER_SPACE
  1

  0
ENDBLK
  5
3445
 67
     1
  8
0
  0
ENDSEC
  0
SECTION
  2
ENTITIES
  0
CIRCLE
  5
3036
  8
0
 10
44.947308655143779
 20
154.66069440137571
 30
0.0
 40
8.25
  0
LINE
  5
3037
  8
0
 10
35.13235407892023
 20
154.66069440137571
 30
0.0
 11
40.039831367031923
 21
146.16069440137579
 31
0.0
  0
LINE
  5
3038
  8
0
 10
40.039831367032043
 20
163.16069440137571
 30
0.0
 11
35.13235407892023
 21
154.66069440137571
 31
0.0
  0
LINE
  5
3039
  8
0
 10
49.854785943255642
 20
163.16069440137571
 30
0.0
 11
40.039831367032043
 21
163.16069440137571
 31
0.0
  0
LINE
  5
303A
  8
0
 10
54.762263231367463
 20
154.66069440137579
 30
0.0
 11
49.854785943255642
 21
163.16069440137571
 31
0.0
  0
LINE
  5
303B
  8
0
 10
49.854785943255642
 20
146.16069440137571
 30
0.0
 11
54.762263231367463
 21
154.66069440137579
 31
0.0
  0
LINE
  5
303C
  8
0
 10
40.039831367031923
 20
146.16069440137579
 30
0.0
 11
49.854785943255642
 21
146.16069440137571
 31
0.0
  0
CIRCLE
  5
303D
  8
3
 10
44.947308655143779
 20
154.66069440137571
 30
0.0
 40
4.1879999999999979
  0
CIRCLE
  5
303E
  8
0
 10
44.947308655143779
 20
154.66069440137571
 30
0.0
 40
5.0
  0
LINE
  5
303F
  8
0
 10
140.3915501208435
 20
45.704708083471921
 30
0.0
 11
140.3915501208435
 21
49.704708083471481
 31
0.0
  0
LINE
  5
3040
  8
0
 10
129.3915501208435
 20
45.704708083471921
 30
0.0
 11
129.3915501208435
 21
49.704708083471481
 31
0.0
  0
ARC
  5
3041
  8
0
 10
128.8293722943524
 20
50.971115778588683
 30
0.0
 40
3.5781518477924039
 50
55.615752531961313
 51
115.6157525321742
  0
ARC
  5
3042
  8
0
 10
134.89155012084441
 20
41.174482408727272
 30
0.0
 40
13.374785217653811
 50
72.412046225995155
 51
107.5879537740048
  0
LINE
  5
3043
  8
0
 10
126.8086463521886
 20
53.924052844041803
 30
0.0
 11
128.1607808900755
 21
54.704708083471353
 31
0.0
  0
LINE
  5
3044
  8
0
 10
126.8086463521886
 20
50.48536332290098
 30
0.0
 11
128.1607808900755
 21
49.704708083471481
 31
0.0
  0
ARC
  5
3045
  8
0
 10
128.8293722943524
 20
53.438300388354151
 30
0.0
 40
3.5781518477924039
 50
244.3842474678257
 51
304.38424746803872
  0
ARC
  5
3046
  8
0
 10
134.89155012084441
 20
63.234933758215448
 30
0.0
 40
13.374785217653811
 50
252.4120462259952
 51
287.5879537740048
  0
LINE
  5
3047
  8
0
 10
126.8086463521886
 20
53.924052844041803
 30
0.0
 11
126.8086463521886
 21
50.48536332290098
 31
0.0
  0
LINE
  5
3048
  8
0
 10
130.85009823651779
 20
53.924052844040602
 30
0.0
 11
130.850098236516
 21
50.485363322902678
 31
0.0
  0
LINE
  5
3049
  8
0
 10
138.93300200516899
 20
53.924052844042301
 30
0.0
 11
138.93300200517081
 21
50.485363322902678
 31
0.0
  0
LINE
  5
304A
  8
0
 10
142.97445388949819
 20
53.924052844041853
 30
0.0
 11
142.97445388949819
 21
50.48536332290098
 31
0.0
  0
ARC
  5
304B
  8
0
 10
140.9537279473343
 20
53.438300388354151
 30
0.0
 40
3.5781518477924039
 50
235.61575253196131
 51
295.61575253217421
  0
LINE
  5
304C
  8
0
 10
142.97445388949819
 20
50.48536332290098
 30
0.0
 11
141.6223193516114
 21
49.704708083471481
 31
0.0
  0
LINE
  5
304D
  8
0
 10
142.97445388949819
 20
53.924052844041803
 30
0.0
 11
141.6223193516114
 21
54.704708083471353
 31
0.0
  0
ARC
  5
304E
  8
0
 10
140.9537279473343
 20
50.971115778588683
 30
0.0
 40
3.5781518477924039
 50
64.384247467825773
 51
124.38424746803869
  0
LINE
  5
304F
  8
0
 10
128.16078089007419
 20
54.704708083471353
 30
0.0
 11
141.6223193516112
 21
54.704708083471353
 31
0.0
  0
LINE
  5
3050
  8
0
 10
141.6223193516114
 20
49.704708083471481
 30
0.0
 11
128.1607808900757
 21
49.704708083471481
 31
0.0
  0
ARC
  5
3051
  8
0
 10
139.14155012084339
 20
62.28486387775699
 30
0.0
 40
12.275506638416489
 50
69.743841999604243
 51
110.2561580003957
  0
LINE
  5
3052
  8
0
 10
143.3915501208435
 20
74.560370516173521
 30
0.0
 11
143.1415501208424
 21
74.70470808347153
 31
0.0
  0
LINE
  5
3053
  8
0
 10
143.3915501208435
 20
66.849045650769256
 30
0.0
 11
143.1415501208424
 21
66.704708083471246
 31
0.0
  0
ARC
  5
3054
  8
0
 10
139.14155012084339
 20
79.124552289185701
 30
0.0
 40
12.275506638416489
 50
249.74384199960431
 51
290.25615800039583
  0
LINE
  5
3055
  8
0
 10
143.3915501208435
 20
74.560370516173521
 30
0.0
 11
143.39155012084339
 21
66.849045650769256
 31
0.0
  0
LINE
  5
3057
  8
0
 10
126.39155012084341
 20
74.560370516173521
 30
0.0
 11
126.39155012084341
 21
66.849045650769256
 31
0.0
  0
LINE
  5
3058
  8
0
 10
126.39155012084341
 20
66.849045650769256
 30
0.0
 11
126.6415501208444
 21
66.704708083471246
 31
0.0
  0
ARC
  5
3059
  8
0
 10
130.64155012084339
 20
79.124552289185701
 30
0.0
 40
12.275506638416489
 50
249.74384199960431
 51
290.25615800039583
  0
LINE
  5
305A
  8
0
 10
126.39155012084341
 20
74.560370516173521
 30
0.0
 11
126.6415501208444
 21
74.70470808347153
 31
0.0
  0
ARC
  5
305B
  8
0
 10
130.64155012084339
 20
62.28486387775699
 30
0.0
 40
12.275506638416489
 50
69.743841999604243
 51
110.2561580003957
  0
LINE
  5
305C
  8
0
 10
143.1415501208424
 20
74.70470808347153
 30
0.0
 11
126.6415501208444
 21
74.70470808347153
 31
0.0
  0
LINE
  5
305D
  8
0
 10
126.64155012084341
 20
66.704708083471871
 30
0.0
 11
143.14155012084339
 21
66.704708083471871
 31
0.0
  0
LINE
  5
305E
  8
0
 10
129.89155012084339
 20
96.204708083471985
 30
0.0
 11
139.89155012084339
 21
96.204708083471871
 31
0.0
  0
LINE
  5
305F
  8
3
 10
139.07955012084341
 20
56.70470808347153
 30
0.0
 11
139.89155012084331
 21
55.298282827725757
 31
0.0
  0
LINE
  5
3060
  8
3
 10
130.70355012084329
 20
56.70470808347153
 30
0.0
 11
129.89155012084331
 21
55.298282827725757
 31
0.0
  0
LINE
  5
3061
  8
0
 10
129.89155012084339
 20
56.70470808347153
 30
0.0
 11
139.89155012084339
 21
56.704708083471417
 31
0.0
  0
LINE
  5
3062
  8
0
 10
138.39155012084339
 20
97.704708083471871
 30
0.0
 11
139.89155012084339
 21
96.204708083471871
 31
0.0
  0
LINE
  5
3063
  8
0
 10
129.89155012084339
 20
96.204708083471985
 30
0.0
 11
131.39155012084339
 21
97.704708083471985
 31
0.0
  0
LINE
  5
3064
  8
3
 10
130.70355012084329
 20
56.704708083471473
 30
0.0
 11
130.7035501208434
 21
66.704708083471871
 31
0.0
  0
LINE
  5
3065
  8
3
 10
139.07955012084361
 20
56.704708083471353
 30
0.0
 11
139.07955012084361
 21
66.704708083471871
 31
0.0
  0
LINE
  5
3066
  8
0
 10
131.39155012084339
 20
97.704708083471985
 30
0.0
 11
138.39155012084339
 21
97.704708083471871
 31
0.0
  0
LINE
  5
3067
  8
0
 10
129.89155012084339
 20
54.704708083471353
 30
0.0
 11
129.89155012084339
 21
66.704708083471871
 31
0.0
  0
LINE
  5
3068
  8
0
 10
139.89155012084339
 20
54.704708083471353
 30
0.0
 11
139.89155012084339
 21
66.704708083471871
 31
0.0
  0
LINE
  5
3069
  8
3
 10
139.07955012084361
 20
74.70470808347153
 30
0.0
 11
139.07955012084349
 21
97.016708083471812
 31
0.0
  0
LINE
  5
306A
  8
0
 10
139.89155012084339
 20
74.70470808347153
 30
0.0
 11
139.89155012084339
 21
96.204708083471871
 31
0.0
  0
LINE
  5
306B
  8
0
 10
129.89155012084339
 20
74.70470808347153
 30
0.0
 11
129.89155012084339
 21
96.204708083471985
 31
0.0
  0
LINE
  5
306C
  8
3
 10
130.70355012084329
 20
74.70470808347153
 30
0.0
 11
130.70355012084329
 21
97.016708083471883
 31
0.0
  0
LINE
  5
306D
  8
0
 10
39.947308655143758
 20
74.704708083471701
 30
0.0
 11
39.947308655143793
 21
96.204708083471985
 31
0.0
  0
LINE
  5
306E
  8
3
 10
40.759308655143641
 20
74.704708083471701
 30
0.0
 11
40.759308655143677
 21
97.016708083471883
 31
0.0
  0
LINE
  5
306F
  8
0
 10
49.947308655143758
 20
74.704708083471573
 30
0.0
 11
49.947308655143779
 21
96.204708083471871
 31
0.0
  0
LINE
  5
3070
  8
3
 10
49.135308655143817
 20
74.704708083471573
 30
0.0
 11
49.135308655143817
 21
97.016708083471812
 31
0.0
  0
LINE
  5
3071
  8
0
 10
39.947308655143729
 20
96.204708083471985
 30
0.0
 11
49.947308655143729
 21
96.204708083471871
 31
0.0
  0
LINE
  5
3072
  8
3
 10
49.135308655143817
 20
56.704708083472141
 30
0.0
 11
49.947308655143729
 21
55.298282827726332
 31
0.0
  0
LINE
  5
3073
  8
3
 10
40.75930865514362
 20
56.704708083472141
 30
0.0
 11
39.947308655143729
 21
55.298282827726332
 31
0.0
  0
LINE
  5
3074
  8
0
 10
39.947308655143729
 20
56.704708083472141
 30
0.0
 11
49.947308655143729
 21
56.704708083472042
 31
0.0
  0
LINE
  5
3075
  8
0
 10
48.447308655143779
 20
97.704708083471871
 30
0.0
 11
49.947308655143779
 21
96.204708083471871
 31
0.0
  0
LINE
  5
3076
  8
0
 10
39.947308655143793
 20
96.204708083471985
 30
0.0
 11
41.447308655143772
 21
97.704708083471985
 31
0.0
  0
LINE
  5
3077
  8
0
 10
39.947308655143729
 20
54.704708083471807
 30
0.0
 11
39.947308655143758
 21
66.704708083471871
 31
0.0
  0
LINE
  5
3078
  8
3
 10
40.759308655143641
 20
56.704708083472141
 30
0.0
 11
40.759308655143641
 21
66.704708083471871
 31
0.0
  0
LINE
  5
3079
  8
3
 10
49.135308655143817
 20
56.704708083472042
 30
0.0
 11
49.135308655143881
 21
66.704708083471871
 31
0.0
  0
LINE
  5
307A
  8
0
 10
49.947308655143729
 20
54.704708083471758
 30
0.0
 11
49.947308655143729
 21
66.704708083471871
 31
0.0
  0
LINE
  5
307B
  8
0
 10
41.447308655143772
 20
97.704708083471985
 30
0.0
 11
48.447308655143779
 21
97.704708083471871
 31
0.0
  0
LINE
  5
307C
  8
0
 10
53.197308655144653
 20
66.704708083471871
 30
0.0
 11
36.697308655143956
 21
66.704708083471871
 31
0.0
  0
LINE
  5
307D
  8
0
 10
36.697308655144298
 20
74.704708083471743
 30
0.0
 11
53.197308655144582
 21
74.70470808347153
 31
0.0
  0
ARC
  5
307E
  8
0
 10
52.308524587312021
 20
70.215471843850125
 30
0.0
 40
4.3448986723233833
 50
64.384247467891299
 51
124.3842474680048
  0
LINE
  5
307F
  8
0
 10
54.762263231367847
 20
73.801181137619537
 30
0.0
 11
53.19730865514429
 21
74.704708083471743
 31
0.0
  0
LINE
  5
3080
  8
0
 10
54.762263231367847
 20
67.608235029323851
 30
0.0
 11
53.19730865514429
 21
66.704708083471644
 31
0.0
  0
ARC
  5
3081
  8
0
 10
52.308524587312021
 20
71.193944323093262
 30
0.0
 40
4.3448986723233833
 50
235.61575253199521
 51
295.61575253210867
  0
LINE
  5
3082
  8
0
 10
54.762263231367847
 20
73.80118113761948
 30
0.0
 11
54.762263231367847
 21
67.608235029323907
 31
0.0
  0
LINE
  5
3083
  8
0
 10
49.854785943257113
 20
73.801181137619537
 30
0.0
 11
49.854785943256502
 21
67.60823502932368
 31
0.0
  0
LINE
  5
3084
  8
0
 10
40.039831367031468
 20
73.801181137619537
 30
0.0
 11
40.039831367032093
 21
67.60823502932368
 31
0.0
  0
LINE
  5
3085
  8
0
 10
35.132354078920741
 20
73.80118113761948
 30
0.0
 11
35.132354078920741
 21
67.608235029323907
 31
0.0
  0
ARC
  5
3086
  8
0
 10
44.947308655143779
 20
83.089856272236446
 30
0.0
 40
16.24081062146659
 50
252.4120462260268
 51
287.5879537739724
  0
ARC
  5
3087
  8
0
 10
37.586092722976559
 20
71.193944323093262
 30
0.0
 40
4.3448986723233833
 50
244.3842474678913
 51
304.38424746800479
  0
LINE
  5
3088
  8
0
 10
35.132354078920741
 20
67.608235029323851
 30
0.0
 11
36.697308655144298
 21
66.704708083471644
 31
0.0
  0
LINE
  5
3089
  8
0
 10
35.132354078920741
 20
73.801181137619537
 30
0.0
 11
36.697308655144298
 21
74.704708083471743
 31
0.0
  0
ARC
  5
308A
  8
0
 10
44.947308655143779
 20
58.319559894706899
 30
0.0
 40
16.24081062146659
 50
72.412046226026817
 51
107.5879537739724
  0
ARC
  5
308B
  8
0
 10
37.586092722976559
 20
70.215471843850125
 30
0.0
 40
4.3448986723233833
 50
55.615752531995177
 51
115.6157525321087
  0
LINE
  5
308C
  8
0
 10
50.447308655143608
 20
45.704708083471921
 30
0.0
 11
50.447308655143608
 21
49.704708083471758
 31
0.0
  0
LINE
  5
308D
  8
0
 10
39.447308655143623
 20
45.704708083471921
 30
0.0
 11
39.447308655143623
 21
49.704708083471758
 31
0.0
  0
LINE
  5
308F
  8
0
 10
37.947308655143509
 20
54.549267626381493
 30
0.0
 11
37.947308655143509
 21
49.860148540561973
 31
0.0
  0
LINE
  5
3090
  8
0
 10
51.947308655143502
 20
54.549267626381493
 30
0.0
 11
51.947308655143502
 21
49.860148540561973
 31
0.0
  0
LINE
  5
3091
  8
0
 10
51.678077885911527
 20
54.704708083471758
 30
0.0
 11
38.216539424375469
 21
54.704708083471758
 31
0.0
  0
ARC
  5
3092
  8
0
 10
41.447308655143601
 20
44.440026865344059
 30
0.0
 40
10.10924076103746
 50
69.743841999583083
 51
110.2561580004169
  0
LINE
  5
3093
  8
0
 10
37.947308655143509
 20
54.549267626381493
 30
0.0
 11
38.216539424375469
 21
54.704708083471758
 31
0.0
  0
LINE
  5
3094
  8
0
 10
51.947308655143502
 20
54.549267626381493
 30
0.0
 11
51.678077885911527
 21
54.704708083471758
 31
0.0
  0
ARC
  5
3095
  8
0
 10
48.447308655143388
 20
44.440026865344059
 30
0.0
 40
10.10924076103746
 50
69.743841999583083
 51
110.2561580004169
  0
LINE
  5
3096
  8
0
 10
51.678077885911527
 20
49.704708083471758
 30
0.0
 11
38.216539424375469
 21
49.704708083471758
 31
0.0
  0
ARC
  5
3097
  8
0
 10
41.447308655143601
 20
59.969389301599378
 30
0.0
 40
10.10924076103746
 50
249.74384199958311
 51
290.25615800041692
  0
LINE
  5
3098
  8
0
 10
37.947308655143509
 20
49.860148540561973
 30
0.0
 11
38.216539424375469
 21
49.704708083471758
 31
0.0
  0
LINE
  5
3099
  8
0
 10
51.947308655143502
 20
49.860148540561973
 30
0.0
 11
51.678077885911527
 21
49.704708083471758
 31
0.0
  0
ARC
  5
309A
  8
0
 10
48.447308655143388
 20
59.969389301599378
 30
0.0
 40
10.10924076103746
 50
249.74384199958311
 51
290.25615800041692
  0
LINE
  5
30A9
  8
0
 10
74.947308655143445
 20
22.204708083471932
 30
0.0
 11
74.447308655143445
 21
21.704708083471932
 31
0.0
  0
LINE
  5
30AA
  8
0
 10
74.947308655143445
 20
22.204708083471932
 30
0.0
 11
74.947308655143502
 21
30.57232732553371
 31
0.0
  0
LINE
  5
30AB
  8
0
 10
15.44730865514356
 20
21.704708083471932
 30
0.0
 11
74.447308655143331
 21
21.704708083471932
 31
0.0
  0
LINE
  5
30AF
  8
0
 10
19.94730865514353
 20
34.704708083471928
 30
0.0
 11
69.947308655143473
 21
34.704708083471871
 31
0.0
  0
LINE
  5
30B0
  8
0
 10
24.947308655143559
 20
39.704708083471928
 30
0.0
 11
64.947308655143502
 21
39.704708083471871
 31
0.0
  0
LINE
  5
30B1
  8
0
 10
29.947308655143502
 20
43.704708083471907
 30
0.0
 11
59.947308655143473
 21
43.704708083471907
 31
0.0
  0
LINE
  5
30B2
  8
0
 10
64.947308655143502
 20
39.704708083471871
 30
0.0
 11
64.947308655143473
 21
40.350642160618001
 31
0.0
  0
LINE
  5
30B3
  8
0
 10
69.947308655143473
 20
34.704708083471871
 30
0.0
 11
69.947308655143473
 21
35.57232732553372
 31
0.0
  0
LINE
  5
30B4
  8
0
 10
64.94730865514353
 20
39.704708083471871
 30
0.0
 11
68.976300165998538
 21
37.28731317695884
 31
0.0
  0
LINE
  5
30B5
  8
0
 10
59.947308655143502
 20
43.704708083471871
 30
0.0
 11
63.690090007851651
 21
42.207595542388617
 31
0.0
  0
LINE
  5
30B6
  8
0
 10
31.947308655143509
 20
45.704708083471921
 30
0.0
 11
57.947308655143502
 21
45.704708083471921
 31
0.0
  0
LINE
  5
30B7
  8
0
 10
59.947308655143502
 20
43.704708083471871
 30
0.0
 11
59.947308655143502
 21
43.704708083471907
 31
0.0
  0
LINE
  5
30B8
  8
0
 10
69.947308655143473
 20
34.704708083471871
 30
0.0
 11
73.976300165998566
 21
32.28731317695884
 31
0.0
  0
ARC
  5
30B9
  8
0
 10
57.947308655143502
 20
43.704708083471907
 30
0.0
 40
2.0
 50
0.0000000000008142
 51
89.999999999999943
  0
ARC
  5
30BA
  8
0
 10
62.947308655143473
 20
40.350642160618051
 30
0.0
 40
2.0
 50
359.9999999999992
 51
68.198590513648284
  0
ARC
  5
30BB
  8
0
 10
67.947308655143473
 20
35.57232732553372
 30
0.0
 40
2.0
 50
0.0
 51
59.036243467926177
  0
ARC
  5
30BC
  8
0
 10
72.947308655143502
 20
30.57232732553371
 30
0.0
 40
2.0
 50
359.9999999999996
 51
59.036243467926461
  0
ARC
  5
30BD
  8
0
 10
16.947308655143502
 20
30.57232732553371
 30
0.0
 40
2.0
 50
120.9637565320735
 51
180.0000000000004
  0
ARC
  5
30BE
  8
0
 10
21.94730865514353
 20
35.57232732553372
 30
0.0
 40
2.0
 50
120.9637565320738
 51
180.0
  0
ARC
  5
30BF
  8
0
 10
26.94730865514353
 20
40.350642160618051
 30
0.0
 40
2.0
 50
111.8014094863517
 51
180.0000000000008
  0
ARC
  5
30C0
  8
0
 10
31.947308655143509
 20
43.704708083471907
 30
0.0
 40
2.0
 50
90.000000000000057
 51
179.9999999999992
  0
LINE
  5
30C1
  8
0
 10
19.94730865514353
 20
34.704708083471871
 30
0.0
 11
15.918317144288441
 21
32.28731317695884
 31
0.0
  0
LINE
  5
30C2
  8
0
 10
29.947308655143502
 20
43.704708083471871
 30
0.0
 11
29.947308655143502
 21
43.704708083471907
 31
0.0
  0
LINE
  5
30C3
  8
0
 10
29.947308655143502
 20
43.704708083471871
 30
0.0
 11
26.204527302435341
 21
42.207595542388617
 31
0.0
  0
LINE
  5
30C4
  8
0
 10
24.94730865514347
 20
39.704708083471871
 30
0.0
 11
20.918317144288469
 21
37.28731317695884
 31
0.0
  0
LINE
  5
30C5
  8
0
 10
19.94730865514353
 20
34.704708083471871
 30
0.0
 11
19.94730865514353
 21
35.57232732553372
 31
0.0
  0
LINE
  5
30C6
  8
0
 10
24.947308655143502
 20
39.704708083471871
 30
0.0
 11
24.947308655143541
 21
40.350642160618001
 31
0.0
  0
LINE
  5
30C8
  8
0
 10
14.94730865514356
 20
22.204708083471932
 30
0.0
 11
14.9473086551435
 21
30.57232732553371
 31
0.0
  0
LINE
  5
30C9
  8
0
 10
14.94730865514356
 20
22.204708083471932
 30
0.0
 11
15.44730865514356
 21
21.704708083471932
 31
0.0
  0
LINE
  5
30CA
  8
0
 10
104.8915501208435
 20
22.204708083471932
 30
0.0
 11
105.39155012084341
 21
21.704708083471932
 31
0.0
  0
LINE
  5
30CB
  8
0
 10
104.8915501208435
 20
22.204708083471932
 30
0.0
 11
104.89155012084341
 21
30.57232732553371
 31
0.0
  0
LINE
  5
30CD
  8
0
 10
114.89155012084341
 20
39.704708083471871
 30
0.0
 11
114.8915501208435
 21
40.350642160618001
 31
0.0
  0
LINE
  5
30CE
  8
0
 10
109.89155012084341
 20
34.704708083471871
 30
0.0
 11
109.89155012084341
 21
35.57232732553372
 31
0.0
  0
LINE
  5
30CF
  8
0
 10
114.89155012084331
 20
39.704708083471871
 30
0.0
 11
110.8625586099884
 21
37.28731317695884
 31
0.0
  0
LINE
  5
30D0
  8
0
 10
119.89155012084341
 20
43.704708083471871
 30
0.0
 11
116.1487687681352
 21
42.207595542388617
 31
0.0
  0
LINE
  5
30D1
  8
0
 10
119.89155012084341
 20
43.704708083471871
 30
0.0
 11
119.89155012084341
 21
43.704708083471907
 31
0.0
  0
LINE
  5
30D2
  8
0
 10
109.89155012084341
 20
34.704708083471871
 30
0.0
 11
105.8625586099882
 21
32.28731317695884
 31
0.0
  0
ARC
  5
30D3
  8
0
 10
121.89155012084341
 20
43.704708083471907
 30
0.0
 40
2.0
 50
90.000000000000057
 51
179.9999999999992
  0
ARC
  5
30D4
  8
0
 10
116.89155012084341
 20
40.350642160618051
 30
0.0
 40
2.0
 50
111.8014094863517
 51
180.0000000000008
  0
ARC
  5
30D5
  8
0
 10
111.89155012084341
 20
35.57232732553372
 30
0.0
 40
2.0
 50
120.9637565320738
 51
180.0
  0
ARC
  5
30D6
  8
0
 10
106.89155012084341
 20
30.57232732553371
 30
0.0
 40
2.0
 50
120.9637565320735
 51
180.0000000000004
  0
ARC
  5
30D7
  8
0
 10
162.89155012084339
 20
30.57232732553371
 30
0.0
 40
2.0
 50
359.9999999999996
 51
59.036243467926461
  0
ARC
  5
30D8
  8
0
 10
157.89155012084331
 20
35.57232732553372
 30
0.0
 40
2.0
 50
0.0
 51
59.036243467926177
  0
ARC
  5
30D9
  8
0
 10
152.89155012084331
 20
40.350642160618051
 30
0.0
 40
2.0
 50
359.9999999999992
 51
68.198590513648284
  0
ARC
  5
30DA
  8
0
 10
147.89155012084339
 20
43.704708083471907
 30
0.0
 40
2.0
 50
0.0000000000008142
 51
89.999999999999943
  0
LINE
  5
30DB
  8
0
 10
159.89155012084331
 20
34.704708083471871
 30
0.0
 11
163.92054163169851
 21
32.28731317695884
 31
0.0
  0
LINE
  5
30DC
  8
0
 10
149.89155012084339
 20
43.704708083471871
 30
0.0
 11
149.89155012084339
 21
43.704708083471907
 31
0.0
  0
LINE
  5
30DD
  8
0
 10
121.89155012084341
 20
45.704708083471921
 30
0.0
 11
147.89155012084339
 21
45.704708083471921
 31
0.0
  0
LINE
  5
30DE
  8
0
 10
149.89155012084339
 20
43.704708083471871
 30
0.0
 11
153.63433147355161
 21
42.207595542388617
 31
0.0
  0
LINE
  5
30DF
  8
0
 10
154.89155012084339
 20
39.704708083471871
 30
0.0
 11
158.92054163169851
 21
37.28731317695884
 31
0.0
  0
LINE
  5
30E0
  8
0
 10
159.89155012084331
 20
34.704708083471871
 30
0.0
 11
159.89155012084331
 21
35.57232732553372
 31
0.0
  0
LINE
  5
30E1
  8
0
 10
154.89155012084339
 20
39.704708083471871
 30
0.0
 11
154.89155012084331
 21
40.350642160618001
 31
0.0
  0
LINE
  5
30E2
  8
0
 10
119.89155012084341
 20
43.704708083471907
 30
0.0
 11
149.89155012084331
 21
43.704708083471907
 31
0.0
  0
LINE
  5
30E3
  8
0
 10
114.8915501208435
 20
39.704708083471928
 30
0.0
 11
154.89155012084339
 21
39.704708083471871
 31
0.0
  0
LINE
  5
30E4
  8
0
 10
109.89155012084341
 20
34.704708083471949
 30
0.0
 11
159.89155012084331
 21
34.704708083471871
 31
0.0
  0
LINE
  5
30E7
  8
0
 10
105.39155012084341
 20
21.704708083471932
 30
0.0
 11
164.39155012084319
 21
21.704708083471932
 31
0.0
  0
LINE
  5
30E8
  8
0
 10
164.89155012084331
 20
22.204708083471932
 30
0.0
 11
164.89155012084339
 21
30.57232732553371
 31
0.0
  0
LINE
  5
30E9
  8
0
 10
164.89155012084331
 20
22.204708083471932
 30
0.0
 11
164.39155012084331
 21
21.704708083471932
 31
0.0
  0
LINE
  5
30EA
  8
1
 10
44.947308655143331
 20
16.704708083471932
 30
0.0
 11
44.947308655143807
 21
102.7047080834719
 31
0.0
  0
CIRCLE
  5
30EC
  8
0
 10
44.947308655143779
 20
154.66069440137571
 30
0.0
 40
30.0
  0
CIRCLE
  5
30ED
  8
0
 10
44.947308655143623
 20
154.66069440137571
 30
0.0
 40
25.0
  0
CIRCLE
  5
30EE
  8
0
 10
44.947308655143623
 20
154.66069440137571
 30
0.0
 40
20.00000000000006
  0
CIRCLE
  5
30EF
  8
0
 10
44.947308655143779
 20
154.66069440137571
 30
0.0
 40
14.99999999999981
  0
LINE
  5
30F0
  8
1
 10
44.947308655143779
 20
189.66069440137571
 30
0.0
 11
44.947308655143779
 21
119.66069440137569
 31
0.0
  0
LINE
  5
30F1
  8
1
 10
79.947308655143786
 20
154.66069440137571
 30
0.0
 11
9.9473086551437842
 21
154.66069440137571
 31
0.0
  0
LINE
  5
3192
  8
1
 10
134.89155012084339
 20
102.7047080834719
 30
0.0
 11
134.89155012084339
 21
16.704708083471939
 31
0.0
  0
LINE
  5
3371
  8
0
 10
44.947308655143452
 20
53.924052844042251
 30
0.0
 11
44.94730865514353
 21
50.485363322901208
 31
0.0
  0
LINE
  5
3372
  8
0
 10
134.8915501208439
 20
73.801181137619338
 30
0.0
 11
134.8915501208439
 21
67.608235029323353
 31
0.0
  0
TEXT
  5
34C9
  8
0
 62
     3
 10
0.0
 20
0.0
 30
0.0
 40
10.0
  1
LVA60S10A-SUS
  7
STANDARD1
  0
ENDSEC
  0
EOF
