  0
SECTION
  2
HEADER
  9
$ACADVER
  1
AC1009
  9
$INSBASE
 10
0.0
 20
0.0
 30
0.0
  9
$EXTMIN
 10
0.0
 20
-2.960436562073669
 30
0.0
  9
$EXTMAX
 10
163.16486378250869
 20
194.6351023030692
 30
0.0
  9
$LIMMIN
 10
0.0
 20
0.0
  9
$LIMMAX
 10
375.0
 20
270.0
  9
$ORTHOMODE
 70
     1
  9
$REGENMODE
 70
     1
  9
$FILLMODE
 70
     1
  9
$QTEXTMODE
 70
     0
  9
$MIRRTEXT
 70
     0
  9
$DRAGMODE
 70
     2
  9
$LTSCALE
 40
6.0
  9
$OSMODE
 70
    37
  9
$ATTMODE
 70
     1
  9
$TEXTSIZE
 40
0.2
  9
$TRACEWID
 40
0.05
  9
$TEXTSTYLE
  7
STANDARD
  9
$CLAYER
  8
0
  9
$CELTYPE
  6
BYLAYER
  9
$CECOLOR
 62
   256
  9
$DIMSCALE
 40
1.0
  9
$DIMASZ
 40
3.0
  9
$DIMEXO
 40
1.0
  9
$DIMDLI
 40
6.0
  9
$DIMRND
 40
0.0
  9
$DIMDLE
 40
0.0
  9
$DIMEXE
 40
1.0
  9
$DIMTP
 40
495.0
  9
$DIMTM
 40
0.0
  9
$DIMTXT
 40
3.0
  9
$DIMCEN
 40
0.0
  9
$DIMTSZ
 40
0.0
  9
$DIMTOL
 70
     0
  9
$DIMLIM
 70
     0
  9
$DIMTIH
 70
     0
  9
$DIMTOH
 70
     0
  9
$DIMSE1
 70
     0
  9
$DIMSE2
 70
     0
  9
$DIMTAD
 70
     1
  9
$DIMZIN
 70
     0
  9
$DIMBLK
  1

  9
$DIMASO
 70
     0
  9
$DIMSHO
 70
     0
  9
$DIMPOST
  1

  9
$DIMAPOST
  1

  9
$DIMALT
 70
     0
  9
$DIMALTD
 70
     2
  9
$DIMALTF
 40
25.399999999999999
  9
$DIMLFAC
 40
1.0
  9
$DIMTOFL
 70
     1
  9
$DIMTVP
 40
0.0
  9
$DIMTIX
 70
     1
  9
$DIMSOXD
 70
     0
  9
$DIMSAH
 70
     0
  9
$DIMBLK1
  1

  9
$DIMBLK2
  1

  9
$DIMSTYLE
  2
STANDARD
  9
$DIMCLRD
 70
     0
  9
$DIMCLRE
 70
     0
  9
$DIMCLRT
 70
     4
  9
$DIMTFAC
 40
1.0
  9
$DIMGAP
 40
1.0
  9
$LUNITS
 70
     2
  9
$LUPREC
 70
     4
  9
$SKETCHINC
 40
0.1
  9
$FILLETRAD
 40
2.0
  9
$AUNITS
 70
     0
  9
$AUPREC
 70
     0
  9
$MENU
  1
C:\R13\WIN\SUPPORT\ACAD-I
  9
$ELEVATION
 40
0.0
  9
$PELEVATION
 40
0.0
  9
$THICKNESS
 40
0.0
  9
$LIMCHECK
 70
     0
  9
$BLIPMODE
 70
     0
  9
$CHAMFERA
 40
0.0
  9
$CHAMFERB
 40
0.0
  9
$SKPOLY
 70
     0
  9
$TDCREATE
 40
2451962.4002253362
  9
$TDUPDATE
 40
2456598.7192210648
  9
$TDINDWG
 40
0.0399223495
  9
$TDUSRTIMER
 40
2456598.0386154288
  9
$USRTIMER
 70
     1
  9
$ANGBASE
 50
0.0
  9
$ANGDIR
 70
     0
  9
$PDMODE
 70
     0
  9
$PDSIZE
 40
0.0
  9
$PLINEWID
 40
0.0
  9
$COORDS
 70
     1
  9
$SPLFRAME
 70
     0
  9
$SPLINETYPE
 70
     6
  9
$SPLINESEGS
 70
     8
  9
$ATTDIA
 70
     0
  9
$ATTREQ
 70
     1
  9
$HANDLING
 70
     1
  9
$HANDSEED
  5
320F
  9
$SURFTAB1
 70
     6
  9
$SURFTAB2
 70
     6
  9
$SURFTYPE
 70
     6
  9
$SURFU
 70
     6
  9
$SURFV
 70
     6
  9
$UCSNAME
  2

  9
$UCSORG
 10
0.0
 20
0.0
 30
0.0
  9
$UCSXDIR
 10
1.0
 20
0.0
 30
0.0
  9
$UCSYDIR
 10
0.0
 20
1.0
 30
0.0
  9
$PUCSNAME
  2

  9
$PUCSORG
 10
0.0
 20
0.0
 30
0.0
  9
$PUCSXDIR
 10
1.0
 20
0.0
 30
0.0
  9
$PUCSYDIR
 10
0.0
 20
1.0
 30
0.0
  9
$USERI1
 70
     4
  9
$USERI2
 70
     1
  9
$USERI3
 70
     0
  9
$USERI4
 70
     0
  9
$USERI5
 70
     0
  9
$USERR1
 40
1.0
  9
$USERR2
 40
3.0
  9
$USERR3
 40
3.0
  9
$USERR4
 40
3.0
  9
$USERR5
 40
10.0
  9
$WORLDVIEW
 70
     1
  9
$SHADEDGE
 70
     3
  9
$SHADEDIF
 70
    70
  9
$TILEMODE
 70
     1
  9
$MAXACTVP
 70
    16
  9
$PLIMCHECK
 70
     0
  9
$PEXTMIN
 10
1.0000000000000000E+020
 20
1.0000000000000000E+020
 30
1.0000000000000000E+020
  9
$PEXTMAX
 10
-1.0000000000000000E+020
 20
-1.0000000000000000E+020
 30
-1.0000000000000000E+020
  9
$PLIMMIN
 10
0.0
 20
0.0
  9
$PLIMMAX
 10
12.0
 20
9.0
  9
$UNITMODE
 70
     0
  9
$VISRETAIN
 70
     0
  9
$PLINEGEN
 70
     0
  9
$PSLTSCALE
 70
     0
  0
ENDSEC
  0
SECTION
  2
TABLES
  0
TABLE
  2
VPORT
 70
     1
  0
VPORT
  2
*ACTIVE
 70
     0
 10
0.0
 20
0.0
 11
1.0
 21
1.0
 12
187.49427839065231
 22
177.52205812711131
 13
0.0
 23
0.0
 14
10.0
 24
10.0
 15
10.0
 25
10.0
 16
0.0
 26
0.0
 36
1.0
 17
0.0
 27
0.0
 37
0.0
 40
364.13085016302909
 41
1.755244755244755
 42
50.0
 43
0.0
 44
0.0
 50
0.0
 51
0.0
 71
    16
 72
   100
 73
     1
 74
     0
 75
     0
 76
     0
 77
     0
 78
     0
  0
ENDTAB
  0
TABLE
  2
LTYPE
 70
     3
  0
LTYPE
  2
CONTINUOUS
 70
     0
  3
Solid Line
 72
    65
 73
     0
 40
0.0
  0
LTYPE
  2
PHANTOM2
 70
     0
  3
___ _ _ ___ _ _ ___ _ _ ___ _ _
 72
    65
 73
     6
 40
1.25
 49
0.625
 49
-0.125
 49
0.125
 49
-0.125
 49
0.125
 49
-0.125
  0
LTYPE
  2
CENTER
 70
     0
  3
____ _ ____ _ ____ _ ____ _ ____ _ ____ _ ____
 72
    65
 73
     4
 40
2.0
 49
1.25
 49
-0.25
 49
0.25
 49
-0.25
  0
ENDTAB
  0
TABLE
  2
LAYER
 70
     3
  0
LAYER
  2
0
 70
     0
 62
     7
  6
CONTINUOUS
  0
LAYER
  2
1
 70
     0
 62
     1
  6
CENTER
  0
LAYER
  2
3
 70
     0
 62
     3
  6
CONTINUOUS
  0
ENDTAB
  0
TABLE
  2
STYLE
 70
     3
  0
STYLE
  2
STANDARD
 70
     0
 40
0.0
 41
1.0
 50
0.0
 71
     0
 42
0.2
  3
SIMPLEX
  4
BIGFONT
  0
STYLE
  2
ANNOTATIVE
 70
     0
 40
0.0
 41
1.0
 50
0.0
 71
     0
 42
0.2
  3
txt
  4

  0
STYLE
  2
STANDARD1
 70
     0
 40
0.0
 41
1.0
 50
0.0
 71
     0
 42
3.0
  3
txt
  4

  0
ENDTAB
  0
TABLE
  2
VIEW
 70
     0
  0
ENDTAB
  0
TABLE
  2
UCS
 70
     0
  0
ENDTAB
  0
TABLE
  2
APPID
 70
    29
  0
APPID
  2
ACAD
 70
     0
  0
APPID
  2
ACADANNOTATIVE
 70
     0
  0
APPID
  2
GENIUS_GENOREF_13
 70
     0
  0
APPID
  2
GENIUS_GENOENT_13
 70
     0
  0
APPID
  2
GENIUS_GENBH_13
 70
     0
  0
APPID
  2
GENIUS_GENOBJ_13
 70
     0
  0
APPID
  2
GENIUS_GENODEF_13
 70
     0
  0
APPID
  2
GENIUS_GENOLIS_13
 70
     0
  0
APPID
  2
GENIUS_GENOBJ-NBEHI-BHF_13
 70
     0
  0
APPID
  2
GENIUS_GENOBJ-NBEHI-BHB_13
 70
     0
  0
APPID
  2
GENIUS_GENOBJ-F-PART_13
 70
     0
  0
APPID
  2
GENIUS_GEFSTDP_13
 70
     0
  0
APPID
  2
GENIUS_GENOBJ-N-RSSYM_13
 70
     0
  0
APPID
  2
GENIUS_GENSYMENT_13
 70
     0
  0
APPID
  2
GENIUS_GENOBJ-N-TIT_13
 70
     0
  0
APPID
  2
GENIUS_GENTITLE_13
 70
     0
  0
APPID
  2
GENIUS_GENZVEED_13
 70
     0
  0
APPID
  2
GENIUS_GENOBJ-N-LEADER_13
 70
     0
  0
APPID
  2
GENIUS_GENOBJ-N-FIL_13
 70
     0
  0
APPID
  2
GENIUS_GENOBJ-N-SEC_13
 70
     0
  0
APPID
  2
GENIUS_GENOBJ-N-CRS_13
 70
     0
  0
APPID
  2
GENIUS_GENOBJ-N-ZOO_13
 70
     0
  0
APPID
  2
GENIUS_GENZOO_13
 70
     0
  0
APPID
  2
GENIUS_GENOBJ-F-TOL_13
 70
     0
  0
APPID
  2
GENIUS_GENFIL_13
 70
     0
  0
APPID
  2
GENIUS_GENOBJ-N-CHA_13
 70
     0
  0
APPID
  2
ACAD_EXEMPT_FROM_CAD_STANDARDS
 70
     0
  0
APPID
  2
ACAD_MLEADERVER
 70
     0
  0
APPID
  2
ACAD_NAV_VCDISPLAY
 70
     0
  0
ENDTAB
  0
TABLE
  2
DIMSTYLE
 70
     2
  0
DIMSTYLE
  2
STANDARD
 70
     0
  3

  4

  5

  6

  7

 40
1.0
 41
0.18
 42
0.0625
 43
0.38
 44
0.18
 45
0.0
 46
0.0
 47
0.0
 48
0.0
140
0.18
141
0.09
142
0.0
143
25.399999999999999
144
1.0
145
0.0
146
1.0
147
0.09
 71
     0
 72
     0
 73
     1
 74
     1
 75
     0
 76
     0
 77
     0
 78
     0
170
     0
171
     2
172
     0
173
     0
174
     0
175
     0
176
     0
177
     0
178
     0
  0
DIMSTYLE
  2
ANNOTATIVE
 70
     0
  3

  4

  5

  6

  7

 40
1.0
 41
0.18
 42
0.0625
 43
0.38
 44
0.18
 45
0.0
 46
0.0
 47
0.0
 48
0.0
140
0.18
141
0.09
142
0.0
143
25.399999999999999
144
1.0
145
0.0
146
1.0
147
0.09
 71
     0
 72
     0
 73
     1
 74
     1
 75
     0
 76
     0
 77
     0
 78
     0
170
     0
171
     2
172
     0
173
     0
174
     0
175
     0
176
     0
177
     0
178
     0
  0
ENDTAB
  0
ENDSEC
  0
SECTION
  2
BLOCKS
  0
BLOCK
  8
0
  2
$MODEL_SPACE
 70
     0
 10
0.0
 20
0.0
 30
0.0
  3
$MODEL_SPACE
  1

  0
ENDBLK
  5
30D6
  8
0
  0
BLOCK
 67
     1
  8
0
  2
$PAPER_SPACE
 70
     0
 10
0.0
 20
0.0
 30
0.0
  3
$PAPER_SPACE
  1

  0
ENDBLK
  5
30D2
 67
     1
  8
0
  0
ENDSEC
  0
SECTION
  2
ENTITIES
  0
LINE
  5
2CCD
  8
1
 10
78.220622316808701
 20
159.63510230306909
 30
0.0
 11
8.2206223168087007
 21
159.63510230306909
 31
0.0
  0
LINE
  5
2CCE
  8
1
 10
43.220622316808686
 20
194.6351023030692
 30
0.0
 11
43.220622316808686
 21
124.6351023030691
 31
0.0
  0
CIRCLE
  5
2CCF
  8
0
 10
43.220622316808857
 20
159.6351023030692
 30
0.0
 40
14.99999999999981
  0
CIRCLE
  5
2CD0
  8
0
 10
43.220622316808686
 20
159.63510230306909
 30
0.0
 40
20.00000000000006
  0
CIRCLE
  5
2CD1
  8
0
 10
43.220622316808686
 20
159.6351023030692
 30
0.0
 40
25.0
  0
CIRCLE
  5
2CD2
  8
0
 10
43.220622316808686
 20
159.63510230306909
 30
0.0
 40
30.0
  0
LINE
  5
2CD4
  8
0
 10
138.66486378250841
 20
50.679115985165367
 30
0.0
 11
138.66486378250841
 21
54.679115985165467
 31
0.0
  0
LINE
  5
2CD5
  8
0
 10
127.66486378250841
 20
50.679115985165367
 30
0.0
 11
127.66486378250841
 21
54.679115985165467
 31
0.0
  0
LINE
  5
2CD6
  8
0
 10
130.36486378250831
 20
102.6791159851653
 30
0.0
 11
135.9648637825083
 21
102.6791159851653
 31
0.0
  0
LINE
  5
2CD7
  8
0
 10
137.16486378250829
 20
59.679115985165339
 30
0.0
 11
137.16486378250829
 21
72.679115985165311
 31
0.0
  0
LINE
  5
2CD8
  8
3
 10
136.4883637825084
 20
61.67911598516536
 30
0.0
 11
136.4883637825084
 21
72.679115985165311
 31
0.0
  0
LINE
  5
2CD9
  8
3
 10
129.84136378250821
 20
61.679115985165431
 30
0.0
 11
129.84136378250821
 21
72.679115985165311
 31
0.0
  0
LINE
  5
2CDA
  8
0
 10
129.16486378250829
 20
59.679115985165339
 30
0.0
 11
129.16486378250829
 21
72.679115985165311
 31
0.0
  0
LINE
  5
2CDB
  8
0
 10
129.16486378250829
 20
101.47911598516529
 30
0.0
 11
130.36486378250831
 21
102.6791159851653
 31
0.0
  0
LINE
  5
2CDC
  8
0
 10
135.9648637825083
 20
102.6791159851653
 30
0.0
 11
137.16486378250829
 21
101.47911598516529
 31
0.0
  0
LINE
  5
2CDD
  8
0
 10
129.16486378250829
 20
101.47911598516539
 30
0.0
 11
137.16486378250829
 21
101.47911598516529
 31
0.0
  0
LINE
  5
2CDE
  8
0
 10
129.16486378250829
 20
61.679115985165431
 30
0.0
 11
137.16486378250829
 21
61.67911598516536
 31
0.0
  0
LINE
  5
2CDF
  8
3
 10
129.84136378250821
 20
61.679115985165431
 30
0.0
 11
129.16486378250829
 21
60.50738361384532
 31
0.0
  0
LINE
  5
2CE0
  8
3
 10
136.48836378250829
 20
61.679115985165431
 30
0.0
 11
137.16486378250829
 21
60.50738361384532
 31
0.0
  0
LINE
  5
2CE1
  8
0
 10
139.66486378250841
 20
79.034778417867244
 30
0.0
 11
139.4148637825073
 21
79.179115985165311
 31
0.0
  0
ARC
  5
2CE2
  8
0
 10
136.41486378250841
 20
69.647626282618546
 30
0.0
 40
9.3871521352487513
 50
69.743841999583026
 51
110.2561580004169
  0
ARC
  5
2CE3
  8
0
 10
136.41486378250841
 20
82.210605687712047
 30
0.0
 40
9.3871521352487513
 50
249.7438419995832
 51
290.2561580004168
  0
LINE
  5
2CE4
  8
0
 10
139.66486378250841
 20
72.823453552463377
 30
0.0
 11
139.4148637825073
 21
72.679115985165311
 31
0.0
  0
LINE
  5
2CE5
  8
0
 10
139.66486378250841
 20
79.034778417867244
 30
0.0
 11
139.66486378250841
 21
72.823453552463377
 31
0.0
  0
LINE
  5
2CE7
  8
0
 10
126.6648637825089
 20
79.034778417867244
 30
0.0
 11
126.6648637825089
 21
72.823453552463377
 31
0.0
  0
LINE
  5
2CE8
  8
0
 10
126.6648637825089
 20
72.823453552463377
 30
0.0
 11
126.91486378251
 21
72.679115985165311
 31
0.0
  0
ARC
  5
2CE9
  8
0
 10
129.9148637825088
 20
82.210605687712047
 30
0.0
 40
9.3871521352487513
 50
249.74384199958311
 51
290.2561580004168
  0
ARC
  5
2CEA
  8
0
 10
129.9148637825088
 20
69.647626282618546
 30
0.0
 40
9.3871521352487513
 50
69.743841999583026
 51
110.2561580004168
  0
LINE
  5
2CEB
  8
0
 10
126.6648637825089
 20
79.034778417867244
 30
0.0
 11
126.91486378251
 21
79.179115985165311
 31
0.0
  0
LINE
  5
2CEC
  8
0
 10
126.91486378251
 20
79.179115985165311
 30
0.0
 11
139.4148637825073
 21
79.179115985165311
 31
0.0
  0
LINE
  5
2CED
  8
0
 10
139.4148637825073
 20
72.679115985165311
 30
0.0
 11
126.91486378251
 21
72.679115985165311
 31
0.0
  0
ARC
  5
2CEE
  8
0
 10
127.1026859560173
 20
55.94552368028269
 30
0.0
 40
3.5781518477924039
 50
55.615752531961242
 51
115.6157525321741
  0
ARC
  5
2CEF
  8
0
 10
133.16486378250929
 20
46.148890310421343
 30
0.0
 40
13.374785217653811
 50
72.412046225997216
 51
107.5879537740048
  0
LINE
  5
2CF0
  8
0
 10
125.0819600138535
 20
58.898460745735832
 30
0.0
 11
126.4340945517403
 21
59.67911598516536
 31
0.0
  0
LINE
  5
2CF1
  8
0
 10
125.0819600138535
 20
55.459771224595038
 30
0.0
 11
126.4340945517403
 21
54.679115985165467
 31
0.0
  0
ARC
  5
2CF2
  8
0
 10
127.1026859560173
 20
58.412708290048158
 30
0.0
 40
3.5781518477924039
 50
244.38424746782579
 51
304.38424746803872
  0
ARC
  5
2CF3
  8
0
 10
133.16486378250929
 20
68.209341659909512
 30
0.0
 40
13.374785217653811
 50
252.4120462259952
 51
287.58795377400281
  0
LINE
  5
2CF4
  8
0
 10
125.0819600138535
 20
58.898460745735832
 30
0.0
 11
125.0819600138535
 21
55.459771224595038
 31
0.0
  0
LINE
  5
2CF5
  8
0
 10
129.12341189818261
 20
58.898460745734653
 30
0.0
 11
129.1234118981809
 21
55.459771224596693
 31
0.0
  0
LINE
  5
2CF6
  8
0
 10
137.20631566683389
 20
58.898460745736372
 30
0.0
 11
137.20631566683571
 21
55.459771224596693
 31
0.0
  0
LINE
  5
2CF7
  8
0
 10
141.24776755116301
 20
58.898460745735854
 30
0.0
 11
141.24776755116301
 21
55.459771224595038
 31
0.0
  0
ARC
  5
2CF8
  8
0
 10
139.2270416089992
 20
58.412708290048158
 30
0.0
 40
3.5781518477924039
 50
235.61575253196131
 51
295.61575253217421
  0
LINE
  5
2CF9
  8
0
 10
141.24776755116301
 20
55.459771224595038
 30
0.0
 11
139.8956330132763
 21
54.679115985165467
 31
0.0
  0
LINE
  5
2CFA
  8
0
 10
141.24776755116301
 20
58.898460745735832
 30
0.0
 11
139.8956330132763
 21
59.67911598516536
 31
0.0
  0
ARC
  5
2CFB
  8
0
 10
139.2270416089992
 20
55.94552368028269
 30
0.0
 40
3.5781518477924039
 50
64.384247467825787
 51
124.38424746803869
  0
LINE
  5
2CFC
  8
0
 10
126.43409455173909
 20
59.67911598516536
 30
0.0
 11
139.8956330132761
 21
59.67911598516536
 31
0.0
  0
LINE
  5
2CFD
  8
0
 10
139.8956330132763
 20
54.679115985165467
 30
0.0
 11
126.4340945517405
 21
54.679115985165467
 31
0.0
  0
LINE
  5
2CFE
  8
3
 10
136.4883637825084
 20
79.179115985165353
 30
0.0
 11
136.4883637825084
 21
102.1556159851652
 31
0.0
  0
LINE
  5
2CFF
  8
0
 10
137.16486378250829
 20
79.179115985165311
 30
0.0
 11
137.16486378250829
 21
101.47911598516529
 31
0.0
  0
LINE
  5
2D00
  8
3
 10
129.84136378250821
 20
79.179115985165311
 30
0.0
 11
129.84136378250821
 21
102.1556159851652
 31
0.0
  0
LINE
  5
2D01
  8
0
 10
129.16486378250829
 20
79.179115985165353
 30
0.0
 11
129.16486378250829
 21
101.47911598516529
 31
0.0
  0
LINE
  5
2D02
  8
1
 10
43.220622316808452
 20
21.67911598516535
 30
0.0
 11
43.220622316808921
 21
107.6791159851653
 31
0.0
  0
LINE
  5
2D16
  8
0
 10
137.16486378250829
 20
59.67911598516536
 30
0.0
 11
137.16486378250829
 21
72.679115985165311
 31
0.0
  0
LINE
  5
2D17
  8
3
 10
136.4883637825084
 20
61.679115985165389
 30
0.0
 11
136.4883637825084
 21
72.679115985165325
 31
0.0
  0
LINE
  5
2D18
  8
3
 10
129.84136378250821
 20
61.679115985165431
 30
0.0
 11
129.84136378250821
 21
72.679115985165311
 31
0.0
  0
LINE
  5
2D19
  8
0
 10
129.16486378250829
 20
59.67911598516536
 30
0.0
 11
129.16486378250829
 21
72.679115985165311
 31
0.0
  0
ARC
  5
2D1A
  8
0
 10
46.72062231680853
 20
64.943797203293002
 30
0.0
 40
10.10924076103746
 50
249.74384199958311
 51
290.25615800041692
  0
LINE
  5
2D1B
  8
0
 10
50.220622316808651
 20
54.834556442255568
 30
0.0
 11
49.951391547576662
 21
54.67911598516536
 31
0.0
  0
LINE
  5
2D1C
  8
0
 10
36.220622316808658
 20
54.834556442255568
 30
0.0
 11
36.489853086040682
 21
54.67911598516536
 31
0.0
  0
ARC
  5
2D1D
  8
0
 10
39.7206223168088
 20
64.943797203293002
 30
0.0
 40
10.10924076103746
 50
249.74384199958311
 51
290.25615800041692
  0
LINE
  5
2D1E
  8
0
 10
49.951391547576662
 20
54.67911598516536
 30
0.0
 11
36.489853086040682
 21
54.67911598516536
 31
0.0
  0
ARC
  5
2D1F
  8
0
 10
46.72062231680853
 20
49.414434767037712
 30
0.0
 40
10.10924076103746
 50
69.743841999583083
 51
110.2561580004169
  0
LINE
  5
2D20
  8
0
 10
50.220622316808651
 20
59.523675528075103
 30
0.0
 11
49.951391547576662
 21
59.67911598516536
 31
0.0
  0
LINE
  5
2D21
  8
0
 10
36.220622316808658
 20
59.523675528075103
 30
0.0
 11
36.489853086040682
 21
59.67911598516536
 31
0.0
  0
ARC
  5
2D22
  8
0
 10
39.7206223168088
 20
49.414434767037712
 30
0.0
 40
10.10924076103746
 50
69.743841999583083
 51
110.2561580004169
  0
LINE
  5
2D23
  8
0
 10
49.951391547576662
 20
59.67911598516536
 30
0.0
 11
36.489853086040682
 21
59.67911598516536
 31
0.0
  0
LINE
  5
2D24
  8
0
 10
50.220622316808651
 20
59.523675528075103
 30
0.0
 11
50.220622316808651
 21
54.834556442255568
 31
0.0
  0
LINE
  5
2D25
  8
0
 10
36.220622316808658
 20
59.523675528075103
 30
0.0
 11
36.220622316808658
 21
54.834556442255568
 31
0.0
  0
LINE
  5
2D26
  8
0
 10
43.220622316808651
 20
58.898460745735917
 30
0.0
 11
43.220622316808623
 21
55.459771224594782
 31
0.0
  0
LINE
  5
2D27
  8
3
 10
46.54412231680876
 20
61.679115985165431
 30
0.0
 11
47.220622316808637
 21
60.50738361384532
 31
0.0
  0
LINE
  5
2D28
  8
3
 10
39.897122316808549
 20
61.679115985165431
 30
0.0
 11
39.220622316808686
 21
60.50738361384532
 31
0.0
  0
LINE
  5
2D29
  8
0
 10
39.220622316808658
 20
61.679115985165431
 30
0.0
 11
47.220622316808722
 21
61.67911598516536
 31
0.0
  0
LINE
  5
2D2A
  8
0
 10
39.220622316808658
 20
101.47911598516539
 30
0.0
 11
47.220622316808722
 21
101.47911598516529
 31
0.0
  0
LINE
  5
2D2B
  8
0
 10
46.020622316808698
 20
102.6791159851653
 30
0.0
 11
47.220622316808722
 21
101.47911598516529
 31
0.0
  0
LINE
  5
2D2C
  8
0
 10
39.220622316808722
 20
101.47911598516529
 30
0.0
 11
40.420622316808704
 21
102.6791159851653
 31
0.0
  0
LINE
  5
2D2D
  8
0
 10
39.220622316808658
 20
59.67911598516536
 30
0.0
 11
39.220622316808686
 21
72.679115985165311
 31
0.0
  0
LINE
  5
2D2E
  8
3
 10
39.897122316808577
 20
61.679115985165431
 30
0.0
 11
39.897122316808577
 21
72.679115985165311
 31
0.0
  0
LINE
  5
2D2F
  8
3
 10
46.544122316808782
 20
61.679115985165389
 30
0.0
 11
46.544122316808782
 21
72.679115985165325
 31
0.0
  0
LINE
  5
2D30
  8
0
 10
47.220622316808679
 20
59.67911598516536
 30
0.0
 11
47.220622316808637
 21
72.679115985165311
 31
0.0
  0
LINE
  5
2D31
  8
0
 10
40.420622316808704
 20
102.6791159851653
 30
0.0
 11
46.020622316808698
 21
102.6791159851653
 31
0.0
  0
LINE
  5
2D32
  8
0
 10
37.720622316808772
 20
50.679115985165367
 30
0.0
 11
37.720622316808793
 21
54.67911598516536
 31
0.0
  0
LINE
  5
2D33
  8
0
 10
48.720622316808779
 20
50.679115985165367
 30
0.0
 11
48.720622316808793
 21
54.67911598516536
 31
0.0
  0
ARC
  5
2D34
  8
0
 10
37.59145719221118
 20
75.712208844917257
 30
0.0
 40
3.3225695729499729
 50
55.615752531960709
 51
115.61575253217489
  0
ARC
  5
2D35
  8
0
 10
43.220622316810648
 20
66.615335001474875
 30
0.0
 40
12.41944341639239
 50
72.41204622599642
 51
107.5879537740048
  0
LINE
  5
2D36
  8
0
 10
35.715068817344843
 20
78.454221834266491
 30
0.0
 11
36.970622316811109
 21
79.179115985165311
 31
0.0
  0
LINE
  5
2D37
  8
0
 10
35.715068817344843
 20
73.40401013606413
 30
0.0
 11
36.970622316811109
 21
72.679115985165311
 31
0.0
  0
ARC
  5
2D38
  8
0
 10
37.59145719221118
 20
76.146023125413365
 30
0.0
 40
3.3225695729499729
 50
244.38424746782499
 51
304.38424746803918
  0
ARC
  5
2D39
  8
0
 10
43.220622316810648
 20
85.242896968855717
 30
0.0
 40
12.41944341639239
 50
252.41204622599511
 51
287.58795377400372
  0
LINE
  5
2D3A
  8
0
 10
35.715068817344843
 20
78.454221834266491
 30
0.0
 11
35.715068817344843
 21
73.40401013606413
 31
0.0
  0
LINE
  5
2D3B
  8
0
 10
39.46784556707911
 20
78.454221834266491
 30
0.0
 11
39.467845567077291
 21
73.404010136065665
 31
0.0
  0
LINE
  5
2D3C
  8
0
 10
46.973399066540352
 20
78.454221834266491
 30
0.0
 11
46.973399066542171
 21
73.404010136065665
 31
0.0
  0
LINE
  5
2D3D
  8
0
 10
50.726175816274633
 20
78.454221834266491
 30
0.0
 11
50.726175816274633
 21
73.40401013606413
 31
0.0
  0
ARC
  5
2D3E
  8
0
 10
48.849787441408303
 20
76.146023125413365
 30
0.0
 40
3.3225695729499729
 50
235.6157525319606
 51
295.61575253217489
  0
LINE
  5
2D3F
  8
0
 10
50.726175816274633
 20
73.40401013606413
 30
0.0
 11
49.470622316808367
 21
72.679115985165311
 31
0.0
  0
LINE
  5
2D40
  8
0
 10
50.726175816274633
 20
78.454221834266491
 30
0.0
 11
49.470622316808367
 21
79.179115985165311
 31
0.0
  0
ARC
  5
2D41
  8
0
 10
48.849787441408303
 20
75.712208844917257
 30
0.0
 40
3.3225695729499729
 50
64.384247467825006
 51
124.38424746803931
  0
LINE
  5
2D42
  8
0
 10
36.970622316809973
 20
79.179115985165311
 30
0.0
 11
49.470622316808132
 21
79.179115985165311
 31
0.0
  0
LINE
  5
2D43
  8
0
 10
49.470622316808367
 20
72.679115985165311
 30
0.0
 11
36.97062231681133
 21
72.679115985165311
 31
0.0
  0
LINE
  5
2D44
  8
0
 10
47.220622316808637
 20
79.179115985165311
 30
0.0
 11
47.220622316808722
 21
101.47911598516529
 31
0.0
  0
LINE
  5
2D45
  8
3
 10
46.544122316808782
 20
79.179115985165311
 30
0.0
 11
46.544122316808782
 21
102.1556159851652
 31
0.0
  0
LINE
  5
2D46
  8
3
 10
39.897122316808577
 20
79.179115985165311
 30
0.0
 11
39.897122316808577
 21
102.1556159851652
 31
0.0
  0
LINE
  5
2D47
  8
0
 10
39.220622316808686
 20
79.179115985165311
 30
0.0
 11
39.220622316808722
 21
101.47911598516529
 31
0.0
  0
LINE
  5
2D48
  8
0
 10
13.220622316808671
 20
27.179115985165339
 30
0.0
 11
13.720622316808671
 21
26.679115985165339
 31
0.0
  0
LINE
  5
2D49
  8
0
 10
13.220622316808671
 20
27.179115985165339
 30
0.0
 11
13.22062231680861
 21
35.54673522722716
 31
0.0
  0
LINE
  5
2D4B
  8
0
 10
23.220622316808608
 20
44.679115985165311
 30
0.0
 11
23.220622316808651
 21
45.325050062311483
 31
0.0
  0
LINE
  5
2D4C
  8
0
 10
18.22062231680864
 20
39.679115985165311
 30
0.0
 11
18.22062231680864
 21
40.546735227227167
 31
0.0
  0
LINE
  5
2D4D
  8
0
 10
23.220622316808591
 20
44.679115985165311
 30
0.0
 11
19.191630805953569
 21
42.261721078652251
 31
0.0
  0
LINE
  5
2D4E
  8
0
 10
28.220622316808619
 20
48.679115985165311
 30
0.0
 11
24.477840964100452
 21
47.182003444082007
 31
0.0
  0
LINE
  5
2D4F
  8
0
 10
28.220622316808619
 20
48.679115985165311
 30
0.0
 11
28.220622316808619
 21
48.679115985165367
 31
0.0
  0
LINE
  5
2D50
  8
0
 10
18.22062231680864
 20
39.679115985165311
 30
0.0
 11
14.191630805953549
 21
37.261721078652258
 31
0.0
  0
ARC
  5
2D51
  8
0
 10
30.220622316808619
 20
48.679115985165332
 30
0.0
 40
2.0
 50
90.0
 51
179.9999999999992
  0
ARC
  5
2D52
  8
0
 10
25.220622316808651
 20
45.325050062311497
 30
0.0
 40
2.0
 50
111.8014094863516
 51
180.0000000000008
  0
ARC
  5
2D53
  8
0
 10
20.22062231680864
 20
40.546735227227167
 30
0.0
 40
2.0
 50
120.9637565320738
 51
180.0
  0
ARC
  5
2D54
  8
0
 10
15.22062231680861
 20
35.546735227227181
 30
0.0
 40
2.0
 50
120.9637565320734
 51
180.0000000000004
  0
ARC
  5
2D55
  8
0
 10
71.22062231680863
 20
35.546735227227181
 30
0.0
 40
2.0
 50
359.9999999999996
 51
59.036243467926582
  0
ARC
  5
2D56
  8
0
 10
66.220622316808573
 20
40.546735227227167
 30
0.0
 40
2.0
 50
0.0
 51
59.036243467926127
  0
ARC
  5
2D57
  8
0
 10
61.22062231680858
 20
45.325050062311497
 30
0.0
 40
2.0
 50
359.9999999999992
 51
68.198590513648256
  0
ARC
  5
2D58
  8
0
 10
56.220622316808601
 20
48.679115985165332
 30
0.0
 40
2.0
 50
0.0000000000008142
 51
90.0
  0
LINE
  5
2D59
  8
0
 10
68.220622316808573
 20
39.679115985165311
 30
0.0
 11
72.249613827663694
 21
37.261721078652258
 31
0.0
  0
LINE
  5
2D5A
  8
0
 10
58.220622316808608
 20
48.679115985165311
 30
0.0
 11
58.220622316808608
 21
48.679115985165367
 31
0.0
  0
LINE
  5
2D5B
  8
0
 10
30.220622316808619
 20
50.679115985165367
 30
0.0
 11
56.220622316808601
 21
50.679115985165332
 31
0.0
  0
LINE
  5
2D5C
  8
0
 10
58.220622316808608
 20
48.679115985165311
 30
0.0
 11
61.963403669516779
 21
47.182003444082007
 31
0.0
  0
LINE
  5
2D5D
  8
0
 10
63.220622316808637
 20
44.679115985165311
 30
0.0
 11
67.249613827663651
 21
42.261721078652251
 31
0.0
  0
LINE
  5
2D5E
  8
0
 10
68.220622316808573
 20
39.679115985165311
 30
0.0
 11
68.220622316808573
 21
40.546735227227167
 31
0.0
  0
LINE
  5
2D5F
  8
0
 10
63.220622316808608
 20
44.679115985165311
 30
0.0
 11
63.22062231680858
 21
45.325050062311483
 31
0.0
  0
LINE
  5
2D60
  8
0
 10
28.220622316808619
 20
48.679115985165403
 30
0.0
 11
58.22062231680858
 21
48.679115985165332
 31
0.0
  0
LINE
  5
2D61
  8
0
 10
23.220622316808669
 20
44.679115985165367
 30
0.0
 11
63.220622316808608
 21
44.679115985165311
 31
0.0
  0
LINE
  5
2D62
  8
0
 10
18.22062231680864
 20
39.679115985165367
 30
0.0
 11
68.220622316808573
 21
39.679115985165332
 31
0.0
  0
CIRCLE
  5
2D64
  8
0
 10
43.220622316808686
 20
159.63510230306909
 30
0.0
 40
4.0
  0
CIRCLE
  5
2D65
  8
3
 10
43.220622316808686
 20
159.63510230306909
 30
0.0
 40
3.3235000000000001
  0
CIRCLE
  5
2D66
  8
0
 10
43.220622316808686
 20
159.63510230306909
 30
0.0
 40
6.25
  0
LINE
  5
2D67
  8
0
 10
35.715068817343919
 20
159.63510230306909
 30
0.0
 11
39.46784556707631
 21
153.1351023030694
 31
0.0
  0
LINE
  5
2D68
  8
0
 10
39.46784556707631
 20
166.13510230306881
 30
0.0
 11
35.715068817343919
 21
159.63510230306909
 31
0.0
  0
LINE
  5
2D69
  8
0
 10
46.973399066541091
 20
166.13510230306881
 30
0.0
 11
39.46784556707631
 21
166.13510230306881
 31
0.0
  0
LINE
  5
2D6A
  8
0
 10
50.726175816273482
 20
159.63510230306909
 30
0.0
 11
46.973399066541091
 21
166.13510230306881
 31
0.0
  0
LINE
  5
2D6B
  8
0
 10
46.973399066541091
 20
153.1351023030694
 30
0.0
 11
50.726175816273482
 21
159.63510230306909
 31
0.0
  0
LINE
  5
2D6C
  8
0
 10
39.46784556707631
 20
153.1351023030694
 30
0.0
 11
46.973399066541091
 21
153.1351023030694
 31
0.0
  0
LINE
  5
2D6F
  8
0
 10
13.720622316808671
 20
26.67911598516535
 30
0.0
 11
72.720622316808459
 21
26.67911598516535
 31
0.0
  0
LINE
  5
2D70
  8
0
 10
73.220622316808573
 20
27.179115985165339
 30
0.0
 11
73.220622316808601
 21
35.54673522722716
 31
0.0
  0
LINE
  5
2D71
  8
0
 10
73.220622316808573
 20
27.179115985165339
 30
0.0
 11
72.720622316808544
 21
26.679115985165339
 31
0.0
  0
LINE
  5
2E3E
  8
1
 10
133.16486378250869
 20
21.67911598516535
 30
0.0
 11
133.16486378250869
 21
107.6791159851653
 31
0.0
  0
LINE
  5
2E51
  8
0
 10
163.1648637825086
 20
27.179115985165339
 30
0.0
 11
162.6648637825086
 21
26.679115985165339
 31
0.0
  0
LINE
  5
2E52
  8
0
 10
163.1648637825086
 20
27.179115985165339
 30
0.0
 11
163.16486378250869
 21
35.54673522722716
 31
0.0
  0
LINE
  5
2E53
  8
0
 10
103.6648637825087
 20
26.67911598516535
 30
0.0
 11
162.66486378250841
 21
26.67911598516535
 31
0.0
  0
LINE
  5
2E56
  8
0
 10
108.1648637825087
 20
39.679115985165367
 30
0.0
 11
158.1648637825086
 21
39.679115985165332
 31
0.0
  0
LINE
  5
2E57
  8
0
 10
113.1648637825087
 20
44.679115985165367
 30
0.0
 11
153.1648637825086
 21
44.679115985165311
 31
0.0
  0
LINE
  5
2E58
  8
0
 10
118.1648637825086
 20
48.679115985165403
 30
0.0
 11
148.1648637825086
 21
48.679115985165332
 31
0.0
  0
LINE
  5
2E59
  8
0
 10
153.1648637825086
 20
44.679115985165311
 30
0.0
 11
153.1648637825086
 21
45.325050062311483
 31
0.0
  0
LINE
  5
2E5A
  8
0
 10
158.1648637825086
 20
39.679115985165311
 30
0.0
 11
158.1648637825086
 21
40.546735227227167
 31
0.0
  0
LINE
  5
2E5B
  8
0
 10
153.16486378250869
 20
44.679115985165311
 30
0.0
 11
157.1938552933637
 21
42.261721078652251
 31
0.0
  0
LINE
  5
2E5C
  8
0
 10
148.1648637825086
 20
48.679115985165311
 30
0.0
 11
151.9076451352168
 21
47.182003444082007
 31
0.0
  0
LINE
  5
2E5D
  8
0
 10
120.1648637825086
 20
50.679115985165367
 30
0.0
 11
146.1648637825086
 21
50.679115985165332
 31
0.0
  0
LINE
  5
2E5E
  8
0
 10
148.1648637825086
 20
48.679115985165311
 30
0.0
 11
148.1648637825086
 21
48.679115985165367
 31
0.0
  0
LINE
  5
2E5F
  8
0
 10
158.1648637825086
 20
39.679115985165311
 30
0.0
 11
162.1938552933637
 21
37.261721078652258
 31
0.0
  0
ARC
  5
2E60
  8
0
 10
146.1648637825086
 20
48.679115985165332
 30
0.0
 40
2.0
 50
0.0000000000008142
 51
90.0
  0
ARC
  5
2E61
  8
0
 10
151.1648637825086
 20
45.325050062311497
 30
0.0
 40
2.0
 50
359.9999999999992
 51
68.198590513648639
  0
ARC
  5
2E62
  8
0
 10
156.1648637825086
 20
40.546735227227167
 30
0.0
 40
2.0
 50
0.0
 51
59.036243467926127
  0
ARC
  5
2E63
  8
0
 10
161.1648637825086
 20
35.546735227227181
 30
0.0
 40
2.0
 50
359.9999999999996
 51
59.036243467926241
  0
ARC
  5
2E64
  8
0
 10
105.1648637825086
 20
35.546735227227181
 30
0.0
 40
2.0
 50
120.9637565320734
 51
180.0000000000004
  0
ARC
  5
2E65
  8
0
 10
110.1648637825087
 20
40.546735227227167
 30
0.0
 40
2.0
 50
120.9637565320738
 51
180.0
  0
ARC
  5
2E66
  8
0
 10
115.1648637825087
 20
45.325050062311497
 30
0.0
 40
2.0
 50
111.8014094863517
 51
180.0000000000008
  0
ARC
  5
2E67
  8
0
 10
120.1648637825086
 20
48.679115985165332
 30
0.0
 40
2.0
 50
90.0
 51
179.9999999999992
  0
LINE
  5
2E68
  8
0
 10
108.1648637825087
 20
39.679115985165311
 30
0.0
 11
104.1358722716536
 21
37.261721078652258
 31
0.0
  0
LINE
  5
2E69
  8
0
 10
118.1648637825086
 20
48.679115985165311
 30
0.0
 11
118.1648637825086
 21
48.679115985165367
 31
0.0
  0
LINE
  5
2E6A
  8
0
 10
118.1648637825086
 20
48.679115985165311
 30
0.0
 11
114.4220824298005
 21
47.182003444082007
 31
0.0
  0
LINE
  5
2E6B
  8
0
 10
113.1648637825086
 20
44.679115985165311
 30
0.0
 11
109.1358722716536
 21
42.261721078652251
 31
0.0
  0
LINE
  5
2E6C
  8
0
 10
108.1648637825087
 20
39.679115985165311
 30
0.0
 11
108.1648637825087
 21
40.546735227227167
 31
0.0
  0
LINE
  5
2E6D
  8
0
 10
113.1648637825086
 20
44.679115985165311
 30
0.0
 11
113.1648637825087
 21
45.325050062311483
 31
0.0
  0
LINE
  5
2E6F
  8
0
 10
103.1648637825087
 20
27.179115985165339
 30
0.0
 11
103.1648637825086
 21
35.54673522722716
 31
0.0
  0
LINE
  5
2E70
  8
0
 10
103.1648637825087
 20
27.179115985165339
 30
0.0
 11
103.6648637825087
 21
26.679115985165339
 31
0.0
  0
LINE
  5
2F40
  8
0
 10
36.220622316808708
 20
163.6765541873965
 30
0.0
 11
36.220622316808708
 21
160.51074665008639
 31
0.0
  0
LINE
  5
2F41
  8
0
 10
36.220622316808708
 20
158.75945795605179
 30
0.0
 11
36.220622316808708
 21
155.59365041874179
 31
0.0
  0
LINE
  5
2F42
  8
0
 10
50.220622316808701
 20
163.6765541873965
 30
0.0
 11
50.220622316808701
 21
160.51074665008639
 31
0.0
  0
LINE
  5
2F43
  8
0
 10
50.220622316808701
 20
158.7594579560519
 30
0.0
 11
50.220622316808701
 21
155.59365041874179
 31
0.0
  0
LINE
  5
2F44
  8
0
 10
43.220622316808672
 20
151.5521985344144
 30
0.0
 11
40.478952566005987
 21
153.1351023030694
 31
0.0
  0
LINE
  5
2F45
  8
0
 10
38.962292067611472
 20
154.0107466500867
 30
0.0
 11
36.220622316808722
 21
155.59365041874159
 31
0.0
  0
LINE
  5
2F46
  8
0
 10
50.220622316808672
 20
163.6765541873965
 30
0.0
 11
47.478952566005923
 21
165.25945795605159
 31
0.0
  0
LINE
  5
2F47
  8
0
 10
45.962292067611401
 20
166.13510230306881
 30
0.0
 11
43.220622316808758
 21
167.71800607172389
 31
0.0
  0
LINE
  5
2F48
  8
0
 10
50.220622316808701
 20
155.59365041874179
 30
0.0
 11
47.47895256600593
 21
154.0107466500867
 31
0.0
  0
LINE
  5
2F49
  8
0
 10
45.962292067611322
 20
153.1351023030694
 30
0.0
 11
43.220622316808686
 21
151.5521985344144
 31
0.0
  0
LINE
  5
2F4A
  8
0
 10
43.220622316808729
 20
167.71800607172389
 30
0.0
 11
40.4789525660061
 21
166.13510230306881
 31
0.0
  0
LINE
  5
2F4B
  8
0
 10
38.962292067611422
 20
165.25945795605151
 30
0.0
 11
36.220622316808708
 21
163.6765541873965
 31
0.0
  0
ARC
  5
2F4C
  8
0
 10
43.220622316808686
 20
159.63510230306909
 30
0.0
 40
6.7307692307679599
 50
74.953241639827255
 51
105.0467583601728
  0
ARC
  5
2F4D
  8
0
 10
43.220622316808686
 20
159.63510230306909
 30
0.0
 40
6.7307692307679599
 50
134.95324163982639
 51
165.04675836017529
  0
ARC
  5
2F4E
  8
0
 10
43.220622316808686
 20
159.63510230306909
 30
0.0
 40
6.7307692307679599
 50
194.95324163982639
 51
225.0467583601733
  0
ARC
  5
2F4F
  8
0
 10
43.220622316808686
 20
159.63510230306909
 30
0.0
 40
6.7307692307679599
 50
254.95324163982789
 51
285.04675836017202
  0
ARC
  5
2F50
  8
0
 10
43.220622316808686
 20
159.63510230306909
 30
0.0
 40
6.7307692307679599
 50
314.95324163982639
 51
345.0467583601739
  0
ARC
  5
2F51
  8
0
 10
43.220622316808686
 20
159.63510230306909
 30
0.0
 40
6.7307692307679599
 50
14.953241639824681
 51
45.046758360173612
  0
LINE
  5
2FFB
  8
0
 10
133.1648637825086
 20
78.454221834266548
 30
0.0
 11
133.1648637825086
 21
73.404010136064073
 31
0.0
  0
TEXT
  5
3156
  8
0
 62
     3
 10
0.0
 20
0.0
 30
0.0
 40
10.0
  1
LVA60S8A-SUS
  7
STANDARD1
  0
ENDSEC
  0
EOF
