  0
SECTION
  2
HEADER
  9
$ACADVER
  1
AC1009
  9
$INSBASE
 10
0.0
 20
0.0
 30
0.0
  9
$EXTMIN
 10
0.0
 20
-2.960436562073669
 30
0.0
  9
$EXTMAX
 10
190.9571699792973
 20
328.53925886461218
 30
0.0
  9
$LIMMIN
 10
0.0
 20
0.0
  9
$LIMMAX
 10
375.0
 20
270.0
  9
$ORTHOMODE
 70
     1
  9
$REGENMODE
 70
     1
  9
$FILLMODE
 70
     1
  9
$QTEXTMODE
 70
     0
  9
$MIRRTEXT
 70
     0
  9
$DRAGMODE
 70
     2
  9
$LTSCALE
 40
6.0
  9
$OSMODE
 70
    37
  9
$ATTMODE
 70
     1
  9
$TEXTSIZE
 40
0.2
  9
$TRACEWID
 40
0.05
  9
$TEXTSTYLE
  7
STANDARD
  9
$CLAYER
  8
0
  9
$CELTYPE
  6
BYLAYER
  9
$CECOLOR
 62
   256
  9
$DIMSCALE
 40
1.0
  9
$DIMASZ
 40
3.0
  9
$DIMEXO
 40
1.0
  9
$DIMDLI
 40
6.0
  9
$DIMRND
 40
0.0
  9
$DIMDLE
 40
0.0
  9
$DIMEXE
 40
1.0
  9
$DIMTP
 40
495.0
  9
$DIMTM
 40
0.0
  9
$DIMTXT
 40
3.0
  9
$DIMCEN
 40
0.0
  9
$DIMTSZ
 40
0.0
  9
$DIMTOL
 70
     0
  9
$DIMLIM
 70
     0
  9
$DIMTIH
 70
     0
  9
$DIMTOH
 70
     0
  9
$DIMSE1
 70
     0
  9
$DIMSE2
 70
     0
  9
$DIMTAD
 70
     1
  9
$DIMZIN
 70
     0
  9
$DIMBLK
  1

  9
$DIMASO
 70
     0
  9
$DIMSHO
 70
     0
  9
$DIMPOST
  1

  9
$DIMAPOST
  1

  9
$DIMALT
 70
     0
  9
$DIMALTD
 70
     2
  9
$DIMALTF
 40
25.399999999999999
  9
$DIMLFAC
 40
1.0
  9
$DIMTOFL
 70
     1
  9
$DIMTVP
 40
0.0
  9
$DIMTIX
 70
     1
  9
$DIMSOXD
 70
     0
  9
$DIMSAH
 70
     0
  9
$DIMBLK1
  1

  9
$DIMBLK2
  1

  9
$DIMSTYLE
  2
STANDARD
  9
$DIMCLRD
 70
     0
  9
$DIMCLRE
 70
     0
  9
$DIMCLRT
 70
     4
  9
$DIMTFAC
 40
1.0
  9
$DIMGAP
 40
1.0
  9
$LUNITS
 70
     2
  9
$LUPREC
 70
     4
  9
$SKETCHINC
 40
0.1
  9
$FILLETRAD
 40
2.0
  9
$AUNITS
 70
     0
  9
$AUPREC
 70
     0
  9
$MENU
  1
C:\R13\WIN\SUPPORT\ACAD-I
  9
$ELEVATION
 40
0.0
  9
$PELEVATION
 40
0.0
  9
$THICKNESS
 40
0.0
  9
$LIMCHECK
 70
     0
  9
$BLIPMODE
 70
     0
  9
$CHAMFERA
 40
0.0
  9
$CHAMFERB
 40
0.0
  9
$SKPOLY
 70
     0
  9
$TDCREATE
 40
2451962.4352950919
  9
$TDUPDATE
 40
2456598.7194953361
  9
$TDINDWG
 40
0.1152849421
  9
$TDUSRTIMER
 40
2456598.0433950578
  9
$USRTIMER
 70
     1
  9
$ANGBASE
 50
0.0
  9
$ANGDIR
 70
     0
  9
$PDMODE
 70
     0
  9
$PDSIZE
 40
0.0
  9
$PLINEWID
 40
0.0
  9
$COORDS
 70
     1
  9
$SPLFRAME
 70
     0
  9
$SPLINETYPE
 70
     6
  9
$SPLINESEGS
 70
     8
  9
$ATTDIA
 70
     0
  9
$ATTREQ
 70
     1
  9
$HANDLING
 70
     1
  9
$HANDSEED
  5
5D26
  9
$SURFTAB1
 70
     6
  9
$SURFTAB2
 70
     6
  9
$SURFTYPE
 70
     6
  9
$SURFU
 70
     6
  9
$SURFV
 70
     6
  9
$UCSNAME
  2

  9
$UCSORG
 10
0.0
 20
0.0
 30
0.0
  9
$UCSXDIR
 10
1.0
 20
0.0
 30
0.0
  9
$UCSYDIR
 10
0.0
 20
1.0
 30
0.0
  9
$PUCSNAME
  2

  9
$PUCSORG
 10
0.0
 20
0.0
 30
0.0
  9
$PUCSXDIR
 10
1.0
 20
0.0
 30
0.0
  9
$PUCSYDIR
 10
0.0
 20
1.0
 30
0.0
  9
$USERI1
 70
     4
  9
$USERI2
 70
     1
  9
$USERI3
 70
     0
  9
$USERI4
 70
     0
  9
$USERI5
 70
     0
  9
$USERR1
 40
1.0
  9
$USERR2
 40
3.0
  9
$USERR3
 40
3.0
  9
$USERR4
 40
3.0
  9
$USERR5
 40
10.0
  9
$WORLDVIEW
 70
     1
  9
$SHADEDGE
 70
     3
  9
$SHADEDIF
 70
    70
  9
$TILEMODE
 70
     1
  9
$MAXACTVP
 70
    16
  9
$PLIMCHECK
 70
     0
  9
$PEXTMIN
 10
1.0000000000000000E+020
 20
1.0000000000000000E+020
 30
1.0000000000000000E+020
  9
$PEXTMAX
 10
-1.0000000000000000E+020
 20
-1.0000000000000000E+020
 30
-1.0000000000000000E+020
  9
$PLIMMIN
 10
0.0
 20
0.0
  9
$PLIMMAX
 10
12.0
 20
9.0
  9
$UNITMODE
 70
     0
  9
$VISRETAIN
 70
     0
  9
$PLINEGEN
 70
     0
  9
$PSLTSCALE
 70
     0
  0
ENDSEC
  0
SECTION
  2
TABLES
  0
TABLE
  2
VPORT
 70
     1
  0
VPORT
  2
*ACTIVE
 70
     0
 10
0.0
 20
0.0
 11
1.0
 21
1.0
 12
187.49427839065231
 22
209.62365076591789
 13
0.0
 23
0.0
 14
10.0
 24
10.0
 15
10.0
 25
10.0
 16
0.0
 26
0.0
 36
1.0
 17
0.0
 27
0.0
 37
0.0
 40
428.89225444255919
 41
1.755244755244755
 42
50.0
 43
0.0
 44
0.0
 50
0.0
 51
0.0
 71
    16
 72
   100
 73
     1
 74
     0
 75
     0
 76
     0
 77
     0
 78
     0
  0
ENDTAB
  0
TABLE
  2
LTYPE
 70
     3
  0
LTYPE
  2
CONTINUOUS
 70
     0
  3
Solid Line
 72
    65
 73
     0
 40
0.0
  0
LTYPE
  2
PHANTOM2
 70
     0
  3
___ _ _ ___ _ _ ___ _ _ ___ _ _
 72
    65
 73
     6
 40
1.25
 49
0.625
 49
-0.125
 49
0.125
 49
-0.125
 49
0.125
 49
-0.125
  0
LTYPE
  2
CENTER
 70
     0
  3
____ _ ____ _ ____ _ ____ _ ____ _ ____ _ ____
 72
    65
 73
     4
 40
2.0
 49
1.25
 49
-0.25
 49
0.25
 49
-0.25
  0
ENDTAB
  0
TABLE
  2
LAYER
 70
     3
  0
LAYER
  2
0
 70
     0
 62
     7
  6
CONTINUOUS
  0
LAYER
  2
1
 70
     0
 62
     1
  6
CENTER
  0
LAYER
  2
3
 70
     0
 62
     3
  6
CONTINUOUS
  0
ENDTAB
  0
TABLE
  2
STYLE
 70
     3
  0
STYLE
  2
STANDARD
 70
     0
 40
0.0
 41
1.0
 50
0.0
 71
     0
 42
0.2
  3
SIMPLEX
  4
BIGFONT
  0
STYLE
  2
ANNOTATIVE
 70
     0
 40
0.0
 41
1.0
 50
0.0
 71
     0
 42
0.2
  3
txt
  4

  0
STYLE
  2
STANDARD1
 70
     0
 40
0.0
 41
1.0
 50
0.0
 71
     0
 42
3.0
  3
txt
  4

  0
ENDTAB
  0
TABLE
  2
VIEW
 70
     0
  0
ENDTAB
  0
TABLE
  2
UCS
 70
     0
  0
ENDTAB
  0
TABLE
  2
APPID
 70
    29
  0
APPID
  2
ACAD
 70
     0
  0
APPID
  2
ACADANNOTATIVE
 70
     0
  0
APPID
  2
GENIUS_GENOREF_13
 70
     0
  0
APPID
  2
GENIUS_GENOENT_13
 70
     0
  0
APPID
  2
GENIUS_GENBH_13
 70
     0
  0
APPID
  2
GENIUS_GENOBJ_13
 70
     0
  0
APPID
  2
GENIUS_GENODEF_13
 70
     0
  0
APPID
  2
GENIUS_GENOLIS_13
 70
     0
  0
APPID
  2
GENIUS_GENOBJ-NBEHI-BHF_13
 70
     0
  0
APPID
  2
GENIUS_GENOBJ-NBEHI-BHB_13
 70
     0
  0
APPID
  2
GENIUS_GENOBJ-F-PART_13
 70
     0
  0
APPID
  2
GENIUS_GEFSTDP_13
 70
     0
  0
APPID
  2
GENIUS_GENOBJ-N-RSSYM_13
 70
     0
  0
APPID
  2
GENIUS_GENSYMENT_13
 70
     0
  0
APPID
  2
GENIUS_GENOBJ-N-TIT_13
 70
     0
  0
APPID
  2
GENIUS_GENTITLE_13
 70
     0
  0
APPID
  2
GENIUS_GENZVEED_13
 70
     0
  0
APPID
  2
GENIUS_GENOBJ-N-LEADER_13
 70
     0
  0
APPID
  2
GENIUS_GENOBJ-N-FIL_13
 70
     0
  0
APPID
  2
GENIUS_GENOBJ-N-SEC_13
 70
     0
  0
APPID
  2
GENIUS_GENOBJ-N-CRS_13
 70
     0
  0
APPID
  2
GENIUS_GENOBJ-N-ZOO_13
 70
     0
  0
APPID
  2
GENIUS_GENZOO_13
 70
     0
  0
APPID
  2
GENIUS_GENOBJ-F-TOL_13
 70
     0
  0
APPID
  2
GENIUS_GENFIL_13
 70
     0
  0
APPID
  2
GENIUS_GENOBJ-N-CHA_13
 70
     0
  0
APPID
  2
ACAD_EXEMPT_FROM_CAD_STANDARDS
 70
     0
  0
APPID
  2
ACAD_MLEADERVER
 70
     0
  0
APPID
  2
ACAD_NAV_VCDISPLAY
 70
     0
  0
ENDTAB
  0
TABLE
  2
DIMSTYLE
 70
     2
  0
DIMSTYLE
  2
STANDARD
 70
     0
  3

  4

  5

  6

  7

 40
1.0
 41
0.18
 42
0.0625
 43
0.38
 44
0.18
 45
0.0
 46
0.0
 47
0.0
 48
0.0
140
0.18
141
0.09
142
0.0
143
25.399999999999999
144
1.0
145
0.0
146
1.0
147
0.09
 71
     0
 72
     0
 73
     1
 74
     1
 75
     0
 76
     0
 77
     0
 78
     0
170
     0
171
     2
172
     0
173
     0
174
     0
175
     0
176
     0
177
     0
178
     0
  0
DIMSTYLE
  2
ANNOTATIVE
 70
     0
  3

  4

  5

  6

  7

 40
1.0
 41
0.18
 42
0.0625
 43
0.38
 44
0.18
 45
0.0
 46
0.0
 47
0.0
 48
0.0
140
0.18
141
0.09
142
0.0
143
25.399999999999999
144
1.0
145
0.0
146
1.0
147
0.09
 71
     0
 72
     0
 73
     1
 74
     1
 75
     0
 76
     0
 77
     0
 78
     0
170
     0
171
     2
172
     0
173
     0
174
     0
175
     0
176
     0
177
     0
178
     0
  0
ENDTAB
  0
ENDSEC
  0
SECTION
  2
BLOCKS
  0
BLOCK
  8
0
  2
$MODEL_SPACE
 70
     0
 10
0.0
 20
0.0
 30
0.0
  3
$MODEL_SPACE
  1

  0
ENDBLK
  5
5BED
  8
0
  0
BLOCK
 67
     1
  8
0
  2
$PAPER_SPACE
 70
     0
 10
0.0
 20
0.0
 30
0.0
  3
$PAPER_SPACE
  1

  0
ENDBLK
  5
5BE9
 67
     1
  8
0
  0
ENDSEC
  0
SECTION
  2
ENTITIES
  0
LINE
  5
5825
  8
0
 10
166.4183751211396
 20
45.551846786660917
 30
0.0
 11
167.43257981536291
 21
44.537642092437643
 31
0.0
  0
LINE
  5
582C
  8
0
 10
190.9571699792973
 20
33.062232256372241
 30
0.0
 11
190.9571699792973
 21
33.465742589087768
 31
0.0
  0
LINE
  5
582D
  8
0
 10
190.9571699792973
 20
34.209773239978631
 30
0.0
 11
190.9571699792973
 21
34.209773239978631
 31
0.0
  0
LINE
  5
582E
  8
0
 10
190.9571699792973
 20
34.209773239978631
 30
0.0
 11
190.9571699792973
 21
34.209773239978631
 31
0.0
  0
LINE
  5
582F
  8
0
 10
190.9571699792973
 20
34.209773239978631
 30
0.0
 11
190.9571699792973
 21
34.209773239978631
 31
0.0
  0
LINE
  5
5830
  8
0
 10
190.9571699792973
 20
27.758953567847581
 30
0.0
 11
190.9571699792973
 21
33.062232256372241
 31
0.0
  0
LINE
  5
5832
  8
0
 10
190.4571699792973
 20
27.258953567847581
 30
0.0
 11
190.9571699792973
 21
27.758953567847581
 31
0.0
  0
LINE
  5
5833
  8
0
 10
185.2194650612646
 20
35.931084715388579
 30
0.0
 11
190.2445178648635
 21
34.423568874308792
 31
0.0
  0
LINE
  5
5834
  8
0
 10
185.2064221315415
 20
35.931084715388579
 30
0.0
 11
185.2064221315415
 21
36.335081949612693
 31
0.0
  0
LINE
  5
5835
  8
0
 10
179.4817601432319
 20
38.799937174404931
 30
0.0
 11
184.49437047725769
 21
37.292727891597217
 31
0.0
  0
LINE
  5
5836
  8
0
 10
173.17028473339559
 20
41.668789633421277
 30
0.0
 11
173.17028473339559
 21
42.072299966136832
 31
0.0
  0
LINE
  5
5837
  8
0
 10
179.4817601432319
 20
38.799937174404931
 30
0.0
 11
179.4817601432319
 21
39.183682317012199
 31
0.0
  0
LINE
  5
5838
  8
0
 10
173.17028473339559
 20
41.668789633421277
 30
0.0
 11
178.74487754902381
 21
40.14844613824993
 31
0.0
  0
LINE
  5
5839
  8
0
 10
167.43257981536291
 20
44.537642092437643
 30
0.0
 11
172.45763261896221
 21
43.030126251358062
 31
0.0
  0
ARC
  5
583A
  8
0
 10
189.9571699792973
 20
33.465742589087768
 30
0.0
 40
1.0
 50
0.0
 51
73.30075576600548
  0
ARC
  5
583B
  8
0
 10
184.20642213154159
 20
36.335081949612693
 30
0.0
 40
1.0
 50
0.0
 51
73.264833729934722
  0
ARC
  5
583C
  8
0
 10
178.4817601432319
 20
39.183682317012199
 30
0.0
 40
1.0
 50
0.0
 51
74.744881296941827
  0
ARC
  5
583D
  8
0
 10
172.17028473339559
 20
42.072299966136832
 30
0.0
 40
1.0
 50
0.0
 51
73.30075576600548
  0
LINE
  5
583E
  8
0
 10
166.4183751211396
 20
45.551846786660917
 30
0.0
 11
164.71126833995319
 21
46.258953567847577
 31
0.0
  0
LINE
  5
5841
  8
0
 10
145.49596483745481
 20
45.551846786660917
 30
0.0
 11
147.20307161864139
 21
46.258953567847577
 31
0.0
  0
ARC
  5
5842
  8
0
 10
139.74405522519891
 20
42.072299966136832
 30
0.0
 40
1.0
 50
106.69924423399451
 51
180.0
  0
ARC
  5
5843
  8
0
 10
133.43257981536269
 20
39.183682317012199
 30
0.0
 40
1.0
 50
105.2551187030581
 51
180.0
  0
ARC
  5
5844
  8
0
 10
127.707917827053
 20
36.335081949612693
 30
0.0
 40
1.0
 50
106.7351662700645
 51
180.0
  0
ARC
  5
5845
  8
0
 10
121.9571699792973
 20
33.465742589087768
 30
0.0
 40
1.0
 50
106.6992442339937
 51
180.0
  0
LINE
  5
5846
  8
0
 10
144.48176014323161
 20
44.537642092437643
 30
0.0
 11
139.4567073396324
 21
43.030126251358062
 31
0.0
  0
LINE
  5
5847
  8
0
 10
138.74405522519891
 20
41.668789633421277
 30
0.0
 11
133.16946240957071
 21
40.14844613824993
 31
0.0
  0
LINE
  5
5848
  8
0
 10
132.43257981536269
 20
38.799937174404931
 30
0.0
 11
132.43257981536269
 21
39.183682317012199
 31
0.0
  0
LINE
  5
5849
  8
0
 10
138.74405522519891
 20
41.668789633421277
 30
0.0
 11
138.74405522519891
 21
42.072299966136832
 31
0.0
  0
LINE
  5
584A
  8
0
 10
132.43257981536269
 20
38.799937174404931
 30
0.0
 11
127.41996948133691
 21
37.292727891597217
 31
0.0
  0
LINE
  5
584B
  8
0
 10
126.707917827053
 20
35.931084715388579
 30
0.0
 11
126.707917827053
 21
36.335081949612693
 31
0.0
  0
LINE
  5
584C
  8
0
 10
126.69487489733
 20
35.931084715388579
 30
0.0
 11
121.669822093731
 21
34.423568874308792
 31
0.0
  0
LINE
  5
584D
  8
0
 10
121.4571699792973
 20
27.258953567847581
 30
0.0
 11
120.9571699792973
 21
27.758953567847581
 31
0.0
  0
LINE
  5
584F
  8
0
 10
120.9571699792973
 20
27.758953567847581
 30
0.0
 11
120.9571699792973
 21
33.062232256372241
 31
0.0
  0
LINE
  5
5856
  8
0
 10
120.9571699792973
 20
33.062232256372241
 30
0.0
 11
120.9571699792973
 21
33.465742589087768
 31
0.0
  0
LINE
  5
5857
  8
0
 10
147.20307161864139
 20
46.258953567847577
 30
0.0
 11
164.71126833995319
 21
46.258953567847577
 31
0.0
  0
LINE
  5
5858
  8
0
 10
144.48176014323161
 20
44.537642092437643
 30
0.0
 11
167.43257981536291
 21
44.537642092437643
 31
0.0
  0
LINE
  5
5859
  8
0
 10
138.74405522519891
 20
41.668789633421277
 30
0.0
 11
173.17028473339559
 21
41.668789633421277
 31
0.0
  0
LINE
  5
585A
  8
0
 10
132.43257981536269
 20
38.799937174404931
 30
0.0
 11
179.48176014323181
 21
38.799937174404931
 31
0.0
  0
LINE
  5
585B
  8
0
 10
126.69487489733
 20
35.931084715388579
 30
0.0
 11
185.2194650612644
 21
35.931084715388593
 31
0.0
  0
LINE
  5
585C
  8
0
 10
121.4571699792973
 20
27.258953567847581
 30
0.0
 11
190.4571699792973
 21
27.258953567847581
 31
0.0
  0
LINE
  5
585D
  8
0
 10
120.9571699792973
 20
33.062232256372241
 30
0.0
 11
190.9571699792973
 21
33.062232256372241
 31
0.0
  0
LINE
  5
585E
  8
0
 10
145.49596483745481
 20
45.551846786660917
 30
0.0
 11
144.48176014323161
 21
44.537642092437643
 31
0.0
  0
LINE
  5
585F
  8
1
 10
88.957137220586205
 20
288.53925886461229
 30
0.0
 11
8.9571372205862172
 21
288.53925886461229
 31
0.0
  0
LINE
  5
5860
  8
1
 10
48.957137220586212
 20
328.53925886461218
 30
0.0
 11
48.957137220586212
 21
248.53925886461209
 31
0.0
  0
CIRCLE
  5
5861
  8
0
 10
48.957137220586212
 20
288.53925886461229
 30
0.0
 40
17.213114754098338
  0
CIRCLE
  5
5862
  8
0
 10
48.957137220586212
 20
288.53925886461212
 30
0.0
 40
23.52459016393459
  0
CIRCLE
  5
5863
  8
0
 10
48.957137220586212
 20
288.53925886461212
 30
0.0
 40
29.249252152244249
  0
CIRCLE
  5
5864
  8
0
 10
48.957137220586212
 20
288.53925886461229
 30
0.0
 40
35.00000000000005
  0
LINE
  5
5865
  8
0
 10
38.495932078743863
 20
45.551846786660917
 30
0.0
 11
37.481727384520582
 21
44.537642092437643
 31
0.0
  0
LINE
  5
5866
  8
0
 10
13.957137220586221
 20
33.062232256372241
 30
0.0
 11
83.957137220586205
 21
33.062232256372241
 31
0.0
  0
LINE
  5
5867
  8
0
 10
14.457137220586221
 20
27.258953567847581
 30
0.0
 11
83.457137220586219
 21
27.258953567847581
 31
0.0
  0
LINE
  5
5868
  8
0
 10
19.69484213861892
 20
35.931084715388579
 30
0.0
 11
78.219432302553486
 21
35.931084715388593
 31
0.0
  0
LINE
  5
5869
  8
0
 10
25.432547056651629
 20
38.799937174404931
 30
0.0
 11
72.481727384520823
 21
38.799937174404931
 31
0.0
  0
LINE
  5
586A
  8
0
 10
31.744022466487881
 20
41.668789633421277
 30
0.0
 11
66.170251974684575
 21
41.668789633421277
 31
0.0
  0
LINE
  5
586B
  8
0
 10
37.481727384520582
 20
44.537642092437643
 30
0.0
 11
60.432547056651842
 21
44.537642092437629
 31
0.0
  0
LINE
  5
586C
  8
0
 10
40.203038859930302
 20
46.258953567847577
 30
0.0
 11
57.711235581242107
 21
46.258953567847577
 31
0.0
  0
LINE
  5
586D
  8
0
 10
13.957137220586221
 20
33.062232256372241
 30
0.0
 11
13.957137220586221
 21
33.465742589087768
 31
0.0
  0
LINE
  5
5874
  8
0
 10
13.957137220586221
 20
27.758953567847581
 30
0.0
 11
13.957137220586221
 21
33.062232256372241
 31
0.0
  0
LINE
  5
5876
  8
0
 10
14.457137220586221
 20
27.258953567847581
 30
0.0
 11
13.957137220586221
 21
27.758953567847581
 31
0.0
  0
LINE
  5
5877
  8
0
 10
19.69484213861892
 20
35.931084715388579
 30
0.0
 11
14.66978933501991
 21
34.423568874308792
 31
0.0
  0
LINE
  5
5878
  8
0
 10
19.707885068341959
 20
35.931084715388579
 30
0.0
 11
19.707885068341959
 21
36.335081949612693
 31
0.0
  0
LINE
  5
5879
  8
0
 10
25.432547056651629
 20
38.799937174404931
 30
0.0
 11
20.419936722625831
 21
37.292727891597217
 31
0.0
  0
LINE
  5
587A
  8
0
 10
31.744022466487881
 20
41.668789633421277
 30
0.0
 11
31.744022466487881
 21
42.072299966136832
 31
0.0
  0
LINE
  5
587B
  8
0
 10
25.432547056651629
 20
38.799937174404931
 30
0.0
 11
25.432547056651629
 21
39.183682317012199
 31
0.0
  0
LINE
  5
587C
  8
0
 10
31.744022466487881
 20
41.668789633421277
 30
0.0
 11
26.16942965085968
 21
40.14844613824993
 31
0.0
  0
LINE
  5
587D
  8
0
 10
37.481727384520582
 20
44.537642092437643
 30
0.0
 11
32.456674580921337
 21
43.030126251358062
 31
0.0
  0
ARC
  5
587E
  8
0
 10
14.957137220586221
 20
33.465742589087768
 30
0.0
 40
1.0
 50
106.6992442339936
 51
180.0
  0
ARC
  5
587F
  8
0
 10
20.70788506834197
 20
36.335081949612693
 30
0.0
 40
1.0
 50
106.7351662700647
 51
180.0
  0
ARC
  5
5880
  8
0
 10
26.432547056651629
 20
39.183682317012199
 30
0.0
 40
1.0
 50
105.2551187030578
 51
180.0
  0
ARC
  5
5881
  8
0
 10
32.744022466487877
 20
42.072299966136832
 30
0.0
 40
1.0
 50
106.69924423399409
 51
180.0
  0
LINE
  5
5882
  8
0
 10
38.495932078743863
 20
45.551846786660917
 30
0.0
 11
40.203038859930302
 21
46.258953567847577
 31
0.0
  0
LINE
  5
5885
  8
0
 10
59.418342362428582
 20
45.551846786660917
 30
0.0
 11
57.711235581242128
 21
46.258953567847577
 31
0.0
  0
ARC
  5
5886
  8
0
 10
65.170251974684561
 20
42.072299966136832
 30
0.0
 40
1.0
 50
0.0
 51
73.300755766006262
  0
ARC
  5
5887
  8
0
 10
71.481727384520823
 20
39.183682317012199
 30
0.0
 40
1.0
 50
0.0
 51
74.744881296941827
  0
ARC
  5
5888
  8
0
 10
77.206389372830444
 20
36.335081949612693
 30
0.0
 40
1.0
 50
0.0
 51
73.264833729935503
  0
ARC
  5
5889
  8
0
 10
82.957137220586205
 20
33.465742589087768
 30
0.0
 40
1.0
 50
0.0
 51
73.300755766006262
  0
LINE
  5
588A
  8
0
 10
60.432547056651849
 20
44.537642092437643
 30
0.0
 11
65.457599860251094
 21
43.030126251358062
 31
0.0
  0
LINE
  5
588B
  8
0
 10
66.170251974684561
 20
41.668789633421277
 30
0.0
 11
71.744844790312754
 21
40.14844613824993
 31
0.0
  0
LINE
  5
588C
  8
0
 10
72.481727384520823
 20
38.799937174404931
 30
0.0
 11
72.481727384520823
 21
39.183682317012199
 31
0.0
  0
LINE
  5
588D
  8
0
 10
66.170251974684561
 20
41.668789633421277
 30
0.0
 11
66.170251974684561
 21
42.072299966136832
 31
0.0
  0
LINE
  5
588E
  8
0
 10
72.481727384520823
 20
38.799937174404931
 30
0.0
 11
77.494337718546589
 21
37.292727891597217
 31
0.0
  0
LINE
  5
588F
  8
0
 10
78.206389372830458
 20
35.931084715388579
 30
0.0
 11
78.206389372830458
 21
36.335081949612693
 31
0.0
  0
LINE
  5
5890
  8
0
 10
78.219432302553486
 20
35.931084715388579
 30
0.0
 11
83.24448510615251
 21
34.423568874308792
 31
0.0
  0
LINE
  5
5891
  8
0
 10
83.457137220586219
 20
27.258953567847581
 30
0.0
 11
83.957137220586205
 21
27.758953567847581
 31
0.0
  0
LINE
  5
5893
  8
0
 10
83.957137220586205
 20
27.758953567847581
 30
0.0
 11
83.957137220586205
 21
33.062232256372241
 31
0.0
  0
LINE
  5
589A
  8
0
 10
83.957137220586205
 20
33.062232256372241
 30
0.0
 11
83.957137220586205
 21
33.465742589087768
 31
0.0
  0
LINE
  5
58A2
  8
0
 10
59.418342362428582
 20
45.551846786660917
 30
0.0
 11
60.432547056651849
 21
44.537642092437643
 31
0.0
  0
LINE
  5
58B2
  8
0
 10
55.885340450861577
 20
300.53925886461229
 30
0.0
 11
42.028933990310627
 21
300.53925886461229
 31
0.0
  0
LINE
  5
58B3
  8
0
 10
42.028933990310627
 20
300.53925886461229
 30
0.0
 11
35.100730760035063
 21
288.53925886461229
 31
0.0
  0
LINE
  5
58B4
  8
0
 10
35.100730760035063
 20
288.53925886461229
 30
0.0
 11
42.028933990310627
 21
276.53925886461229
 31
0.0
  0
LINE
  5
58B5
  8
0
 10
42.028933990310627
 20
276.53925886461229
 30
0.0
 11
55.885340450861577
 21
276.53925886461229
 31
0.0
  0
LINE
  5
58B6
  8
0
 10
55.885340450861577
 20
276.53925886461229
 30
0.0
 11
62.813543681137148
 21
288.53925886461229
 31
0.0
  0
LINE
  5
58B7
  8
0
 10
62.813543681137148
 20
288.53925886461229
 30
0.0
 11
55.885340450861577
 21
300.53925886461229
 31
0.0
  0
CIRCLE
  5
58B8
  8
0
 10
48.957137220586212
 20
288.53925886461229
 30
0.0
 40
11.5
  0
CIRCLE
  5
58B9
  8
0
 10
48.957137220586212
 20
288.53925886461229
 30
0.0
 40
8.0
  0
CIRCLE
  5
58BA
  8
3
 10
48.957137220586212
 20
288.53925886461229
 30
0.0
 40
6.9175000000000004
  0
LINE
  5
58BB
  8
0
 10
43.45713722058553
 20
46.258953567847577
 30
0.0
 11
43.45713722058553
 21
49.258953567847357
 31
0.0
  0
LINE
  5
58BC
  8
0
 10
54.457137220585523
 20
46.258953567847577
 30
0.0
 11
54.457137220585523
 21
49.258953567847357
 31
0.0
  0
ARC
  5
58BD
  8
0
 10
48.957137220585992
 20
71.830750339642776
 30
0.0
 40
22.928203228139491
 50
72.412046224314153
 51
107.5879537756858
  0
ARC
  5
58BE
  8
0
 10
38.5648323751725
 20
88.62497897206147
 30
0.0
 40
6.1339745957208196
 50
55.615752528788647
 51
115.6157525301451
  0
LINE
  5
58BF
  8
0
 10
35.100730760013001
 20
93.687156797953179
 30
0.0
 11
37.457137220693767
 21
95.047628702347396
 31
0.0
  0
LINE
  5
58C0
  8
0
 10
35.100730760013001
 20
83.408100606806784
 30
0.0
 11
37.457137220693767
 21
82.047628702412567
 31
0.0
  0
ARC
  5
58C1
  8
0
 10
38.5648323751725
 20
88.470278432698265
 30
0.0
 40
6.1339745957208196
 50
244.38424746985481
 51
304.38424747121132
  0
ARC
  5
58C2
  8
0
 10
48.957137220585992
 20
105.2645070651169
 30
0.0
 40
22.928203228139491
 50
252.41204622431411
 51
287.58795377568589
  0
LINE
  5
58C3
  8
0
 10
35.100730760034821
 20
93.687156797953179
 30
0.0
 11
35.100730760034821
 21
83.408100606794036
 31
0.0
  0
LINE
  5
58C4
  8
0
 10
42.028933990310627
 20
93.687156797953179
 30
0.0
 11
42.028933990310627
 21
83.408100606806784
 31
0.0
  0
LINE
  5
58C5
  8
0
 10
55.885340450861342
 20
93.687156797953179
 30
0.0
 11
55.885340450861342
 21
83.408100606806784
 31
0.0
  0
LINE
  5
58C6
  8
0
 10
62.813543681137148
 20
93.687156797953179
 30
0.0
 11
62.813543681137148
 21
83.408100606794036
 31
0.0
  0
ARC
  5
58C7
  8
0
 10
59.349442065999469
 20
88.470278432698265
 30
0.0
 40
6.1339745957208196
 50
235.6157525287887
 51
295.61575253014507
  0
LINE
  5
58C8
  8
0
 10
62.813543681158983
 20
83.408100606806784
 30
0.0
 11
60.457137220478209
 21
82.047628702412567
 31
0.0
  0
LINE
  5
58C9
  8
0
 10
62.813543681158983
 20
93.687156797953179
 30
0.0
 11
60.457137220478209
 21
95.047628702347396
 31
0.0
  0
ARC
  5
58CA
  8
0
 10
59.349442065999469
 20
88.62497897206147
 30
0.0
 40
6.1339745957208196
 50
64.384247469854927
 51
124.3842474712113
  0
LINE
  5
58CB
  8
0
 10
37.457137220585992
 20
95.047628702347396
 30
0.0
 11
60.457137220478209
 21
95.047628702347396
 31
0.0
  0
LINE
  5
58CC
  8
0
 10
60.457137220478209
 20
82.047628702412567
 30
0.0
 11
37.457137220693767
 21
82.047628702412567
 31
0.0
  0
LINE
  5
58CD
  8
3
 10
55.874637220586237
 20
57.25895356784757
 30
0.0
 11
56.957137220586212
 21
55.384008568654281
 31
0.0
  0
LINE
  5
58CE
  8
3
 10
42.039637220586187
 20
57.25895356784757
 30
0.0
 11
40.957137220586212
 21
55.384008568654281
 31
0.0
  0
LINE
  5
58CF
  8
0
 10
40.957137220586212
 20
57.25895356784757
 30
0.0
 11
56.957137220586212
 21
57.25895356784757
 31
0.0
  0
LINE
  5
58D0
  8
0
 10
56.957137220586212
 20
221.25895356784761
 30
0.0
 11
40.957137220586212
 21
221.25895356784761
 31
0.0
  0
LINE
  5
58D1
  8
0
 10
54.957137220586212
 20
223.25895356784761
 30
0.0
 11
56.957137220586212
 21
221.25895356784761
 31
0.0
  0
LINE
  5
58D2
  8
0
 10
40.957137220586212
 20
221.25895356784761
 30
0.0
 11
42.957137220586212
 21
223.25895356784761
 31
0.0
  0
LINE
  5
58D3
  8
0
 10
40.957137220586212
 20
55.123106445684932
 30
0.0
 11
40.957137220586212
 21
82.047628702412567
 31
0.0
  0
LINE
  5
58D4
  8
3
 10
42.039637220586187
 20
57.25895356784757
 30
0.0
 11
42.039637220586187
 21
82.047628702412354
 31
0.0
  0
LINE
  5
58D5
  8
3
 10
55.874637220586237
 20
57.25895356784757
 30
0.0
 11
55.874637220586237
 21
82.047628702412354
 31
0.0
  0
LINE
  5
58D6
  8
0
 10
56.957137220586212
 20
55.123106445684243
 30
0.0
 11
56.957137220586212
 21
82.047628702412354
 31
0.0
  0
LINE
  5
58D7
  8
0
 10
42.957137220586212
 20
223.25895356784761
 30
0.0
 11
54.957137220586212
 21
223.25895356784761
 31
0.0
  0
ARC
  5
58D8
  8
0
 10
52.95713722058575
 20
43.569688433057308
 30
0.0
 40
11.55341801262729
 50
69.743841999608435
 51
110.25615800039159
  0
LINE
  5
58D9
  8
0
 10
56.957137220585757
 20
55.123106445684691
 30
0.0
 11
56.721843102937527
 21
55.258953567847357
 31
0.0
  0
LINE
  5
58DA
  8
0
 10
56.957137220585757
 20
49.394800690009561
 30
0.0
 11
56.721843102937527
 21
49.258953567846682
 31
0.0
  0
ARC
  5
58DB
  8
0
 10
52.95713722058575
 20
60.948218702636957
 30
0.0
 40
11.55341801262729
 50
249.74384199960841
 51
290.25615800039151
  0
LINE
  5
58DC
  8
0
 10
56.957137220585757
 20
55.123106445684691
 30
0.0
 11
56.957137220585757
 21
49.394800690009561
 31
0.0
  0
LINE
  5
58DE
  8
0
 10
40.95713722058575
 20
55.123106445684691
 30
0.0
 11
40.95713722058575
 21
49.394800690009561
 31
0.0
  0
LINE
  5
58DF
  8
0
 10
40.95713722058575
 20
49.394800690009561
 30
0.0
 11
41.192431338233732
 21
49.258953567846682
 31
0.0
  0
ARC
  5
58E0
  8
0
 10
44.95713722058575
 20
60.948218702636957
 30
0.0
 40
11.55341801262729
 50
249.74384199960841
 51
290.25615800039151
  0
LINE
  5
58E1
  8
0
 10
40.95713722058575
 20
55.123106445684691
 30
0.0
 11
41.192431338233732
 21
55.258953567847357
 31
0.0
  0
ARC
  5
58E2
  8
0
 10
44.95713722058575
 20
43.569688433057308
 30
0.0
 40
11.55341801262729
 50
69.743841999608435
 51
110.25615800039159
  0
LINE
  5
58E3
  8
0
 10
56.721843102937527
 20
55.258953567847357
 30
0.0
 11
41.192431338233732
 21
55.258953567847357
 31
0.0
  0
LINE
  5
58E4
  8
0
 10
41.192431338232602
 20
49.258953567847357
 30
0.0
 11
56.721843102938692
 21
49.258953567847357
 31
0.0
  0
LINE
  5
58E5
  8
3
 10
55.874637220586237
 20
95.047628702347396
 30
0.0
 11
55.874637220586237
 21
222.34145356784759
 31
0.0
  0
LINE
  5
58E6
  8
0
 10
56.957137220586212
 20
95.047628702347396
 30
0.0
 11
56.957137220586212
 21
221.25895356784761
 31
0.0
  0
LINE
  5
58E7
  8
3
 10
42.039637220586187
 20
95.047628702347396
 30
0.0
 11
42.039637220586187
 21
222.34145356784759
 31
0.0
  0
LINE
  5
58E8
  8
0
 10
40.957137220586212
 20
95.047628702347396
 30
0.0
 11
40.957137220586212
 21
221.25895356784761
 31
0.0
  0
LINE
  5
58E9
  8
1
 10
48.957137220586212
 20
22.258953567847581
 30
0.0
 11
48.957137220586212
 21
228.25895356784761
 31
0.0
  0
LINE
  5
58EA
  8
0
 10
161.4571699792977
 20
46.258953567847357
 30
0.0
 11
161.4571699792977
 21
49.258953567847129
 31
0.0
  0
LINE
  5
58EB
  8
0
 10
150.4571699792977
 20
46.258953567847357
 30
0.0
 11
150.4571699792977
 21
49.258953567847129
 31
0.0
  0
ARC
  5
58EC
  8
0
 10
161.9571699792975
 20
77.428826550481659
 30
0.0
 40
17.330127017333279
 50
69.743841997642903
 51
110.256158002357
  0
LINE
  5
58ED
  8
0
 10
167.95716997931251
 20
94.758953567814984
 30
0.0
 11
167.4571699792975
 21
95.047628702418379
 31
0.0
  0
LINE
  5
58EE
  8
0
 10
167.95716997931251
 20
82.336303837010107
 30
0.0
 11
167.4571699792975
 21
82.047628702406683
 31
0.0
  0
ARC
  5
58EF
  8
0
 10
161.9571699792975
 20
99.666430854343432
 30
0.0
 40
17.330127017333279
 50
249.7438419976429
 51
290.25615800235693
  0
LINE
  5
58F0
  8
0
 10
167.95716997931251
 20
94.758953567814984
 30
0.0
 11
167.9571699792975
 21
82.336303837001466
 31
0.0
  0
LINE
  5
58F2
  8
0
 10
143.9571699792825
 20
94.758953567814984
 30
0.0
 11
143.9571699792975
 21
82.336303837001466
 31
0.0
  0
ARC
  5
58F3
  8
0
 10
149.9571699792975
 20
99.666430854343432
 30
0.0
 40
17.330127017333279
 50
249.7438419976429
 51
290.25615800235693
  0
LINE
  5
58F4
  8
0
 10
143.9571699792825
 20
82.336303837010107
 30
0.0
 11
144.4571699792975
 21
82.047628702406683
 31
0.0
  0
LINE
  5
58F5
  8
0
 10
143.9571699792825
 20
94.758953567814984
 30
0.0
 11
144.4571699792975
 21
95.047628702418379
 31
0.0
  0
ARC
  5
58F6
  8
0
 10
149.9571699792975
 20
77.428826550481659
 30
0.0
 40
17.330127017333279
 50
69.743841997642903
 51
110.256158002357
  0
LINE
  5
58F7
  8
0
 10
144.45716997923111
 20
95.047628702379967
 30
0.0
 11
167.4571699792975
 21
95.047628702418379
 31
0.0
  0
LINE
  5
58F8
  8
0
 10
167.4571699792975
 20
82.047628702406683
 30
0.0
 11
144.45716997923111
 21
82.047628702445124
 31
0.0
  0
ARC
  5
58F9
  8
0
 10
149.02896674902181
 20
51.033790048203628
 30
0.0
 40
4.0893163974808306
 50
55.615752531995142
 51
115.61575253211289
  0
ARC
  5
58FA
  8
0
 10
155.95716997929671
 20
39.837637625480511
 30
0.0
 40
15.28546882020385
 50
72.412046226030085
 51
107.5879537739699
  0
LINE
  5
58FB
  8
0
 10
146.71956567226351
 20
54.40857526586889
 30
0.0
 11
148.19246409694441
 21
55.258953567847577
 31
0.0
  0
LINE
  5
58FC
  8
0
 10
146.71956567226351
 20
50.10933186982583
 30
0.0
 11
148.19246409694441
 21
49.258953567847129
 31
0.0
  0
ARC
  5
58FD
  8
0
 10
149.02896674902181
 20
53.484117087491072
 30
0.0
 40
4.0893163974808306
 50
244.38424746788701
 51
304.38424746800479
  0
ARC
  5
58FE
  8
0
 10
155.95716997929671
 20
64.680269510213975
 30
0.0
 40
15.28546882020385
 50
252.4120462260301
 51
287.58795377396979
  0
LINE
  5
58FF
  8
0
 10
146.71956567226351
 20
54.40857526586889
 30
0.0
 11
146.71956567226351
 21
50.10933186982583
 31
0.0
  0
LINE
  5
5900
  8
0
 10
151.3383678257793
 20
54.40857526586889
 30
0.0
 11
151.33836782578001
 21
50.109331869825368
 31
0.0
  0
LINE
  5
5901
  8
0
 10
160.57597213281531
 20
54.40857526586889
 30
0.0
 11
160.5759721328146
 21
50.109331869825368
 31
0.0
  0
LINE
  5
5902
  8
0
 10
165.19477428633121
 20
54.40857526586889
 30
0.0
 11
165.19477428633121
 21
50.10933186982583
 31
0.0
  0
ARC
  5
5903
  8
0
 10
162.8853732095728
 20
53.484117087491072
 30
0.0
 40
4.0893163974808306
 50
235.61575253199521
 51
295.61575253211288
  0
LINE
  5
5904
  8
0
 10
165.19477428633121
 20
50.10933186982583
 30
0.0
 11
163.72187586165029
 21
49.258953567847129
 31
0.0
  0
LINE
  5
5905
  8
0
 10
165.19477428633121
 20
54.40857526586889
 30
0.0
 11
163.72187586165029
 21
55.258953567847577
 31
0.0
  0
ARC
  5
5906
  8
0
 10
162.8853732095728
 20
51.033790048203628
 30
0.0
 40
4.0893163974808306
 50
64.384247467887079
 51
124.3842474680048
  0
LINE
  5
5907
  8
0
 10
148.19246409694441
 20
55.258953567847577
 30
0.0
 11
163.7218758616506
 21
55.258953567847129
 31
0.0
  0
LINE
  5
5908
  8
0
 10
163.7218758616506
 20
49.258953567847357
 30
0.0
 11
148.19246409694401
 21
49.258953567847357
 31
0.0
  0
LINE
  5
5909
  8
0
 10
149.9571699792975
 20
223.2589535678473
 30
0.0
 11
161.9571699792975
 21
223.2589535678471
 31
0.0
  0
LINE
  5
590A
  8
0
 10
163.9571699792975
 20
55.123106445684243
 30
0.0
 11
163.9571699792975
 21
82.04762870241241
 31
0.0
  0
LINE
  5
590B
  8
3
 10
162.87466997929741
 20
57.25895356784735
 30
0.0
 11
162.87466997929741
 21
82.047628702414428
 31
0.0
  0
LINE
  5
590C
  8
0
 10
161.9571699792975
 20
223.2589535678471
 30
0.0
 11
163.9571699792975
 21
221.2589535678471
 31
0.0
  0
LINE
  5
590D
  8
0
 10
163.9571699792975
 20
221.2589535678471
 30
0.0
 11
147.9571699792975
 21
221.2589535678473
 31
0.0
  0
LINE
  5
590E
  8
0
 10
147.9571699792975
 20
57.25895356784735
 30
0.0
 11
163.9571699792975
 21
57.25895356784735
 31
0.0
  0
LINE
  5
590F
  8
3
 10
162.87466997929741
 20
57.25895356784735
 30
0.0
 11
163.9571699792975
 21
55.384008568654053
 31
0.0
  0
LINE
  5
5910
  8
3
 10
149.03966997929751
 20
57.25895356784735
 30
0.0
 11
149.03966997929751
 21
82.047628702437379
 31
0.0
  0
LINE
  5
5911
  8
0
 10
147.9571699792975
 20
55.123106445684691
 30
0.0
 11
147.9571699792975
 21
82.047628702439226
 31
0.0
  0
LINE
  5
5912
  8
0
 10
147.9571699792975
 20
221.25895356784761
 30
0.0
 11
149.9571699792975
 21
223.2589535678473
 31
0.0
  0
LINE
  5
5913
  8
3
 10
149.03966997929751
 20
57.25895356784735
 30
0.0
 11
147.9571699792975
 21
55.384008568654053
 31
0.0
  0
LINE
  5
5914
  8
3
 10
149.03966997929751
 20
95.047628702387684
 30
0.0
 11
149.03966997929751
 21
222.34145356784731
 31
0.0
  0
LINE
  5
5915
  8
0
 10
147.9571699792975
 20
95.047628702385893
 30
0.0
 11
147.9571699792975
 21
221.25895356784761
 31
0.0
  0
LINE
  5
5916
  8
0
 10
163.9571699792975
 20
95.047628702412695
 30
0.0
 11
163.9571699792975
 21
221.2589535678471
 31
0.0
  0
LINE
  5
5917
  8
3
 10
162.87466997929741
 20
95.04762870241089
 30
0.0
 11
162.87466997929741
 21
222.34145356784711
 31
0.0
  0
LINE
  5
5918
  8
1
 10
155.95716997929719
 20
22.258953567847581
 30
0.0
 11
155.9571699792981
 21
228.25895356784741
 31
0.0
  0
LINE
  5
5B15
  8
0
 10
48.957137220586212
 20
54.408575265868897
 30
0.0
 11
48.957137220586212
 21
50.109331869824999
 31
0.0
  0
LINE
  5
5B16
  8
0
 10
155.9571699792981
 20
93.68715679798548
 30
0.0
 11
155.9571699792981
 21
83.408100606839625
 31
0.0
  0
TEXT
  5
5C6D
  8
0
 62
     3
 10
0.0
 20
0.0
 30
0.0
 40
10.0
  1
LVA70S16D-SUS
  7
STANDARD1
  0
ENDSEC
  0
EOF
