  0
SECTION
  2
HEADER
  9
$ACADVER
  1
AC1009
  9
$INSBASE
 10
0.0
 20
0.0
 30
0.0
  9
$EXTMIN
 10
0.0
 20
-2.960436562073669
 30
0.0
  9
$EXTMAX
 10
237.4410587857474
 20
336.92583602629929
 30
0.0
  9
$LIMMIN
 10
0.0
 20
0.0
  9
$LIMMAX
 10
375.0
 20
270.0
  9
$ORTHOMODE
 70
     1
  9
$REGENMODE
 70
     1
  9
$FILLMODE
 70
     1
  9
$QTEXTMODE
 70
     0
  9
$MIRRTEXT
 70
     0
  9
$DRAGMODE
 70
     2
  9
$LTSCALE
 40
6.0
  9
$OSMODE
 70
  3071
  9
$ATTMODE
 70
     1
  9
$TEXTSIZE
 40
0.2
  9
$TRACEWID
 40
0.05
  9
$TEXTSTYLE
  7
STANDARD
  9
$CLAYER
  8
0
  9
$CELTYPE
  6
BYLAYER
  9
$CECOLOR
 62
   256
  9
$DIMSCALE
 40
1.0
  9
$DIMASZ
 40
3.0
  9
$DIMEXO
 40
1.0
  9
$DIMDLI
 40
6.0
  9
$DIMRND
 40
0.0
  9
$DIMDLE
 40
0.0
  9
$DIMEXE
 40
1.0
  9
$DIMTP
 40
495.0
  9
$DIMTM
 40
0.0
  9
$DIMTXT
 40
3.0
  9
$DIMCEN
 40
0.0
  9
$DIMTSZ
 40
0.0
  9
$DIMTOL
 70
     0
  9
$DIMLIM
 70
     0
  9
$DIMTIH
 70
     0
  9
$DIMTOH
 70
     0
  9
$DIMSE1
 70
     0
  9
$DIMSE2
 70
     0
  9
$DIMTAD
 70
     1
  9
$DIMZIN
 70
     0
  9
$DIMBLK
  1

  9
$DIMASO
 70
     0
  9
$DIMSHO
 70
     0
  9
$DIMPOST
  1

  9
$DIMAPOST
  1

  9
$DIMALT
 70
     0
  9
$DIMALTD
 70
     2
  9
$DIMALTF
 40
25.399999999999999
  9
$DIMLFAC
 40
1.0
  9
$DIMTOFL
 70
     1
  9
$DIMTVP
 40
0.0
  9
$DIMTIX
 70
     1
  9
$DIMSOXD
 70
     0
  9
$DIMSAH
 70
     0
  9
$DIMBLK1
  1

  9
$DIMBLK2
  1

  9
$DIMSTYLE
  2
STANDARD
  9
$DIMCLRD
 70
     0
  9
$DIMCLRE
 70
     0
  9
$DIMCLRT
 70
     4
  9
$DIMTFAC
 40
1.0
  9
$DIMGAP
 40
1.0
  9
$LUNITS
 70
     2
  9
$LUPREC
 70
     4
  9
$SKETCHINC
 40
0.1
  9
$FILLETRAD
 40
2.0
  9
$AUNITS
 70
     0
  9
$AUPREC
 70
     0
  9
$MENU
  1
C:\R13\WIN\SUPPORT\ACAD-I
  9
$ELEVATION
 40
0.0
  9
$PELEVATION
 40
0.0
  9
$THICKNESS
 40
0.0
  9
$LIMCHECK
 70
     0
  9
$BLIPMODE
 70
     0
  9
$CHAMFERA
 40
0.0
  9
$CHAMFERB
 40
0.0
  9
$SKPOLY
 70
     0
  9
$TDCREATE
 40
2451962.461348183
  9
$TDUPDATE
 40
2456597.6132454518
  9
$TDINDWG
 40
0.0163092014
  9
$TDUSRTIMER
 40
2456556.181749919
  9
$USRTIMER
 70
     1
  9
$ANGBASE
 50
0.0
  9
$ANGDIR
 70
     0
  9
$PDMODE
 70
     0
  9
$PDSIZE
 40
0.0
  9
$PLINEWID
 40
0.0
  9
$COORDS
 70
     1
  9
$SPLFRAME
 70
     0
  9
$SPLINETYPE
 70
     6
  9
$SPLINESEGS
 70
     8
  9
$ATTDIA
 70
     0
  9
$ATTREQ
 70
     1
  9
$HANDLING
 70
     1
  9
$HANDSEED
  5
5E47
  9
$SURFTAB1
 70
     6
  9
$SURFTAB2
 70
     6
  9
$SURFTYPE
 70
     6
  9
$SURFU
 70
     6
  9
$SURFV
 70
     6
  9
$UCSNAME
  2

  9
$UCSORG
 10
0.0
 20
0.0
 30
0.0
  9
$UCSXDIR
 10
1.0
 20
0.0
 30
0.0
  9
$UCSYDIR
 10
0.0
 20
1.0
 30
0.0
  9
$PUCSNAME
  2

  9
$PUCSORG
 10
0.0
 20
0.0
 30
0.0
  9
$PUCSXDIR
 10
1.0
 20
0.0
 30
0.0
  9
$PUCSYDIR
 10
0.0
 20
1.0
 30
0.0
  9
$USERI1
 70
     4
  9
$USERI2
 70
     1
  9
$USERI3
 70
     0
  9
$USERI4
 70
     0
  9
$USERI5
 70
     0
  9
$USERR1
 40
1.0
  9
$USERR2
 40
3.0
  9
$USERR3
 40
3.0
  9
$USERR4
 40
3.0
  9
$USERR5
 40
10.0
  9
$WORLDVIEW
 70
     1
  9
$SHADEDGE
 70
     3
  9
$SHADEDIF
 70
    70
  9
$TILEMODE
 70
     1
  9
$MAXACTVP
 70
    16
  9
$PLIMCHECK
 70
     0
  9
$PEXTMIN
 10
1.0000000000000000E+020
 20
1.0000000000000000E+020
 30
1.0000000000000000E+020
  9
$PEXTMAX
 10
-1.0000000000000000E+020
 20
-1.0000000000000000E+020
 30
-1.0000000000000000E+020
  9
$PLIMMIN
 10
0.0
 20
0.0
  9
$PLIMMAX
 10
12.0
 20
9.0
  9
$UNITMODE
 70
     0
  9
$VISRETAIN
 70
     0
  9
$PLINEGEN
 70
     0
  9
$PSLTSCALE
 70
     0
  0
ENDSEC
  0
SECTION
  2
TABLES
  0
TABLE
  2
VPORT
 70
     1
  0
VPORT
  2
*ACTIVE
 70
     0
 10
0.0
 20
0.0
 11
1.0
 21
1.0
 12
187.49427839065231
 22
167.72068106143121
 13
0.0
 23
0.0
 14
10.0
 24
10.0
 15
10.0
 25
10.0
 16
0.0
 26
0.0
 36
1.0
 17
0.0
 27
0.0
 37
0.0
 40
345.281092717256
 41
2.304913294797688
 42
50.0
 43
0.0
 44
0.0
 50
0.0
 51
0.0
 71
    16
 72
   100
 73
     1
 74
     0
 75
     0
 76
     0
 77
     0
 78
     0
  0
ENDTAB
  0
TABLE
  2
LTYPE
 70
     3
  0
LTYPE
  2
CONTINUOUS
 70
     0
  3
Solid Line
 72
    65
 73
     0
 40
0.0
  0
LTYPE
  2
PHANTOM2
 70
     0
  3
___ _ _ ___ _ _ ___ _ _ ___ _ _
 72
    65
 73
     6
 40
1.25
 49
0.625
 49
-0.125
 49
0.125
 49
-0.125
 49
0.125
 49
-0.125
  0
LTYPE
  2
CENTER
 70
     0
  3
____ _ ____ _ ____ _ ____ _ ____ _ ____ _ ____
 72
    65
 73
     4
 40
2.0
 49
1.25
 49
-0.25
 49
0.25
 49
-0.25
  0
ENDTAB
  0
TABLE
  2
LAYER
 70
     3
  0
LAYER
  2
0
 70
     0
 62
     7
  6
CONTINUOUS
  0
LAYER
  2
1
 70
     0
 62
     1
  6
CENTER
  0
LAYER
  2
3
 70
     0
 62
     3
  6
CONTINUOUS
  0
ENDTAB
  0
TABLE
  2
STYLE
 70
     3
  0
STYLE
  2
STANDARD
 70
     0
 40
0.0
 41
1.0
 50
0.0
 71
     0
 42
0.2
  3
SIMPLEX
  4
BIGFONT
  0
STYLE
  2
ANNOTATIVE
 70
     0
 40
0.0
 41
1.0
 50
0.0
 71
     0
 42
0.2
  3
txt
  4

  0
STYLE
  2
STANDARD1
 70
     0
 40
0.0
 41
1.0
 50
0.0
 71
     0
 42
3.0
  3
txt
  4

  0
ENDTAB
  0
TABLE
  2
VIEW
 70
     0
  0
ENDTAB
  0
TABLE
  2
UCS
 70
     0
  0
ENDTAB
  0
TABLE
  2
APPID
 70
    29
  0
APPID
  2
ACAD
 70
     0
  0
APPID
  2
ACADANNOTATIVE
 70
     0
  0
APPID
  2
GENIUS_GENOREF_13
 70
     0
  0
APPID
  2
GENIUS_GENOENT_13
 70
     0
  0
APPID
  2
GENIUS_GENBH_13
 70
     0
  0
APPID
  2
GENIUS_GENOBJ_13
 70
     0
  0
APPID
  2
GENIUS_GENODEF_13
 70
     0
  0
APPID
  2
GENIUS_GENOLIS_13
 70
     0
  0
APPID
  2
GENIUS_GENOBJ-NBEHI-BHF_13
 70
     0
  0
APPID
  2
GENIUS_GENOBJ-NBEHI-BHB_13
 70
     0
  0
APPID
  2
GENIUS_GENOBJ-F-PART_13
 70
     0
  0
APPID
  2
GENIUS_GEFSTDP_13
 70
     0
  0
APPID
  2
GENIUS_GENOBJ-N-RSSYM_13
 70
     0
  0
APPID
  2
GENIUS_GENSYMENT_13
 70
     0
  0
APPID
  2
GENIUS_GENOBJ-N-TIT_13
 70
     0
  0
APPID
  2
GENIUS_GENTITLE_13
 70
     0
  0
APPID
  2
GENIUS_GENZVEED_13
 70
     0
  0
APPID
  2
GENIUS_GENOBJ-N-LEADER_13
 70
     0
  0
APPID
  2
GENIUS_GENOBJ-N-FIL_13
 70
     0
  0
APPID
  2
GENIUS_GENOBJ-N-SEC_13
 70
     0
  0
APPID
  2
GENIUS_GENOBJ-N-CRS_13
 70
     0
  0
APPID
  2
GENIUS_GENOBJ-N-ZOO_13
 70
     0
  0
APPID
  2
GENIUS_GENZOO_13
 70
     0
  0
APPID
  2
GENIUS_GENOBJ-F-TOL_13
 70
     0
  0
APPID
  2
GENIUS_GENFIL_13
 70
     0
  0
APPID
  2
GENIUS_GENOBJ-N-CHA_13
 70
     0
  0
APPID
  2
ACAD_EXEMPT_FROM_CAD_STANDARDS
 70
     0
  0
APPID
  2
ACAD_MLEADERVER
 70
     0
  0
APPID
  2
ACAD_NAV_VCDISPLAY
 70
     0
  0
ENDTAB
  0
TABLE
  2
DIMSTYLE
 70
     2
  0
DIMSTYLE
  2
STANDARD
 70
     0
  3

  4

  5

  6

  7

 40
1.0
 41
0.18
 42
0.0625
 43
0.38
 44
0.18
 45
0.0
 46
0.0
 47
0.0
 48
0.0
140
0.18
141
0.09
142
0.0
143
25.399999999999999
144
1.0
145
0.0
146
1.0
147
0.09
 71
     0
 72
     0
 73
     1
 74
     1
 75
     0
 76
     0
 77
     0
 78
     0
170
     0
171
     2
172
     0
173
     0
174
     0
175
     0
176
     0
177
     0
178
     0
  0
DIMSTYLE
  2
ANNOTATIVE
 70
     0
  3

  4

  5

  6

  7

 40
1.0
 41
0.18
 42
0.0625
 43
0.38
 44
0.18
 45
0.0
 46
0.0
 47
0.0
 48
0.0
140
0.18
141
0.09
142
0.0
143
25.399999999999999
144
1.0
145
0.0
146
1.0
147
0.09
 71
     0
 72
     0
 73
     1
 74
     1
 75
     0
 76
     0
 77
     0
 78
     0
170
     0
171
     2
172
     0
173
     0
174
     0
175
     0
176
     0
177
     0
178
     0
  0
ENDTAB
  0
ENDSEC
  0
SECTION
  2
BLOCKS
  0
BLOCK
  8
0
  2
$MODEL_SPACE
 70
     0
 10
0.0
 20
0.0
 30
0.0
  3
$MODEL_SPACE
  1

  0
ENDBLK
  5
5D6A
  8
0
  0
BLOCK
 67
     1
  8
0
  2
$PAPER_SPACE
 70
     0
 10
0.0
 20
0.0
 30
0.0
  3
$PAPER_SPACE
  1

  0
ENDBLK
  5
5D66
 67
     1
  8
0
  0
ENDSEC
  0
SECTION
  2
ENTITIES
  0
LINE
  5
59FC
  8
0
 10
115.1632718825617
 20
38.528659185312101
 30
0.0
 11
35.16327188256173
 21
38.528659185312101
 31
0.0
  0
LINE
  5
59FD
  8
0
 10
115.1632718825617
 20
38.528659185312101
 30
0.0
 11
115.1632718825617
 21
47.373363853601639
 31
0.0
  0
CIRCLE
  5
59FF
  8
0
 10
75.16327188256173
 20
291.21155031201351
 30
0.0
 40
40.00000000000005
  0
LINE
  5
5A00
  8
1
 10
75.16327188256173
 20
336.92583602629929
 30
0.0
 11
75.16327188256173
 21
245.49726459772779
 31
0.0
  0
LINE
  5
5A01
  8
1
 10
120.8775575968475
 20
291.21155031201351
 30
0.0
 11
29.448986168275951
 21
291.21155031201351
 31
0.0
  0
LINE
  5
5A02
  8
0
 10
108.6632718825617
 20
50.560162951846678
 30
0.0
 11
41.663271882561723
 21
50.560162951846678
 31
0.0
  0
LINE
  5
5A03
  8
0
 10
102.6632718825617
 20
54.931187913912019
 30
0.0
 11
47.663271882561723
 21
54.931187913912019
 31
0.0
  0
LINE
  5
5A04
  8
0
 10
96.01371493363753
 20
57.827397783572209
 30
0.0
 11
54.312828831486073
 21
57.827397783572209
 31
0.0
  0
LINE
  5
5A05
  8
0
 10
89.163271882561745
 20
62.528659185312101
 30
0.0
 11
61.163271882561723
 21
62.528659185312101
 31
0.0
  0
LINE
  5
5A06
  8
0
 10
108.6632718825617
 20
50.560162951846678
 30
0.0
 11
108.6632718825617
 21
51.401550032594059
 31
0.0
  0
LINE
  5
5A07
  8
0
 10
108.6632718825617
 20
50.560162951846678
 30
0.0
 11
114.5222509618706
 21
48.306709459804793
 31
0.0
  0
LINE
  5
5A08
  8
0
 10
102.6632718825617
 20
54.931187913912019
 30
0.0
 11
108.0987480649498
 21
52.301750285078242
 31
0.0
  0
LINE
  5
5A09
  8
0
 10
96.013714933637416
 20
57.827397783572209
 30
0.0
 11
101.89137099602981
 21
56.450409364186029
 31
0.0
  0
LINE
  5
5A0A
  8
0
 10
90.163271882561716
 20
60.931187913912012
 30
0.0
 11
60.163271882561723
 21
60.931187913912012
 31
0.0
  0
LINE
  5
5A0B
  8
0
 10
90.163271882561716
 20
60.931187913912012
 30
0.0
 11
95.323435432351744
 21
59.250327629120882
 31
0.0
  0
LINE
  5
5A0C
  8
0
 10
90.163271882561716
 20
61.528659185312101
 30
0.0
 11
90.163271882561716
 21
60.931187913912012
 31
0.0
  0
LINE
  5
5A0D
  8
0
 10
102.6632718825617
 20
54.931187913912019
 30
0.0
 11
102.6632718825617
 21
55.47677144666477
 31
0.0
  0
LINE
  5
5A0E
  8
0
 10
96.013714933637416
 20
57.827397783572209
 30
0.0
 11
96.013714933637416
 21
58.299499982974567
 31
0.0
  0
ARC
  5
5A0F
  8
0
 10
89.163271882561745
 20
61.528659185312101
 30
0.0
 40
1.0
 50
359.99999999999892
 51
90.0
  0
ARC
  5
5A10
  8
0
 10
95.013714933637374
 20
58.299499982974567
 30
0.0
 40
1.0
 50
0.0
 51
71.957612741641853
  0
ARC
  5
5A11
  8
0
 10
101.6632718825617
 20
55.47677144666477
 30
0.0
 40
1.0
 50
0.0
 51
76.814815600247044
  0
ARC
  5
5A12
  8
0
 10
114.1632718825617
 20
47.373363853601639
 30
0.0
 40
1.0
 50
0.0
 51
68.962488974578235
  0
ARC
  5
5A13
  8
0
 10
107.6632718825617
 20
51.401550032594059
 30
0.0
 40
1.0
 50
0.0
 51
64.18440202834887
  0
ARC
  5
5A15
  8
0
 10
42.663271882561709
 20
51.401550032594059
 30
0.0
 40
1.0
 50
115.8155979716511
 51
180.0
  0
ARC
  5
5A16
  8
0
 10
36.163271882561617
 20
47.373363853601639
 30
0.0
 40
1.0
 50
111.03751102542169
 51
180.0
  0
ARC
  5
5A17
  8
0
 10
48.663271882561723
 20
55.47677144666477
 30
0.0
 40
1.0
 50
103.1851843997529
 51
180.0
  0
ARC
  5
5A18
  8
0
 10
55.312828831486037
 20
58.299499982974567
 30
0.0
 40
1.0
 50
108.0423872583581
 51
180.0
  0
ARC
  5
5A19
  8
0
 10
61.163271882561723
 20
61.528659185312101
 30
0.0
 40
1.0
 50
90.0
 51
180.00000000000099
  0
LINE
  5
5A1A
  8
0
 10
54.312828831486073
 20
57.827397783572209
 30
0.0
 11
54.312828831486073
 21
58.299499982974567
 31
0.0
  0
LINE
  5
5A1B
  8
0
 10
47.663271882561723
 20
54.931187913912019
 30
0.0
 11
47.663271882561723
 21
55.47677144666477
 31
0.0
  0
LINE
  5
5A1C
  8
0
 10
60.163271882561723
 20
61.528659185312101
 30
0.0
 11
60.163271882561723
 21
60.931187913912012
 31
0.0
  0
LINE
  5
5A1D
  8
0
 10
60.163271882561723
 20
60.931187913912012
 30
0.0
 11
55.003108332771717
 21
59.250327629120882
 31
0.0
  0
LINE
  5
5A1E
  8
0
 10
54.312828831486073
 20
57.827397783572209
 30
0.0
 11
48.435172769093583
 21
56.450409364186029
 31
0.0
  0
LINE
  5
5A1F
  8
0
 10
47.663271882561723
 20
54.931187913912019
 30
0.0
 11
42.227795700173601
 21
52.301750285078242
 31
0.0
  0
LINE
  5
5A20
  8
0
 10
41.663271882561723
 20
50.560162951846678
 30
0.0
 11
35.8042928032528
 21
48.306709459804793
 31
0.0
  0
LINE
  5
5A21
  8
0
 10
41.663271882561723
 20
50.560162951846678
 30
0.0
 11
41.663271882561723
 21
51.401550032594059
 31
0.0
  0
LINE
  5
5A22
  8
0
 10
35.16327188256173
 20
38.528659185312101
 30
0.0
 11
35.16327188256161
 21
47.373363853601639
 31
0.0
  0
CIRCLE
  5
5A24
  8
0
 10
75.16327188256173
 20
291.21155031201351
 30
0.0
 40
33.5
  0
CIRCLE
  5
5A25
  8
0
 10
75.16327188256173
 20
291.21155031201351
 30
0.0
 40
27.5
  0
CIRCLE
  5
5A26
  8
0
 10
75.16327188256173
 20
291.21155031201351
 30
0.0
 40
20.850443051075668
  0
LINE
  5
5A29
  8
0
 10
157.44105878574729
 20
38.528659185312101
 30
0.0
 11
157.44105878574729
 21
47.373363853601639
 31
0.0
  0
LINE
  5
5A2A
  8
0
 10
163.9410587857474
 20
50.560162951846678
 30
0.0
 11
163.9410587857474
 21
51.401550032594059
 31
0.0
  0
LINE
  5
5A2B
  8
0
 10
163.9410587857474
 20
50.560162951846678
 30
0.0
 11
158.08207970643841
 21
48.306709459804793
 31
0.0
  0
LINE
  5
5A2C
  8
0
 10
169.94105878574729
 20
54.931187913912019
 30
0.0
 11
164.50558260335919
 21
52.301750285078242
 31
0.0
  0
LINE
  5
5A2D
  8
0
 10
176.5906157346717
 20
57.827397783572209
 30
0.0
 11
170.71295967227931
 21
56.450409364186029
 31
0.0
  0
LINE
  5
5A2E
  8
0
 10
182.44105878574729
 20
60.931187913912012
 30
0.0
 11
177.2808952359573
 21
59.250327629120882
 31
0.0
  0
LINE
  5
5A2F
  8
0
 10
182.44105878574729
 20
61.528659185312101
 30
0.0
 11
182.44105878574729
 21
60.931187913912012
 31
0.0
  0
LINE
  5
5A30
  8
0
 10
169.94105878574729
 20
54.931187913912019
 30
0.0
 11
169.94105878574729
 21
55.47677144666477
 31
0.0
  0
LINE
  5
5A31
  8
0
 10
176.5906157346717
 20
57.827397783572209
 30
0.0
 11
176.5906157346717
 21
58.299499982974567
 31
0.0
  0
ARC
  5
5A32
  8
0
 10
183.44105878574729
 20
61.528659185312101
 30
0.0
 40
1.0
 50
90.0
 51
180.00000000000099
  0
ARC
  5
5A33
  8
0
 10
177.59061573467159
 20
58.299499982974567
 30
0.0
 40
1.0
 50
108.0423872583581
 51
180.0
  0
ARC
  5
5A34
  8
0
 10
170.94105878574729
 20
55.47677144666477
 30
0.0
 40
1.0
 50
103.1851843997529
 51
180.0
  0
ARC
  5
5A35
  8
0
 10
158.44105878574729
 20
47.373363853601639
 30
0.0
 40
1.0
 50
111.03751102542169
 51
180.0
  0
ARC
  5
5A36
  8
0
 10
164.9410587857474
 20
51.401550032594059
 30
0.0
 40
1.0
 50
115.8155979716511
 51
180.0
  0
ARC
  5
5A38
  8
0
 10
229.9410587857474
 20
51.401550032594059
 30
0.0
 40
1.0
 50
0.0
 51
64.18440202834887
  0
ARC
  5
5A39
  8
0
 10
236.4410587857474
 20
47.373363853601639
 30
0.0
 40
1.0
 50
0.0
 51
68.962488974578235
  0
ARC
  5
5A3A
  8
0
 10
223.9410587857474
 20
55.47677144666477
 30
0.0
 40
1.0
 50
0.0
 51
76.814815600247044
  0
ARC
  5
5A3B
  8
0
 10
217.2915018368231
 20
58.299499982974567
 30
0.0
 40
1.0
 50
0.0
 51
71.957612741641853
  0
ARC
  5
5A3C
  8
0
 10
211.4410587857474
 20
61.528659185312101
 30
0.0
 40
1.0
 50
359.99999999999892
 51
90.0
  0
LINE
  5
5A3D
  8
0
 10
218.2915018368229
 20
57.827397783572209
 30
0.0
 11
218.2915018368229
 21
58.299499982974567
 31
0.0
  0
LINE
  5
5A3E
  8
0
 10
224.9410587857474
 20
54.931187913912019
 30
0.0
 11
224.9410587857474
 21
55.47677144666477
 31
0.0
  0
LINE
  5
5A3F
  8
0
 10
212.4410587857474
 20
61.528659185312101
 30
0.0
 11
212.4410587857474
 21
60.931187913912012
 31
0.0
  0
LINE
  5
5A40
  8
0
 10
212.4410587857474
 20
60.931187913912012
 30
0.0
 11
217.60122233553739
 21
59.250327629120882
 31
0.0
  0
LINE
  5
5A41
  8
0
 10
212.4410587857474
 20
60.931187913912012
 30
0.0
 11
182.44105878574729
 21
60.931187913912012
 31
0.0
  0
LINE
  5
5A42
  8
0
 10
218.2915018368229
 20
57.827397783572209
 30
0.0
 11
224.16915789921541
 21
56.450409364186029
 31
0.0
  0
LINE
  5
5A43
  8
0
 10
224.9410587857474
 20
54.931187913912019
 30
0.0
 11
230.3765349681355
 21
52.301750285078242
 31
0.0
  0
LINE
  5
5A44
  8
0
 10
230.9410587857474
 20
50.560162951846678
 30
0.0
 11
236.80003786505631
 21
48.306709459804793
 31
0.0
  0
LINE
  5
5A45
  8
0
 10
230.9410587857474
 20
50.560162951846678
 30
0.0
 11
230.9410587857474
 21
51.401550032594059
 31
0.0
  0
LINE
  5
5A46
  8
0
 10
211.4410587857474
 20
62.528659185312101
 30
0.0
 11
183.44105878574729
 21
62.528659185312101
 31
0.0
  0
LINE
  5
5A47
  8
0
 10
218.2915018368229
 20
57.827397783572209
 30
0.0
 11
176.5906157346717
 21
57.827397783572209
 31
0.0
  0
LINE
  5
5A48
  8
0
 10
224.9410587857474
 20
54.931187913912019
 30
0.0
 11
169.94105878574729
 21
54.931187913912019
 31
0.0
  0
LINE
  5
5A49
  8
0
 10
230.9410587857474
 20
50.560162951846678
 30
0.0
 11
163.9410587857474
 21
50.560162951846678
 31
0.0
  0
LINE
  5
5A4B
  8
0
 10
237.4410587857474
 20
38.528659185312101
 30
0.0
 11
237.4410587857474
 21
47.373363853601639
 31
0.0
  0
LINE
  5
5A4C
  8
0
 10
237.4410587857474
 20
38.528659185312101
 30
0.0
 11
157.44105878574729
 21
38.528659185312101
 31
0.0
  0
CIRCLE
  5
5A4E
  8
0
 10
75.16327188256173
 20
291.21155031201351
 30
0.0
 40
14.5
  0
LINE
  5
5A4F
  8
0
 10
57.842763806873108
 20
291.21155031201351
 30
0.0
 11
66.503017844717533
 21
276.21155031201363
 31
0.0
  0
LINE
  5
5A50
  8
0
 10
66.503017844717533
 20
306.21155031201351
 30
0.0
 11
57.842763806873108
 21
291.21155031201351
 31
0.0
  0
LINE
  5
5A51
  8
0
 10
83.823525920405928
 20
306.21155031201351
 30
0.0
 11
66.503017844717533
 21
306.21155031201351
 31
0.0
  0
LINE
  5
5A52
  8
0
 10
92.483779958250565
 20
291.21155031201351
 30
0.0
 11
83.823525920405928
 21
306.21155031201351
 31
0.0
  0
LINE
  5
5A53
  8
0
 10
83.823525920406141
 20
276.21155031201363
 30
0.0
 11
92.483779958250565
 21
291.21155031201351
 31
0.0
  0
LINE
  5
5A54
  8
0
 10
66.503017844717533
 20
276.21155031201363
 30
0.0
 11
83.823525920406141
 21
276.21155031201363
 31
0.0
  0
CIRCLE
  5
5A55
  8
3
 10
75.16327188256173
 20
291.21155031201351
 30
0.0
 40
8.6470000000000002
  0
CIRCLE
  5
5A56
  8
0
 10
75.16327188256173
 20
291.21155031201351
 30
0.0
 40
10.0
  0
LINE
  5
5A57
  8
0
 10
208.9410587856936
 20
71.52865918539328
 30
0.0
 11
185.94105878590901
 21
71.52865918539328
 31
0.0
  0
LINE
  5
5A58
  8
0
 10
185.94105878580129
 20
81.52865918539328
 30
0.0
 11
208.9410587856936
 21
81.52865918539328
 31
0.0
  0
ARC
  5
5A59
  8
0
 10
207.83336363121481
 20
75.106009455107554
 30
0.0
 40
6.1339745957208196
 50
64.384247469843373
 51
124.3842474712085
  0
LINE
  5
5A5A
  8
0
 10
211.2974652463742
 20
80.168187280999064
 30
0.0
 11
208.9410587856936
 21
81.52865918539328
 31
0.0
  0
LINE
  5
5A5B
  8
0
 10
211.2974652463742
 20
72.889131089787483
 30
0.0
 11
208.9410587856936
 21
71.52865918539328
 31
0.0
  0
ARC
  5
5A5C
  8
0
 10
207.83336363121481
 20
77.95130891567895
 30
0.0
 40
6.1339745957208196
 50
235.6157525287914
 51
295.61575253015661
  0
LINE
  5
5A5D
  8
0
 10
211.2974652463524
 20
80.168187280999064
 30
0.0
 11
211.2974652463524
 21
72.88913108977475
 31
0.0
  0
LINE
  5
5A5E
  8
0
 10
204.3692620160765
 20
80.168187280999064
 30
0.0
 11
204.3692620160765
 21
72.889131089787483
 31
0.0
  0
LINE
  5
5A5F
  8
0
 10
190.5128555555259
 20
80.168187280999064
 30
0.0
 11
190.5128555555259
 21
72.889131089787483
 31
0.0
  0
LINE
  5
5A60
  8
0
 10
183.58465232525009
 20
80.168187280999064
 30
0.0
 11
183.58465232525009
 21
72.88913108977475
 31
0.0
  0
ARC
  5
5A61
  8
0
 10
197.4410587858012
 20
94.745537548097644
 30
0.0
 40
22.928203228139491
 50
252.41204622431411
 51
287.58795377568589
  0
ARC
  5
5A62
  8
0
 10
187.04875394038771
 20
77.95130891567895
 30
0.0
 40
6.1339745957208196
 50
244.38424746984339
 51
304.3842474712086
  0
LINE
  5
5A63
  8
0
 10
183.58465232522821
 20
72.889131089787483
 30
0.0
 11
185.94105878590901
 21
71.52865918539328
 31
0.0
  0
LINE
  5
5A64
  8
0
 10
183.58465232522821
 20
80.168187280999064
 30
0.0
 11
185.94105878590901
 21
81.52865918539328
 31
0.0
  0
ARC
  5
5A65
  8
0
 10
187.04875394038771
 20
75.106009455107554
 30
0.0
 40
6.1339745957208196
 50
55.615752528791369
 51
115.6157525301566
  0
ARC
  5
5A66
  8
0
 10
197.4410587858012
 20
58.311780822688888
 30
0.0
 40
22.928203228139491
 50
72.412046224314139
 51
107.5879537756858
  0
LINE
  5
5A67
  8
3
 10
206.08805878574731
 20
85.528659185312094
 30
0.0
 11
207.4410587857474
 21
83.185194442671218
 31
0.0
  0
LINE
  5
5A68
  8
3
 10
188.79405878574741
 20
85.528659185312094
 30
0.0
 11
187.44105878574729
 21
83.185194442671218
 31
0.0
  0
LINE
  5
5A69
  8
0
 10
207.4410587857474
 20
85.528659185312094
 30
0.0
 11
187.44105878574729
 21
85.528659185312094
 31
0.0
  0
LINE
  5
5A6A
  8
0
 10
187.44105878574729
 20
217.02865918531231
 30
0.0
 11
207.4410587857474
 21
217.02865918531191
 31
0.0
  0
LINE
  5
5A6B
  8
0
 10
204.9410587857474
 20
219.52865918531191
 30
0.0
 11
207.4410587857474
 21
217.02865918531191
 31
0.0
  0
LINE
  5
5A6C
  8
0
 10
187.44105878574729
 20
217.02865918531231
 30
0.0
 11
189.9410587857474
 21
219.52865918531231
 31
0.0
  0
LINE
  5
5A6D
  8
0
 10
187.44105878574729
 20
81.528659185312094
 30
0.0
 11
187.44105878574729
 21
107.5286591853346
 31
0.0
  0
LINE
  5
5A6E
  8
3
 10
188.79405878574741
 20
85.528659185312094
 30
0.0
 11
188.79405878574741
 21
107.5286591853344
 31
0.0
  0
LINE
  5
5A6F
  8
3
 10
206.08805878574731
 20
85.528659185312094
 30
0.0
 11
206.08805878574731
 21
107.5286591853346
 31
0.0
  0
LINE
  5
5A70
  8
0
 10
207.4410587857474
 20
81.528659185312094
 30
0.0
 11
207.4410587857474
 21
107.5286591853346
 31
0.0
  0
LINE
  5
5A71
  8
0
 10
189.9410587857474
 20
219.52865918531231
 30
0.0
 11
204.9410587857474
 21
219.52865918531191
 31
0.0
  0
LINE
  5
5A72
  8
0
 10
188.9410587857474
 20
71.528659185273909
 30
0.0
 11
188.9410587857474
 21
65.028659185288234
 31
0.0
  0
LINE
  5
5A73
  8
0
 10
205.94105878574729
 20
71.528659185273909
 30
0.0
 11
205.94105878574729
 21
65.028659185259812
 31
0.0
  0
LINE
  5
5A74
  8
0
 10
205.94105878574729
 20
65.028659185259812
 30
0.0
 11
188.9410587857474
 21
65.028659185288006
 31
0.0
  0
ARC
  5
5A75
  8
0
 10
197.44105878574439
 20
56.198925366509691
 30
0.0
 40
12.25
 50
133.87987710305001
 51
148.8879791802681
  0
LINE
  5
5A76
  8
3
 10
206.08805878574731
 20
123.5286591853346
 30
0.0
 11
206.08805878574731
 21
218.381659185312
 31
0.0
  0
LINE
  5
5A77
  8
0
 10
207.4410587857474
 20
123.5286591853344
 30
0.0
 11
207.4410587857474
 21
217.02865918531191
 31
0.0
  0
LINE
  5
5A78
  8
0
 10
187.44105878574729
 20
123.5286591853346
 30
0.0
 11
187.44105878574729
 21
217.02865918531231
 31
0.0
  0
LINE
  5
5A79
  8
3
 10
188.79405878574741
 20
123.5286591853346
 30
0.0
 11
188.79405878574741
 21
218.3816591853124
 31
0.0
  0
ARC
  5
5A7A
  8
0
 10
204.9410587857478
 20
101.5773252770707
 30
0.0
 40
21.662658773668529
 50
69.74384199960231
 51
110.2561580003977
  0
LINE
  5
5A7B
  8
0
 10
211.94105878574621
 20
123.5286591853346
 30
0.0
 11
212.4410587857476
 21
123.2399840507391
 31
0.0
  0
LINE
  5
5A7C
  8
0
 10
211.94105878574621
 20
107.5286591853353
 30
0.0
 11
212.4410587857476
 21
107.81733431993069
 31
0.0
  0
ARC
  5
5A7D
  8
0
 10
204.9410587857478
 20
129.47999309359901
 30
0.0
 40
21.662658773668529
 50
249.7438419996023
 51
290.2561580003977
  0
LINE
  5
5A7E
  8
0
 10
212.4410587857478
 20
123.2399840507391
 30
0.0
 11
212.4410587857476
 21
107.81733431993069
 31
0.0
  0
LINE
  5
5A7F
  8
0
 10
182.4410587857478
 20
123.2399840507391
 30
0.0
 11
182.441058785748
 21
107.81733431993069
 31
0.0
  0
ARC
  5
5A80
  8
0
 10
189.9410587857478
 20
129.47999309359901
 30
0.0
 40
21.662658773668529
 50
249.7438419996023
 51
290.2561580003977
  0
LINE
  5
5A81
  8
0
 10
182.94105878574931
 20
107.5286591853353
 30
0.0
 11
182.441058785748
 21
107.81733431993069
 31
0.0
  0
LINE
  5
5A82
  8
0
 10
182.94105878574931
 20
123.5286591853346
 30
0.0
 11
182.441058785748
 21
123.2399840507391
 31
0.0
  0
ARC
  5
5A83
  8
0
 10
189.9410587857478
 20
101.5773252770707
 30
0.0
 40
21.662658773668529
 50
69.74384199960231
 51
110.2561580003977
  0
LINE
  5
5A84
  8
0
 10
182.94105878574931
 20
123.5286591853346
 30
0.0
 11
211.94105878574621
 21
123.5286591853346
 31
0.0
  0
LINE
  5
5A85
  8
0
 10
211.9410587857478
 20
107.5286591853353
 30
0.0
 11
182.94105878574931
 21
107.5286591853353
 31
0.0
  0
ARC
  5
5A87
  8
0
 10
197.44105878574439
 20
56.198925366509691
 30
0.0
 40
12.25
 50
31.112020819731931
 51
46.12012289676111
  0
LINE
  5
5A88
  8
3
 10
66.516271882561796
 20
123.5286591853346
 30
0.0
 11
66.516271882561796
 21
218.3816591853124
 31
0.0
  0
LINE
  5
5A89
  8
0
 10
65.163271882561716
 20
123.5286591853346
 30
0.0
 11
65.163271882561716
 21
217.02865918531231
 31
0.0
  0
LINE
  5
5A8A
  8
0
 10
85.16327188256173
 20
123.5286591853344
 30
0.0
 11
85.16327188256173
 21
217.02865918531191
 31
0.0
  0
LINE
  5
5A8B
  8
3
 10
83.810271882561651
 20
123.5286591853346
 30
0.0
 11
83.810271882561651
 21
218.381659185312
 31
0.0
  0
LINE
  5
5A8C
  8
0
 10
60.663271882561951
 20
123.5286591853348
 30
0.0
 11
57.842763806873343
 21
121.9002380885845
 31
0.0
  0
ARC
  5
5A8D
  8
0
 10
62.172890825795768
 20
115.5725158054636
 30
0.0
 40
7.6674682452751766
 50
55.61575253199382
 51
115.61575252953899
  0
ARC
  5
5A8E
  8
0
 10
62.172890825795768
 20
115.5725158054636
 30
0.0
 40
7.6674682452751766
 50
124.38424746800619
 51
124.38424746800619
  0
ARC
  5
5A8F
  8
0
 10
75.163271882635399
 20
94.579730013346065
 30
0.0
 40
28.660254037392811
 50
72.412046225870014
 51
107.5879537744307
  0
ARC
  5
5A90
  8
0
 10
62.172890825795768
 20
115.4848025652059
 30
0.0
 40
7.6674682452751766
 50
235.61575253199379
 51
235.61575253199379
  0
ARC
  5
5A91
  8
0
 10
62.172890825795768
 20
115.4848025652059
 30
0.0
 40
7.6674682452751766
 50
244.38424747046091
 51
304.38424746800621
  0
LINE
  5
5A92
  8
0
 10
60.663271882561951
 20
107.5286591853346
 30
0.0
 11
57.842763806873343
 21
109.15708028208491
 31
0.0
  0
LINE
  5
5A93
  8
0
 10
57.842763806873563
 20
121.9002380885845
 30
0.0
 11
57.842763806589801
 21
109.1570802822486
 31
0.0
  0
LINE
  5
5A94
  8
0
 10
66.50301784471776
 20
109.1570802821083
 30
0.0
 11
66.503017844871678
 21
121.9002380885845
 31
0.0
  0
ARC
  5
5A95
  8
0
 10
75.163271882635399
 20
136.4775883573231
 30
0.0
 40
28.660254037392811
 50
252.41204622556921
 51
287.58795377413009
  0
LINE
  5
5A96
  8
0
 10
83.823525920406141
 20
109.1570802821083
 30
0.0
 11
83.823525920252223
 21
121.9002380885845
 31
0.0
  0
LINE
  5
5A97
  8
0
 10
92.483779958250366
 20
121.9002380885845
 30
0.0
 11
92.483779958534129
 21
109.1570802822486
 31
0.0
  0
LINE
  5
5A98
  8
0
 10
89.663271882561958
 20
107.5286591853346
 30
0.0
 11
92.483779958250565
 21
109.15708028208491
 31
0.0
  0
ARC
  5
5A99
  8
0
 10
88.153652939328126
 20
115.4848025652059
 30
0.0
 40
7.6674682452751766
 50
235.61575253199379
 51
295.61575252953912
  0
ARC
  5
5A9A
  8
0
 10
88.153652939328126
 20
115.4848025652059
 30
0.0
 40
7.6674682452751766
 50
304.38424746800621
 51
304.38424746800621
  0
ARC
  5
5A9B
  8
0
 10
88.153652939328126
 20
115.5725158054636
 30
0.0
 40
7.6674682452751766
 50
55.61575253199382
 51
55.61575253199382
  0
ARC
  5
5A9C
  8
0
 10
88.153652939328126
 20
115.5725158054636
 30
0.0
 40
7.6674682452751766
 50
64.384247470460906
 51
124.38424746800619
  0
LINE
  5
5A9D
  8
0
 10
89.663271882561958
 20
123.5286591853348
 30
0.0
 11
92.483779958250565
 21
121.9002380885845
 31
0.0
  0
LINE
  5
5A9E
  8
0
 10
60.663271882561951
 20
123.5286591853348
 30
0.0
 11
89.663271882562611
 21
123.5286591853344
 31
0.0
  0
LINE
  5
5A9F
  8
0
 10
89.663271882562427
 20
107.5286591853348
 30
0.0
 11
60.663271882561951
 21
107.5286591853346
 31
0.0
  0
ARC
  5
5AA0
  8
0
 10
75.16327188255876
 20
56.198925366509691
 30
0.0
 40
12.25
 50
133.87987710304881
 51
148.88797918026799
  0
LINE
  5
5AA1
  8
0
 10
83.66327188256173
 20
65.028659185259812
 30
0.0
 11
66.663271882561716
 21
65.028659185288006
 31
0.0
  0
LINE
  5
5AA2
  8
0
 10
83.66327188256173
 20
71.528659185273909
 30
0.0
 11
83.66327188256173
 21
65.028659185259812
 31
0.0
  0
LINE
  5
5AA3
  8
0
 10
66.663271882561716
 20
71.528659185273909
 30
0.0
 11
66.663271882561716
 21
65.028659185288234
 31
0.0
  0
LINE
  5
5AA4
  8
0
 10
86.663271882594927
 20
71.528659185254554
 30
0.0
 11
63.663271882528527
 21
71.528659185292994
 31
0.0
  0
LINE
  5
5AA5
  8
0
 10
63.663271882528527
 20
81.528659185292994
 30
0.0
 11
86.663271882594927
 21
81.528659185331435
 31
0.0
  0
ARC
  5
5AA6
  8
0
 10
69.163271882594927
 20
63.909857033394701
 30
0.0
 40
17.330127017333279
 50
69.743841997633851
 51
110.25615800236611
  0
LINE
  5
5AA7
  8
0
 10
63.16327188257992
 20
81.239984050728026
 30
0.0
 11
63.663271882594927
 21
81.528659185331435
 31
0.0
  0
LINE
  5
5AA8
  8
0
 10
63.16327188257992
 20
71.817334319857991
 30
0.0
 11
63.663271882594927
 21
71.528659185254554
 31
0.0
  0
ARC
  5
5AA9
  8
0
 10
69.163271882594927
 20
89.147461337191316
 30
0.0
 40
17.330127017333279
 50
249.74384199763389
 51
290.25615800236608
  0
LINE
  5
5AAA
  8
0
 10
63.16327188257992
 20
81.239984050728026
 30
0.0
 11
63.16327188259492
 21
71.817334319849351
 31
0.0
  0
LINE
  5
5AAC
  8
0
 10
87.163271882609934
 20
81.239984050728026
 30
0.0
 11
87.163271882594913
 21
71.817334319849351
 31
0.0
  0
ARC
  5
5AAD
  8
0
 10
81.163271882594913
 20
89.147461337191316
 30
0.0
 40
17.330127017333279
 50
249.74384199763389
 51
290.25615800236608
  0
LINE
  5
5AAE
  8
0
 10
87.163271882609934
 20
71.817334319857991
 30
0.0
 11
86.663271882594927
 21
71.528659185254554
 31
0.0
  0
LINE
  5
5AAF
  8
0
 10
87.163271882609934
 20
81.239984050728026
 30
0.0
 11
86.663271882594927
 21
81.528659185331435
 31
0.0
  0
ARC
  5
5AB0
  8
0
 10
81.163271882594913
 20
63.909857033394701
 30
0.0
 40
17.330127017333279
 50
69.743841997633851
 51
110.25615800236611
  0
LINE
  5
5AB1
  8
0
 10
67.663271882561716
 20
219.52865918531231
 30
0.0
 11
82.66327188256173
 21
219.52865918531191
 31
0.0
  0
LINE
  5
5AB2
  8
0
 10
85.16327188256173
 20
81.528659185312094
 30
0.0
 11
85.16327188256173
 21
107.5286591853346
 31
0.0
  0
LINE
  5
5AB3
  8
3
 10
83.810271882561651
 20
85.528659185312094
 30
0.0
 11
83.810271882561651
 21
107.5286591853346
 31
0.0
  0
LINE
  5
5AB4
  8
3
 10
66.516271882561796
 20
85.528659185312094
 30
0.0
 11
66.516271882561796
 21
107.5286591853344
 31
0.0
  0
LINE
  5
5AB5
  8
0
 10
65.163271882561716
 20
81.528659185312094
 30
0.0
 11
65.163271882561716
 21
107.5286591853346
 31
0.0
  0
LINE
  5
5AB6
  8
0
 10
65.163271882561716
 20
217.02865918531231
 30
0.0
 11
67.663271882561716
 21
219.52865918531231
 31
0.0
  0
LINE
  5
5AB7
  8
0
 10
82.66327188256173
 20
219.52865918531191
 30
0.0
 11
85.16327188256173
 21
217.02865918531191
 31
0.0
  0
LINE
  5
5AB8
  8
0
 10
65.163271882561716
 20
217.02865918531231
 30
0.0
 11
85.16327188256173
 21
217.02865918531191
 31
0.0
  0
LINE
  5
5AB9
  8
0
 10
85.16327188256173
 20
85.528659185312094
 30
0.0
 11
65.163271882561716
 21
85.528659185312094
 31
0.0
  0
LINE
  5
5ABA
  8
3
 10
66.516271882561796
 20
85.528659185312094
 30
0.0
 11
65.163271882561716
 21
83.185194442671218
 31
0.0
  0
LINE
  5
5ABB
  8
3
 10
83.810271882561651
 20
85.528659185312094
 30
0.0
 11
85.16327188256173
 21
83.185194442671218
 31
0.0
  0
ARC
  5
5ABC
  8
0
 10
75.16327188255876
 20
56.198925366509691
 30
0.0
 40
12.25
 50
31.112020819731999
 51
46.120122896762247
  0
LINE
  5
5ABD
  8
1
 10
75.163271882561659
 20
33.528659185312108
 30
0.0
 11
75.163271882564004
 21
224.52865918531231
 31
0.0
  0
LINE
  5
5ABE
  8
1
 10
197.44105878574729
 20
224.52865918531191
 30
0.0
 11
197.44105878574729
 21
33.528659185312108
 31
0.0
  0
LINE
  5
5C92
  8
0
 10
75.163271882562242
 20
80.168187280886684
 30
0.0
 11
75.163271882562142
 21
72.889131089699376
 31
0.0
  0
LINE
  5
5C93
  8
0
 10
197.44105878574669
 20
121.9002380885851
 30
0.0
 11
197.44105878574891
 21
109.15708028208461
 31
0.0
  0
TEXT
  5
5DEA
  8
0
 62
     3
 10
0.0
 20
0.0
 30
0.0
 40
10.0
  1
LVA80L20B-SUS
  7
STANDARD1
  0
ENDSEC
  0
EOF
