  0
SECTION
  2
HEADER
  9
$ACADVER
  1
AC1009
  9
$INSBASE
 10
0.0
 20
0.0
 30
0.0
  9
$EXTMIN
 10
0.0
 20
-2.960436562073669
 30
0.0
  9
$EXTMAX
 10
218.0822600302136
 20
286.33322560619467
 30
0.0
  9
$LIMMIN
 10
0.0
 20
0.0
  9
$LIMMAX
 10
375.0
 20
270.0
  9
$ORTHOMODE
 70
     1
  9
$REGENMODE
 70
     1
  9
$FILLMODE
 70
     1
  9
$QTEXTMODE
 70
     0
  9
$MIRRTEXT
 70
     0
  9
$DRAGMODE
 70
     2
  9
$LTSCALE
 40
6.0
  9
$OSMODE
 70
    37
  9
$ATTMODE
 70
     1
  9
$TEXTSIZE
 40
0.2
  9
$TRACEWID
 40
0.05
  9
$TEXTSTYLE
  7
STANDARD
  9
$CLAYER
  8
0
  9
$CELTYPE
  6
BYLAYER
  9
$CECOLOR
 62
   256
  9
$DIMSCALE
 40
1.0
  9
$DIMASZ
 40
3.0
  9
$DIMEXO
 40
1.0
  9
$DIMDLI
 40
6.0
  9
$DIMRND
 40
0.0
  9
$DIMDLE
 40
0.0
  9
$DIMEXE
 40
1.0
  9
$DIMTP
 40
495.0
  9
$DIMTM
 40
0.0
  9
$DIMTXT
 40
3.0
  9
$DIMCEN
 40
0.0
  9
$DIMTSZ
 40
0.0
  9
$DIMTOL
 70
     0
  9
$DIMLIM
 70
     0
  9
$DIMTIH
 70
     0
  9
$DIMTOH
 70
     0
  9
$DIMSE1
 70
     0
  9
$DIMSE2
 70
     0
  9
$DIMTAD
 70
     1
  9
$DIMZIN
 70
     0
  9
$DIMBLK
  1

  9
$DIMASO
 70
     0
  9
$DIMSHO
 70
     0
  9
$DIMPOST
  1

  9
$DIMAPOST
  1

  9
$DIMALT
 70
     0
  9
$DIMALTD
 70
     2
  9
$DIMALTF
 40
25.399999999999999
  9
$DIMLFAC
 40
1.0
  9
$DIMTOFL
 70
     1
  9
$DIMTVP
 40
0.0
  9
$DIMTIX
 70
     1
  9
$DIMSOXD
 70
     0
  9
$DIMSAH
 70
     0
  9
$DIMBLK1
  1

  9
$DIMBLK2
  1

  9
$DIMSTYLE
  2
STANDARD
  9
$DIMCLRD
 70
     0
  9
$DIMCLRE
 70
     0
  9
$DIMCLRT
 70
     4
  9
$DIMTFAC
 40
1.0
  9
$DIMGAP
 40
1.0
  9
$LUNITS
 70
     2
  9
$LUPREC
 70
     4
  9
$SKETCHINC
 40
0.1
  9
$FILLETRAD
 40
2.0
  9
$AUNITS
 70
     0
  9
$AUPREC
 70
     0
  9
$MENU
  1
C:\R13\WIN\SUPPORT\ACAD-I
  9
$ELEVATION
 40
0.0
  9
$PELEVATION
 40
0.0
  9
$THICKNESS
 40
0.0
  9
$LIMCHECK
 70
     0
  9
$BLIPMODE
 70
     0
  9
$CHAMFERA
 40
0.0
  9
$CHAMFERB
 40
0.0
  9
$SKPOLY
 70
     0
  9
$TDCREATE
 40
2451962.463258333
  9
$TDUPDATE
 40
2456598.7196282172
  9
$TDINDWG
 40
0.0391969907
  9
$TDUSRTIMER
 40
2456598.043608611
  9
$USRTIMER
 70
     1
  9
$ANGBASE
 50
0.0
  9
$ANGDIR
 70
     0
  9
$PDMODE
 70
     0
  9
$PDSIZE
 40
0.0
  9
$PLINEWID
 40
0.0
  9
$COORDS
 70
     1
  9
$SPLFRAME
 70
     0
  9
$SPLINETYPE
 70
     6
  9
$SPLINESEGS
 70
     8
  9
$ATTDIA
 70
     0
  9
$ATTREQ
 70
     1
  9
$HANDLING
 70
     1
  9
$HANDSEED
  5
6405
  9
$SURFTAB1
 70
     6
  9
$SURFTAB2
 70
     6
  9
$SURFTYPE
 70
     6
  9
$SURFU
 70
     6
  9
$SURFV
 70
     6
  9
$UCSNAME
  2

  9
$UCSORG
 10
0.0
 20
0.0
 30
0.0
  9
$UCSXDIR
 10
1.0
 20
0.0
 30
0.0
  9
$UCSYDIR
 10
0.0
 20
1.0
 30
0.0
  9
$PUCSNAME
  2

  9
$PUCSORG
 10
0.0
 20
0.0
 30
0.0
  9
$PUCSXDIR
 10
1.0
 20
0.0
 30
0.0
  9
$PUCSYDIR
 10
0.0
 20
1.0
 30
0.0
  9
$USERI1
 70
     4
  9
$USERI2
 70
     1
  9
$USERI3
 70
     0
  9
$USERI4
 70
     0
  9
$USERI5
 70
     0
  9
$USERR1
 40
1.0
  9
$USERR2
 40
3.0
  9
$USERR3
 40
3.0
  9
$USERR4
 40
3.0
  9
$USERR5
 40
10.0
  9
$WORLDVIEW
 70
     1
  9
$SHADEDGE
 70
     3
  9
$SHADEDIF
 70
    70
  9
$TILEMODE
 70
     1
  9
$MAXACTVP
 70
    16
  9
$PLIMCHECK
 70
     0
  9
$PEXTMIN
 10
1.0000000000000000E+020
 20
1.0000000000000000E+020
 30
1.0000000000000000E+020
  9
$PEXTMAX
 10
-1.0000000000000000E+020
 20
-1.0000000000000000E+020
 30
-1.0000000000000000E+020
  9
$PLIMMIN
 10
0.0
 20
0.0
  9
$PLIMMAX
 10
12.0
 20
9.0
  9
$UNITMODE
 70
     0
  9
$VISRETAIN
 70
     0
  9
$PLINEGEN
 70
     0
  9
$PSLTSCALE
 70
     0
  0
ENDSEC
  0
SECTION
  2
TABLES
  0
TABLE
  2
VPORT
 70
     1
  0
VPORT
  2
*ACTIVE
 70
     0
 10
0.0
 20
0.0
 11
1.0
 21
1.0
 12
187.49427839065231
 22
181.7130884304502
 13
0.0
 23
0.0
 14
10.0
 24
10.0
 15
10.0
 25
10.0
 16
0.0
 26
0.0
 36
1.0
 17
0.0
 27
0.0
 37
0.0
 40
372.59892739635768
 41
1.755244755244755
 42
50.0
 43
0.0
 44
0.0
 50
0.0
 51
0.0
 71
    16
 72
   100
 73
     1
 74
     0
 75
     0
 76
     0
 77
     0
 78
     0
  0
ENDTAB
  0
TABLE
  2
LTYPE
 70
     3
  0
LTYPE
  2
CONTINUOUS
 70
     0
  3
Solid Line
 72
    65
 73
     0
 40
0.0
  0
LTYPE
  2
PHANTOM2
 70
     0
  3
___ _ _ ___ _ _ ___ _ _ ___ _ _
 72
    65
 73
     6
 40
1.25
 49
0.625
 49
-0.125
 49
0.125
 49
-0.125
 49
0.125
 49
-0.125
  0
LTYPE
  2
CENTER
 70
     0
  3
____ _ ____ _ ____ _ ____ _ ____ _ ____ _ ____
 72
    65
 73
     4
 40
2.0
 49
1.25
 49
-0.25
 49
0.25
 49
-0.25
  0
ENDTAB
  0
TABLE
  2
LAYER
 70
     3
  0
LAYER
  2
0
 70
     0
 62
     7
  6
CONTINUOUS
  0
LAYER
  2
1
 70
     0
 62
     1
  6
CENTER
  0
LAYER
  2
3
 70
     0
 62
     3
  6
CONTINUOUS
  0
ENDTAB
  0
TABLE
  2
STYLE
 70
     3
  0
STYLE
  2
STANDARD
 70
     0
 40
0.0
 41
1.0
 50
0.0
 71
     0
 42
0.2
  3
SIMPLEX
  4
BIGFONT
  0
STYLE
  2
ANNOTATIVE
 70
     0
 40
0.0
 41
1.0
 50
0.0
 71
     0
 42
0.2
  3
txt
  4

  0
STYLE
  2
STANDARD1
 70
     0
 40
0.0
 41
1.0
 50
0.0
 71
     0
 42
3.0
  3
txt
  4

  0
ENDTAB
  0
TABLE
  2
VIEW
 70
     0
  0
ENDTAB
  0
TABLE
  2
UCS
 70
     0
  0
ENDTAB
  0
TABLE
  2
APPID
 70
    29
  0
APPID
  2
ACAD
 70
     0
  0
APPID
  2
ACADANNOTATIVE
 70
     0
  0
APPID
  2
GENIUS_GENOREF_13
 70
     0
  0
APPID
  2
GENIUS_GENOENT_13
 70
     0
  0
APPID
  2
GENIUS_GENBH_13
 70
     0
  0
APPID
  2
GENIUS_GENOBJ_13
 70
     0
  0
APPID
  2
GENIUS_GENODEF_13
 70
     0
  0
APPID
  2
GENIUS_GENOLIS_13
 70
     0
  0
APPID
  2
GENIUS_GENOBJ-NBEHI-BHF_13
 70
     0
  0
APPID
  2
GENIUS_GENOBJ-NBEHI-BHB_13
 70
     0
  0
APPID
  2
GENIUS_GENOBJ-F-PART_13
 70
     0
  0
APPID
  2
GENIUS_GEFSTDP_13
 70
     0
  0
APPID
  2
GENIUS_GENOBJ-N-RSSYM_13
 70
     0
  0
APPID
  2
GENIUS_GENSYMENT_13
 70
     0
  0
APPID
  2
GENIUS_GENOBJ-N-TIT_13
 70
     0
  0
APPID
  2
GENIUS_GENTITLE_13
 70
     0
  0
APPID
  2
GENIUS_GENZVEED_13
 70
     0
  0
APPID
  2
GENIUS_GENOBJ-N-LEADER_13
 70
     0
  0
APPID
  2
GENIUS_GENOBJ-N-FIL_13
 70
     0
  0
APPID
  2
GENIUS_GENOBJ-N-SEC_13
 70
     0
  0
APPID
  2
GENIUS_GENOBJ-N-CRS_13
 70
     0
  0
APPID
  2
GENIUS_GENOBJ-N-ZOO_13
 70
     0
  0
APPID
  2
GENIUS_GENZOO_13
 70
     0
  0
APPID
  2
GENIUS_GENOBJ-F-TOL_13
 70
     0
  0
APPID
  2
GENIUS_GENFIL_13
 70
     0
  0
APPID
  2
GENIUS_GENOBJ-N-CHA_13
 70
     0
  0
APPID
  2
ACAD_EXEMPT_FROM_CAD_STANDARDS
 70
     0
  0
APPID
  2
ACAD_MLEADERVER
 70
     0
  0
APPID
  2
ACAD_NAV_VCDISPLAY
 70
     0
  0
ENDTAB
  0
TABLE
  2
DIMSTYLE
 70
     2
  0
DIMSTYLE
  2
STANDARD
 70
     0
  3

  4

  5

  6

  7

 40
1.0
 41
0.18
 42
0.0625
 43
0.38
 44
0.18
 45
0.0
 46
0.0
 47
0.0
 48
0.0
140
0.18
141
0.09
142
0.0
143
25.399999999999999
144
1.0
145
0.0
146
1.0
147
0.09
 71
     0
 72
     0
 73
     1
 74
     1
 75
     0
 76
     0
 77
     0
 78
     0
170
     0
171
     2
172
     0
173
     0
174
     0
175
     0
176
     0
177
     0
178
     0
  0
DIMSTYLE
  2
ANNOTATIVE
 70
     0
  3

  4

  5

  6

  7

 40
1.0
 41
0.18
 42
0.0625
 43
0.38
 44
0.18
 45
0.0
 46
0.0
 47
0.0
 48
0.0
140
0.18
141
0.09
142
0.0
143
25.399999999999999
144
1.0
145
0.0
146
1.0
147
0.09
 71
     0
 72
     0
 73
     1
 74
     1
 75
     0
 76
     0
 77
     0
 78
     0
170
     0
171
     2
172
     0
173
     0
174
     0
175
     0
176
     0
177
     0
178
     0
  0
ENDTAB
  0
ENDSEC
  0
SECTION
  2
BLOCKS
  0
BLOCK
  8
0
  2
$MODEL_SPACE
 70
     0
 10
0.0
 20
0.0
 30
0.0
  3
$MODEL_SPACE
  1

  0
ENDBLK
  5
62CC
  8
0
  0
BLOCK
 67
     1
  8
0
  2
$PAPER_SPACE
 70
     0
 10
0.0
 20
0.0
 30
0.0
  3
$PAPER_SPACE
  1

  0
ENDBLK
  5
62C8
 67
     1
  8
0
  0
ENDSEC
  0
SECTION
  2
ENTITIES
  0
ARC
  5
5EFC
  8
0
 10
178.0822600302134
 20
45.61490938294741
 30
0.0
 40
12.25
 50
31.065080896359529
 51
46.06216011426325
  0
ARC
  5
5EFD
  8
0
 10
178.0822600302134
 20
45.61490938294741
 30
0.0
 40
12.25
 50
133.93783988573671
 51
148.93491910364051
  0
LINE
  5
5EFE
  8
0
 10
169.5822600302134
 20
60.936048765149962
 30
0.0
 11
169.5822600302134
 21
54.436048765164053
 31
0.0
  0
LINE
  5
5EFF
  8
0
 10
186.5822600302134
 20
60.936048765149962
 30
0.0
 11
186.5822600302134
 21
54.436048765135851
 31
0.0
  0
LINE
  5
5F00
  8
0
 10
169.0822600302134
 20
168.9360487652072
 30
0.0
 11
187.0822600302134
 21
168.9360487652072
 31
0.0
  0
LINE
  5
5F01
  8
0
 10
190.0822600302134
 20
70.64737363058137
 30
0.0
 11
190.0822600302134
 21
94.936048765207232
 31
0.0
  0
LINE
  5
5F02
  8
3
 10
188.45826003021341
 20
75.936048765207261
 30
0.0
 11
188.45826003021341
 21
94.936048765207232
 31
0.0
  0
LINE
  5
5F03
  8
3
 10
167.7062600302136
 20
75.936048765207261
 30
0.0
 11
167.7062600302136
 21
94.936048765207232
 31
0.0
  0
LINE
  5
5F04
  8
0
 10
166.0822600302134
 20
70.647373630519112
 30
0.0
 11
166.0822600302134
 21
94.936048765207232
 31
0.0
  0
LINE
  5
5F05
  8
0
 10
166.0822600302134
 20
165.93604876520769
 30
0.0
 11
169.0822600302134
 21
168.9360487652072
 31
0.0
  0
LINE
  5
5F06
  8
0
 10
187.0822600302134
 20
168.9360487652072
 30
0.0
 11
190.0822600302134
 21
165.9360487652072
 31
0.0
  0
LINE
  5
5F07
  8
0
 10
166.0822600302134
 20
165.93604876520769
 30
0.0
 11
190.0822600302134
 21
165.9360487652072
 31
0.0
  0
LINE
  5
5F08
  8
0
 10
190.0822600302134
 20
75.936048765207261
 30
0.0
 11
166.0822600302134
 21
75.936048765207261
 31
0.0
  0
LINE
  5
5F09
  8
3
 10
167.7062600302136
 20
75.936048765207261
 30
0.0
 11
166.0822600302134
 21
73.123198253715373
 31
0.0
  0
LINE
  5
5F0A
  8
3
 10
188.45826003021341
 20
75.936048765207261
 30
0.0
 11
190.0822600302134
 21
73.123198253715373
 31
0.0
  0
LINE
  5
5F0B
  8
0
 10
189.5822600301596
 20
60.936048765207261
 30
0.0
 11
166.58226003037521
 21
60.936048765207261
 31
0.0
  0
LINE
  5
5F0C
  8
0
 10
166.58226003026741
 20
70.936048765207261
 30
0.0
 11
189.5822600301596
 21
70.936048765207261
 31
0.0
  0
ARC
  5
5F0D
  8
0
 10
188.4745648756809
 20
64.513399034921576
 30
0.0
 40
6.1339745957208196
 50
64.384247469840375
 51
124.38424747120121
  0
LINE
  5
5F0E
  8
0
 10
191.9386664908404
 20
69.575576860813044
 30
0.0
 11
189.5822600301596
 21
70.936048765207261
 31
0.0
  0
LINE
  5
5F0F
  8
0
 10
191.9386664908404
 20
62.296520669601477
 30
0.0
 11
189.5822600301596
 21
60.936048765207261
 31
0.0
  0
ARC
  5
5F10
  8
0
 10
188.4745648756809
 20
67.358698495492945
 30
0.0
 40
6.1339745957208196
 50
235.61575252879609
 51
295.61575253015968
  0
LINE
  5
5F11
  8
0
 10
191.9386664908186
 20
69.575576860813044
 30
0.0
 11
191.9386664908186
 21
62.29652066958873
 31
0.0
  0
LINE
  5
5F12
  8
0
 10
185.01046326054279
 20
69.575576860813044
 30
0.0
 11
185.01046326054279
 21
62.296520669601477
 31
0.0
  0
LINE
  5
5F13
  8
0
 10
171.15405679999199
 20
69.575576860813044
 30
0.0
 11
171.15405679999199
 21
62.296520669601477
 31
0.0
  0
LINE
  5
5F14
  8
0
 10
164.22585356971621
 20
69.575576860813044
 30
0.0
 11
164.22585356971621
 21
62.29652066958873
 31
0.0
  0
ARC
  5
5F15
  8
0
 10
178.08226003026741
 20
84.152927127911653
 30
0.0
 40
22.928203228139491
 50
252.412046224314
 51
287.58795377568589
  0
ARC
  5
5F16
  8
0
 10
167.68995518485389
 20
67.358698495492945
 30
0.0
 40
6.1339745957208196
 50
244.38424746984029
 51
304.38424747120411
  0
LINE
  5
5F17
  8
0
 10
164.22585356969441
 20
62.296520669601477
 30
0.0
 11
166.58226003037521
 21
60.936048765207261
 31
0.0
  0
LINE
  5
5F18
  8
0
 10
164.22585356969441
 20
69.575576860813044
 30
0.0
 11
166.58226003037521
 21
70.936048765207261
 31
0.0
  0
ARC
  5
5F19
  8
0
 10
167.68995518485389
 20
64.513399034921576
 30
0.0
 40
6.1339745957208196
 50
55.615752528798787
 51
115.6157525301594
  0
ARC
  5
5F1A
  8
0
 10
178.08226003026741
 20
47.719170402502861
 30
0.0
 40
22.928203228139491
 50
72.412046224314096
 51
107.5879537756858
  0
LINE
  5
5F1B
  8
0
 10
169.5822600302134
 20
54.436048765135851
 30
0.0
 11
186.5822600302134
 21
54.436048765135851
 31
0.0
  0
LINE
  5
5F1C
  8
0
 10
160.08226004486431
 20
113.358698504476
 30
0.0
 11
160.08226004486431
 21
95.513399025938043
 31
0.0
  0
LINE
  5
5F1D
  8
0
 10
161.08226003021349
 20
113.9360487652072
 30
0.0
 11
160.08226004486431
 21
113.358698504476
 31
0.0
  0
ARC
  5
5F1E
  8
0
 10
169.08226003753879
 20
87.363507997163879
 30
0.0
 40
25.995190507312159
 50
69.743841999652673
 51
110.2561580003473
  0
ARC
  5
5F1F
  8
0
 10
169.08226003753879
 20
121.5085895332502
 30
0.0
 40
25.995190507312159
 50
249.7438419996526
 51
290.25615800034728
  0
LINE
  5
5F20
  8
0
 10
161.08226003021349
 20
94.936048765207232
 30
0.0
 11
160.08226004486431
 21
95.513399025938043
 31
0.0
  0
LINE
  5
5F21
  8
0
 10
195.08226003021321
 20
94.936048765207232
 30
0.0
 11
196.0822600155625
 21
95.513399025938043
 31
0.0
  0
ARC
  5
5F22
  8
0
 10
187.08226002288799
 20
121.5085895332502
 30
0.0
 40
25.995190507312159
 50
249.7438419996526
 51
290.25615800034728
  0
ARC
  5
5F23
  8
0
 10
187.08226002288799
 20
87.363507997163879
 30
0.0
 40
25.995190507312159
 50
69.743841999652673
 51
110.2561580003473
  0
LINE
  5
5F24
  8
0
 10
195.08226003021321
 20
113.9360487652072
 30
0.0
 11
196.0822600155625
 21
113.358698504476
 31
0.0
  0
LINE
  5
5F25
  8
0
 10
161.08226003021349
 20
113.9360487652072
 30
0.0
 11
195.08226003021329
 21
113.9360487652072
 31
0.0
  0
LINE
  5
5F26
  8
0
 10
196.0822600155625
 20
113.358698504476
 30
0.0
 11
196.0822600155625
 21
95.513399025938043
 31
0.0
  0
LINE
  5
5F27
  8
0
 10
161.08226003021349
 20
94.936048765207232
 30
0.0
 11
195.08226003021329
 21
94.936048765207232
 31
0.0
  0
LINE
  5
5F28
  8
0
 10
178.0822600302134
 20
111.75100335120371
 30
0.0
 11
178.0822600302134
 21
97.121094179210303
 31
0.0
  0
LINE
  5
5F29
  8
0
 10
190.0822600302134
 20
113.9360487652072
 30
0.0
 11
190.0822600302134
 21
165.9360487652072
 31
0.0
  0
LINE
  5
5F2A
  8
3
 10
188.45826003021341
 20
113.9360487652072
 30
0.0
 11
188.45826003021341
 21
167.560048765207
 31
0.0
  0
LINE
  5
5F2B
  8
0
 10
166.0822600302134
 20
113.9360487652072
 30
0.0
 11
166.0822600302134
 21
165.93604876520769
 31
0.0
  0
LINE
  5
5F2C
  8
3
 10
167.7062600302136
 20
113.93604876520681
 30
0.0
 11
167.7062600302136
 21
167.56004876520751
 31
0.0
  0
CIRCLE
  5
5F2D
  8
3
 10
55.804473127027912
 20
240.61893989190941
 30
0.0
 40
10.375999999999999
  0
CIRCLE
  5
5F2E
  8
0
 10
55.804473127027912
 20
240.61893989190941
 30
0.0
 40
12.0
  0
CIRCLE
  5
5F2F
  8
0
 10
55.804473127027912
 20
240.61893989190941
 30
0.0
 40
17.0
  0
LINE
  5
5F30
  8
0
 10
45.41216829006764
 20
258.6189398772583
 30
0.0
 11
66.196777980892819
 21
258.6189398772583
 31
0.0
  0
LINE
  5
5F31
  8
0
 10
66.196777963985312
 20
258.6189398772438
 30
0.0
 11
76.589082809401546
 21
240.6189398772583
 31
0.0
  0
LINE
  5
5F32
  8
0
 10
76.589082800928693
 20
240.61893989191211
 30
0.0
 11
66.19677795551975
 21
222.61893989191211
 31
0.0
  0
LINE
  5
5F33
  8
0
 10
66.196777963974384
 20
222.6189399065658
 30
0.0
 11
45.412168273149213
 21
222.6189399065658
 31
0.0
  0
LINE
  5
5F34
  8
0
 10
45.412168290069467
 20
222.6189399065658
 30
0.0
 11
35.019863444653261
 21
240.61893990656591
 31
0.0
  0
LINE
  5
5F35
  8
0
 10
35.019863453126113
 20
240.61893989191211
 30
0.0
 11
45.41216829853505
 21
258.61893989191208
 31
0.0
  0
ARC
  5
5F36
  8
0
 10
55.804473127030057
 20
45.614909382947872
 30
0.0
 40
12.25
 50
31.065080896359511
 51
46.062160114264472
  0
LINE
  5
5F37
  8
0
 10
169.0822600302134
 20
168.9360487652072
 30
0.0
 11
187.0822600302134
 21
168.9360487652072
 31
0.0
  0
LINE
  5
5F38
  8
0
 10
166.0822600302134
 20
165.93604876520769
 30
0.0
 11
169.0822600302134
 21
168.9360487652072
 31
0.0
  0
LINE
  5
5F39
  8
0
 10
187.0822600302134
 20
168.9360487652072
 30
0.0
 11
190.0822600302134
 21
165.9360487652072
 31
0.0
  0
LINE
  5
5F3A
  8
0
 10
166.0822600302134
 20
165.93604876520769
 30
0.0
 11
190.0822600302134
 21
165.9360487652072
 31
0.0
  0
LINE
  5
5F3B
  8
0
 10
190.0822600302134
 20
113.9360487652072
 30
0.0
 11
190.0822600302134
 21
165.9360487652072
 31
0.0
  0
LINE
  5
5F3C
  8
3
 10
188.45826003021341
 20
113.9360487652072
 30
0.0
 11
188.45826003021341
 21
167.560048765207
 31
0.0
  0
LINE
  5
5F3D
  8
0
 10
166.0822600302134
 20
113.9360487652072
 30
0.0
 11
166.0822600302134
 21
165.93604876520769
 31
0.0
  0
LINE
  5
5F3E
  8
3
 10
167.7062600302136
 20
113.93604876520681
 30
0.0
 11
167.7062600302136
 21
167.56004876520751
 31
0.0
  0
LINE
  5
5F3F
  8
3
 10
66.180473127030041
 20
75.936048765207715
 30
0.0
 11
67.804473127030064
 21
73.123198253715827
 31
0.0
  0
LINE
  5
5F40
  8
3
 10
45.428473127030088
 20
75.936048765207715
 30
0.0
 11
43.80447312703005
 21
73.123198253715827
 31
0.0
  0
LINE
  5
5F41
  8
0
 10
67.804473127030064
 20
75.936048765207715
 30
0.0
 11
43.80447312703005
 21
75.936048765207715
 31
0.0
  0
LINE
  5
5F42
  8
0
 10
43.80447312703005
 20
165.93604876520811
 30
0.0
 11
67.804473127030064
 21
165.93604876520769
 31
0.0
  0
LINE
  5
5F43
  8
0
 10
64.804473127030064
 20
168.93604876520769
 30
0.0
 11
67.804473127030064
 21
165.93604876520769
 31
0.0
  0
LINE
  5
5F44
  8
0
 10
43.80447312703005
 20
165.93604876520811
 30
0.0
 11
46.80447312703005
 21
168.93604876520811
 31
0.0
  0
LINE
  5
5F45
  8
0
 10
43.80447312703005
 20
70.647373630594032
 30
0.0
 11
43.80447312703005
 21
94.936048765207232
 31
0.0
  0
LINE
  5
5F46
  8
3
 10
45.428473127030088
 20
75.936048765207715
 30
0.0
 11
45.428473127030088
 21
94.936048765207232
 31
0.0
  0
LINE
  5
5F47
  8
3
 10
66.180473127030083
 20
75.936048765207715
 30
0.0
 11
66.180473127030083
 21
94.936048765207232
 31
0.0
  0
LINE
  5
5F48
  8
0
 10
67.804473127030064
 20
70.647373630632373
 30
0.0
 11
67.804473127030064
 21
94.936048765207232
 31
0.0
  0
LINE
  5
5F49
  8
0
 10
46.80447312703005
 20
168.93604876520811
 30
0.0
 11
64.804473127030064
 21
168.93604876520769
 31
0.0
  0
LINE
  5
5F4A
  8
0
 10
64.304473127030064
 20
60.93604876515041
 30
0.0
 11
64.304473127030064
 21
54.43604876513632
 31
0.0
  0
LINE
  5
5F4B
  8
0
 10
47.30447312703005
 20
60.93604876515041
 30
0.0
 11
47.30447312703005
 21
54.436048765164507
 31
0.0
  0
LINE
  5
5F4C
  8
0
 10
67.304473127063261
 20
60.93604876513087
 30
0.0
 11
44.304473126996861
 21
60.936048765169517
 31
0.0
  0
LINE
  5
5F4D
  8
0
 10
44.304473126996861
 20
70.936048765169517
 30
0.0
 11
67.304473127063261
 21
70.93604876520817
 31
0.0
  0
ARC
  5
5F4E
  8
0
 10
49.804473127063247
 20
53.31724661327074
 30
0.0
 40
17.330127017333279
 50
69.74384199763081
 51
110.2561580023692
  0
LINE
  5
5F4F
  8
0
 10
43.804473127048247
 20
70.647373630604534
 30
0.0
 11
44.304473127063261
 21
70.93604876520817
 31
0.0
  0
LINE
  5
5F50
  8
0
 10
43.804473127048247
 20
61.224723899734499
 30
0.0
 11
44.304473127063261
 21
60.93604876513087
 31
0.0
  0
ARC
  5
5F51
  8
0
 10
49.804473127063247
 20
78.554850917067824
 30
0.0
 40
17.330127017333279
 50
249.74384199763071
 51
290.2561580023692
  0
LINE
  5
5F52
  8
0
 10
43.804473127048247
 20
70.647373630604534
 30
0.0
 11
43.804473127063247
 21
61.224723899725852
 31
0.0
  0
LINE
  5
5F53
  8
0
 10
55.804473127063261
 20
62.296520669563719
 30
0.0
 11
55.804473127063261
 21
69.5755768607753
 31
0.0
  0
LINE
  5
5F54
  8
0
 10
67.804473127078253
 20
70.647373630604534
 30
0.0
 11
67.804473127063261
 21
61.224723899725852
 31
0.0
  0
ARC
  5
5F55
  8
0
 10
61.804473127063247
 20
78.554850917067824
 30
0.0
 40
17.330127017333279
 50
249.74384199763071
 51
290.2561580023692
  0
LINE
  5
5F56
  8
0
 10
67.804473127078253
 20
61.224723899734499
 30
0.0
 11
67.304473127063261
 21
60.93604876513087
 31
0.0
  0
LINE
  5
5F57
  8
0
 10
67.804473127078253
 20
70.647373630604534
 30
0.0
 11
67.304473127063261
 21
70.93604876520817
 31
0.0
  0
ARC
  5
5F58
  8
0
 10
61.804473127063247
 20
53.31724661327074
 30
0.0
 40
17.330127017333279
 50
69.74384199763081
 51
110.2561580023692
  0
ARC
  5
5F59
  8
0
 10
55.804473127030057
 20
45.614909382947872
 30
0.0
 40
12.25
 50
133.93783988554779
 51
148.93491910364051
  0
LINE
  5
5F5A
  8
0
 10
47.30447312703005
 20
54.436048765164507
 30
0.0
 11
64.304473127030064
 21
54.43604876513632
 31
0.0
  0
LINE
  5
5F5B
  8
0
 10
76.589082800928111
 20
111.7510033512042
 30
0.0
 11
76.589082800928111
 21
97.121094179211255
 31
0.0
  0
LINE
  5
5F5C
  8
0
 10
72.804473127028942
 20
113.9360487652072
 30
0.0
 11
76.589082800928111
 21
111.7510033512042
 31
0.0
  0
ARC
  5
5F5D
  8
0
 10
71.392930382453187
 20
104.1577366176232
 30
0.0
 40
9.2009618868538041
 50
64.384247467924979
 51
124.38424746794441
  0
ARC
  5
5F5E
  8
0
 10
71.392930382453187
 20
104.7143609127922
 30
0.0
 40
9.2009618868538041
 50
235.61575253205561
 51
295.61575253207502
  0
LINE
  5
5F5F
  8
0
 10
72.804473127028942
 20
94.936048765207232
 30
0.0
 11
76.589082800928111
 21
97.121094179211255
 31
0.0
  0
LINE
  5
5F60
  8
0
 10
38.804473127029041
 20
94.936048765207232
 30
0.0
 11
35.019863453129801
 21
97.121094179211255
 31
0.0
  0
ARC
  5
5F61
  8
0
 10
40.216015871604711
 20
104.7143609127922
 30
0.0
 40
9.2009618868538041
 50
244.38424746792481
 51
304.38424746794431
  0
ARC
  5
5F62
  8
0
 10
55.804473127030967
 20
129.90570384345551
 30
0.0
 40
34.392304817516766
 50
252.41204622606429
 51
287.58795377393722
  0
ARC
  5
5F63
  8
0
 10
40.216015871604711
 20
104.1577366176232
 30
0.0
 40
9.2009618868538041
 50
55.615752532055588
 51
115.61575253207501
  0
ARC
  5
5F64
  8
0
 10
55.804473127030967
 20
78.966393686959918
 30
0.0
 40
34.392304817516766
 50
72.412046226062685
 51
107.5879537739373
  0
LINE
  5
5F65
  8
0
 10
66.196777963982186
 20
111.7510033512042
 30
0.0
 11
66.196777963982186
 21
97.121094179211255
 31
0.0
  0
LINE
  5
5F66
  8
0
 10
45.412168290079919
 20
111.7510033512042
 30
0.0
 11
45.412168290079919
 21
97.121094179211255
 31
0.0
  0
LINE
  5
5F67
  8
0
 10
38.804473127029041
 20
113.9360487652072
 30
0.0
 11
35.019863453129801
 21
111.7510033512042
 31
0.0
  0
LINE
  5
5F68
  8
0
 10
35.019863453129801
 20
111.7510033512042
 30
0.0
 11
35.019863453129801
 21
97.121094179211255
 31
0.0
  0
LINE
  5
5F69
  8
0
 10
38.804473127028977
 20
94.936048765207232
 30
0.0
 11
72.804473127028942
 21
94.936048765207232
 31
0.0
  0
LINE
  5
5F6A
  8
0
 10
38.804473127029098
 20
113.9360487652072
 30
0.0
 11
72.804473127028942
 21
113.9360487652072
 31
0.0
  0
LINE
  5
5F6B
  8
0
 10
67.804473127030064
 20
113.9360487652072
 30
0.0
 11
67.804473127030064
 21
165.93604876520769
 31
0.0
  0
LINE
  5
5F6C
  8
3
 10
66.180473127030083
 20
113.9360487652072
 30
0.0
 11
66.180473127030083
 21
167.56004876520791
 31
0.0
  0
LINE
  5
5F6D
  8
3
 10
45.428473127030088
 20
113.9360487652072
 30
0.0
 11
45.428473127030088
 21
167.56004876520791
 31
0.0
  0
LINE
  5
5F6E
  8
0
 10
43.80447312703005
 20
113.9360487652072
 30
0.0
 11
43.80447312703005
 21
165.93604876520811
 31
0.0
  0
LINE
  5
5F7E
  8
0
 10
95.804473127027919
 20
27.936048765207708
 30
0.0
 11
15.804473127027901
 21
27.936048765207708
 31
0.0
  0
LINE
  5
5F7F
  8
0
 10
95.804473127027919
 20
27.936048765207708
 30
0.0
 11
95.804473127027919
 21
36.780753433497239
 31
0.0
  0
CIRCLE
  5
5F81
  8
0
 10
55.804473127027912
 20
240.61893989190941
 30
0.0
 40
40.00000000000005
  0
LINE
  5
5F82
  8
1
 10
55.804473127027912
 20
286.33322560619467
 30
0.0
 11
55.804473127027912
 21
194.90465417762309
 31
0.0
  0
LINE
  5
5F83
  8
1
 10
101.5187588413137
 20
240.61893989190941
 30
0.0
 11
10.090187412742109
 21
240.61893989190941
 31
0.0
  0
LINE
  5
5F84
  8
0
 10
89.304473127027919
 20
39.967552531742278
 30
0.0
 11
22.304473127027912
 21
39.967552531742278
 31
0.0
  0
LINE
  5
5F85
  8
0
 10
83.304473127027904
 20
44.338577493807627
 30
0.0
 11
28.304473127027912
 21
44.338577493807627
 31
0.0
  0
LINE
  5
5F86
  8
0
 10
76.65491617810369
 20
47.234787363467817
 30
0.0
 11
34.95403007595224
 21
47.234787363467817
 31
0.0
  0
LINE
  5
5F87
  8
0
 10
69.804473127027904
 20
51.936048765207723
 30
0.0
 11
41.80447312702789
 21
51.936048765207723
 31
0.0
  0
LINE
  5
5F88
  8
0
 10
89.304473127027919
 20
39.967552531742278
 30
0.0
 11
89.304473127027919
 21
40.808939612489439
 31
0.0
  0
LINE
  5
5F89
  8
0
 10
89.304473127027919
 20
39.967552531742278
 30
0.0
 11
95.163452206336842
 21
37.714099039700393
 31
0.0
  0
LINE
  5
5F8A
  8
0
 10
83.304473127027904
 20
44.338577493807627
 30
0.0
 11
88.739949309416033
 21
41.709139864973842
 31
0.0
  0
LINE
  5
5F8B
  8
0
 10
76.654916178103562
 20
47.234787363467817
 30
0.0
 11
82.532572240496023
 21
45.857798944081637
 31
0.0
  0
LINE
  5
5F8C
  8
0
 10
70.804473127027904
 20
50.338577493807627
 30
0.0
 11
40.804473127027897
 21
50.338577493807627
 31
0.0
  0
LINE
  5
5F8D
  8
0
 10
70.804473127027904
 20
50.338577493807627
 30
0.0
 11
75.964636676817918
 21
48.657717209016262
 31
0.0
  0
LINE
  5
5F8E
  8
0
 10
70.804473127027904
 20
50.936048765207708
 30
0.0
 11
70.804473127027904
 21
50.338577493807627
 31
0.0
  0
LINE
  5
5F8F
  8
0
 10
83.304473127027904
 20
44.338577493807627
 30
0.0
 11
83.304473127027904
 21
44.884161026560598
 31
0.0
  0
LINE
  5
5F90
  8
0
 10
76.654916178103562
 20
47.234787363467817
 30
0.0
 11
76.654916178103562
 21
47.706889562870167
 31
0.0
  0
ARC
  5
5F91
  8
0
 10
69.804473127027904
 20
50.936048765207708
 30
0.0
 40
1.0
 50
359.99999999999881
 51
90.0
  0
ARC
  5
5F92
  8
0
 10
75.654916178103562
 20
47.706889562870167
 30
0.0
 40
1.0
 50
0.0
 51
71.957612741641725
  0
ARC
  5
5F93
  8
0
 10
82.304473127027904
 20
44.884161026560598
 30
0.0
 40
1.0
 50
0.0
 51
76.814815600247385
  0
ARC
  5
5F94
  8
0
 10
94.804473127027904
 20
36.780753433497239
 30
0.0
 40
1.0
 50
0.0
 51
68.962488974578363
  0
ARC
  5
5F95
  8
0
 10
88.304473127027919
 20
40.808939612489439
 30
0.0
 40
1.0
 50
0.0
 51
64.184402028349112
  0
ARC
  5
5F97
  8
0
 10
23.304473127027912
 20
40.808939612489439
 30
0.0
 40
1.0
 50
115.8155979716511
 51
180.0
  0
ARC
  5
5F98
  8
0
 10
16.804473127027791
 20
36.780753433497239
 30
0.0
 40
1.0
 50
111.03751102542159
 51
180.0
  0
ARC
  5
5F99
  8
0
 10
29.304473127027912
 20
44.884161026560598
 30
0.0
 40
1.0
 50
103.185184399753
 51
180.0
  0
ARC
  5
5F9A
  8
0
 10
35.954030075952232
 20
47.706889562870167
 30
0.0
 40
1.0
 50
108.0423872583583
 51
180.0
  0
ARC
  5
5F9B
  8
0
 10
41.80447312702789
 20
50.936048765207708
 30
0.0
 40
1.0
 50
90.0
 51
180.0000000000008
  0
LINE
  5
5F9C
  8
0
 10
34.95403007595224
 20
47.234787363467817
 30
0.0
 11
34.95403007595224
 21
47.706889562870167
 31
0.0
  0
LINE
  5
5F9D
  8
0
 10
28.304473127027912
 20
44.338577493807627
 30
0.0
 11
28.304473127027912
 21
44.884161026560598
 31
0.0
  0
LINE
  5
5F9E
  8
0
 10
40.804473127027897
 20
50.936048765207708
 30
0.0
 11
40.804473127027897
 21
50.338577493807627
 31
0.0
  0
LINE
  5
5F9F
  8
0
 10
40.804473127027897
 20
50.338577493807627
 30
0.0
 11
35.644309577237891
 21
48.657717209016262
 31
0.0
  0
LINE
  5
5FA0
  8
0
 10
34.95403007595224
 20
47.234787363467817
 30
0.0
 11
29.076374013559761
 21
45.857798944081637
 31
0.0
  0
LINE
  5
5FA1
  8
0
 10
28.304473127027912
 20
44.338577493807627
 30
0.0
 11
22.868996944639768
 21
41.709139864973842
 31
0.0
  0
LINE
  5
5FA2
  8
0
 10
22.304473127027912
 20
39.967552531742278
 30
0.0
 11
16.44549404771896
 21
37.714099039700393
 31
0.0
  0
LINE
  5
5FA3
  8
0
 10
22.304473127027912
 20
39.967552531742278
 30
0.0
 11
22.304473127027912
 21
40.808939612489439
 31
0.0
  0
LINE
  5
5FA4
  8
0
 10
15.804473127027901
 20
27.936048765207708
 30
0.0
 11
15.804473127027791
 21
36.780753433497239
 31
0.0
  0
CIRCLE
  5
5FA6
  8
0
 10
55.804473127027912
 20
240.61893989190941
 30
0.0
 40
33.5
  0
CIRCLE
  5
5FA7
  8
0
 10
55.804473127027912
 20
240.61893989190941
 30
0.0
 40
27.5
  0
CIRCLE
  5
5FA8
  8
0
 10
55.804473127027912
 20
240.61893989190941
 30
0.0
 40
20.850443051075668
  0
LINE
  5
5FAA
  8
0
 10
138.08226003021349
 20
27.936048765207708
 30
0.0
 11
138.08226003021349
 21
36.780753433497239
 31
0.0
  0
LINE
  5
5FAB
  8
0
 10
144.5822600302134
 20
39.967552531742278
 30
0.0
 11
144.5822600302134
 21
40.808939612489439
 31
0.0
  0
LINE
  5
5FAC
  8
0
 10
144.5822600302134
 20
39.967552531742278
 30
0.0
 11
138.72328095090461
 21
37.714099039700393
 31
0.0
  0
LINE
  5
5FAD
  8
0
 10
150.5822600302134
 20
44.338577493807627
 30
0.0
 11
145.14678384782539
 21
41.709139864973842
 31
0.0
  0
LINE
  5
5FAE
  8
0
 10
157.2318169791379
 20
47.234787363467817
 30
0.0
 11
151.35416091674551
 21
45.857798944081637
 31
0.0
  0
LINE
  5
5FAF
  8
0
 10
163.0822600302134
 20
50.338577493807627
 30
0.0
 11
157.92209648042351
 21
48.657717209016262
 31
0.0
  0
LINE
  5
5FB0
  8
0
 10
163.0822600302134
 20
50.936048765207708
 30
0.0
 11
163.0822600302134
 21
50.338577493807627
 31
0.0
  0
LINE
  5
5FB1
  8
0
 10
150.5822600302134
 20
44.338577493807627
 30
0.0
 11
150.5822600302134
 21
44.884161026560598
 31
0.0
  0
LINE
  5
5FB2
  8
0
 10
157.2318169791379
 20
47.234787363467817
 30
0.0
 11
157.2318169791379
 21
47.706889562870167
 31
0.0
  0
ARC
  5
5FB3
  8
0
 10
164.0822600302134
 20
50.936048765207708
 30
0.0
 40
1.0
 50
90.0
 51
180.0000000000008
  0
ARC
  5
5FB4
  8
0
 10
158.2318169791379
 20
47.706889562870167
 30
0.0
 40
1.0
 50
108.04238725835749
 51
180.0
  0
ARC
  5
5FB5
  8
0
 10
151.5822600302134
 20
44.884161026560598
 30
0.0
 40
1.0
 50
103.1851843997526
 51
180.0
  0
ARC
  5
5FB6
  8
0
 10
139.08226003021349
 20
36.780753433497239
 30
0.0
 40
1.0
 50
111.0375110254224
 51
180.0
  0
ARC
  5
5FB7
  8
0
 10
145.5822600302134
 20
40.808939612489439
 30
0.0
 40
1.0
 50
115.8155979716509
 51
180.0
  0
ARC
  5
5FB9
  8
0
 10
210.5822600302134
 20
40.808939612489439
 30
0.0
 40
1.0
 50
0.0
 51
64.184402028349112
  0
ARC
  5
5FBA
  8
0
 10
217.0822600302134
 20
36.780753433497239
 30
0.0
 40
1.0
 50
0.0
 51
68.962488974577596
  0
ARC
  5
5FBB
  8
0
 10
204.5822600302134
 20
44.884161026560598
 30
0.0
 40
1.0
 50
0.0
 51
76.814815600247385
  0
ARC
  5
5FBC
  8
0
 10
197.93270308128919
 20
47.706889562870167
 30
0.0
 40
1.0
 50
0.0
 51
71.957612741642507
  0
ARC
  5
5FBD
  8
0
 10
192.0822600302134
 20
50.936048765207708
 30
0.0
 40
1.0
 50
359.99999999999881
 51
90.0
  0
LINE
  5
5FBE
  8
0
 10
198.93270308128919
 20
47.234787363467817
 30
0.0
 11
198.93270308128919
 21
47.706889562870167
 31
0.0
  0
LINE
  5
5FBF
  8
0
 10
205.5822600302136
 20
44.338577493807627
 30
0.0
 11
205.5822600302136
 21
44.884161026560598
 31
0.0
  0
LINE
  5
5FC0
  8
0
 10
193.0822600302134
 20
50.936048765207708
 30
0.0
 11
193.0822600302134
 21
50.338577493807627
 31
0.0
  0
LINE
  5
5FC1
  8
0
 10
193.0822600302134
 20
50.338577493807627
 30
0.0
 11
198.2424235800035
 21
48.657717209016262
 31
0.0
  0
LINE
  5
5FC2
  8
0
 10
193.0822600302134
 20
50.338577493807627
 30
0.0
 11
163.0822600302134
 21
50.338577493807627
 31
0.0
  0
LINE
  5
5FC3
  8
0
 10
198.93270308128919
 20
47.234787363467817
 30
0.0
 11
204.81035914368161
 21
45.857798944081637
 31
0.0
  0
LINE
  5
5FC4
  8
0
 10
205.5822600302136
 20
44.338577493807627
 30
0.0
 11
211.0177362126017
 21
41.709139864973842
 31
0.0
  0
LINE
  5
5FC5
  8
0
 10
211.5822600302136
 20
39.967552531742278
 30
0.0
 11
217.44123910952251
 21
37.714099039700393
 31
0.0
  0
LINE
  5
5FC6
  8
0
 10
211.5822600302136
 20
39.967552531742278
 30
0.0
 11
211.5822600302136
 21
40.808939612489439
 31
0.0
  0
LINE
  5
5FC7
  8
0
 10
192.0822600302134
 20
51.936048765207723
 30
0.0
 11
164.0822600302134
 21
51.936048765207723
 31
0.0
  0
LINE
  5
5FC8
  8
0
 10
198.93270308128919
 20
47.234787363467817
 30
0.0
 11
157.2318169791379
 21
47.234787363467817
 31
0.0
  0
LINE
  5
5FC9
  8
0
 10
205.5822600302136
 20
44.338577493807627
 30
0.0
 11
150.5822600302134
 21
44.338577493807627
 31
0.0
  0
LINE
  5
5FCA
  8
0
 10
211.5822600302136
 20
39.967552531742278
 30
0.0
 11
144.5822600302134
 21
39.967552531742278
 31
0.0
  0
LINE
  5
5FCC
  8
0
 10
218.0822600302136
 20
27.936048765207708
 30
0.0
 11
218.0822600302136
 21
36.780753433497239
 31
0.0
  0
LINE
  5
5FCD
  8
0
 10
218.0822600302136
 20
27.936048765207708
 30
0.0
 11
138.08226003021349
 21
27.936048765207708
 31
0.0
  0
ARC
  5
5FCE
  8
0
 10
55.804473127024963
 20
45.606314946405071
 30
0.0
 40
12.25
 50
133.87987710304881
 51
148.88797918026799
  0
LINE
  5
5FCF
  8
1
 10
55.80447312702784
 20
22.936048765207708
 30
0.0
 11
55.804473127030178
 21
173.93604876520769
 31
0.0
  0
LINE
  5
5FD0
  8
1
 10
178.0822600302134
 20
173.9360487652072
 30
0.0
 11
178.0822600302134
 21
22.936048765207708
 31
0.0
  0
TEXT
  5
634C
  8
0
 62
     3
 10
0.0
 20
0.0
 30
0.0
 40
10.0
  1
LVA80L24A-SUS
  7
STANDARD1
  0
ENDSEC
  0
EOF
