  0
SECTION
  2
HEADER
  9
$ACADVER
  1
AC1009
  9
$INSBASE
 10
0.0
 20
0.0
 30
0.0
  9
$EXTMIN
 10
0.0
 20
-2.960436562073669
 30
0.0
  9
$EXTMAX
 10
211.63393238242739
 20
236.5085282690869
 30
0.0
  9
$LIMMIN
 10
0.0
 20
0.0
  9
$LIMMAX
 10
375.0
 20
270.0
  9
$ORTHOMODE
 70
     1
  9
$REGENMODE
 70
     1
  9
$FILLMODE
 70
     1
  9
$QTEXTMODE
 70
     0
  9
$MIRRTEXT
 70
     0
  9
$DRAGMODE
 70
     2
  9
$LTSCALE
 40
6.0
  9
$OSMODE
 70
    37
  9
$ATTMODE
 70
     1
  9
$TEXTSIZE
 40
0.2
  9
$TRACEWID
 40
0.05
  9
$TEXTSTYLE
  7
STANDARD
  9
$CLAYER
  8
0
  9
$CELTYPE
  6
BYLAYER
  9
$CECOLOR
 62
   256
  9
$DIMSCALE
 40
1.0
  9
$DIMASZ
 40
3.0
  9
$DIMEXO
 40
1.0
  9
$DIMDLI
 40
6.0
  9
$DIMRND
 40
0.0
  9
$DIMDLE
 40
0.0
  9
$DIMEXE
 40
1.0
  9
$DIMTP
 40
495.0
  9
$DIMTM
 40
0.0
  9
$DIMTXT
 40
3.0
  9
$DIMCEN
 40
0.0
  9
$DIMTSZ
 40
0.0
  9
$DIMTOL
 70
     0
  9
$DIMLIM
 70
     0
  9
$DIMTIH
 70
     0
  9
$DIMTOH
 70
     0
  9
$DIMSE1
 70
     0
  9
$DIMSE2
 70
     0
  9
$DIMTAD
 70
     1
  9
$DIMZIN
 70
     0
  9
$DIMBLK
  1

  9
$DIMASO
 70
     0
  9
$DIMSHO
 70
     0
  9
$DIMPOST
  1

  9
$DIMAPOST
  1

  9
$DIMALT
 70
     0
  9
$DIMALTD
 70
     2
  9
$DIMALTF
 40
25.399999999999999
  9
$DIMLFAC
 40
1.0
  9
$DIMTOFL
 70
     1
  9
$DIMTVP
 40
0.0
  9
$DIMTIX
 70
     1
  9
$DIMSOXD
 70
     0
  9
$DIMSAH
 70
     0
  9
$DIMBLK1
  1

  9
$DIMBLK2
  1

  9
$DIMSTYLE
  2
STANDARD
  9
$DIMCLRD
 70
     0
  9
$DIMCLRE
 70
     0
  9
$DIMCLRT
 70
     4
  9
$DIMTFAC
 40
1.0
  9
$DIMGAP
 40
1.0
  9
$LUNITS
 70
     2
  9
$LUPREC
 70
     4
  9
$SKETCHINC
 40
0.1
  9
$FILLETRAD
 40
2.0
  9
$AUNITS
 70
     0
  9
$AUPREC
 70
     0
  9
$MENU
  1
C:\R13\WIN\SUPPORT\ACAD-I
  9
$ELEVATION
 40
0.0
  9
$PELEVATION
 40
0.0
  9
$THICKNESS
 40
0.0
  9
$LIMCHECK
 70
     0
  9
$BLIPMODE
 70
     0
  9
$CHAMFERA
 40
0.0
  9
$CHAMFERB
 40
0.0
  9
$SKPOLY
 70
     0
  9
$TDCREATE
 40
2451962.4545599418
  9
$TDUPDATE
 40
2456598.7197797112
  9
$TDINDWG
 40
0.0532493634
  9
$TDUSRTIMER
 40
2456598.0447928929
  9
$USRTIMER
 70
     1
  9
$ANGBASE
 50
0.0
  9
$ANGDIR
 70
     0
  9
$PDMODE
 70
     0
  9
$PDSIZE
 40
0.0
  9
$PLINEWID
 40
0.0
  9
$COORDS
 70
     1
  9
$SPLFRAME
 70
     0
  9
$SPLINETYPE
 70
     6
  9
$SPLINESEGS
 70
     8
  9
$ATTDIA
 70
     0
  9
$ATTREQ
 70
     1
  9
$HANDLING
 70
     1
  9
$HANDSEED
  5
52B4
  9
$SURFTAB1
 70
     6
  9
$SURFTAB2
 70
     6
  9
$SURFTYPE
 70
     6
  9
$SURFU
 70
     6
  9
$SURFV
 70
     6
  9
$UCSNAME
  2

  9
$UCSORG
 10
0.0
 20
0.0
 30
0.0
  9
$UCSXDIR
 10
1.0
 20
0.0
 30
0.0
  9
$UCSYDIR
 10
0.0
 20
1.0
 30
0.0
  9
$PUCSNAME
  2

  9
$PUCSORG
 10
0.0
 20
0.0
 30
0.0
  9
$PUCSXDIR
 10
1.0
 20
0.0
 30
0.0
  9
$PUCSYDIR
 10
0.0
 20
1.0
 30
0.0
  9
$USERI1
 70
     4
  9
$USERI2
 70
     1
  9
$USERI3
 70
     0
  9
$USERI4
 70
     0
  9
$USERI5
 70
     0
  9
$USERR1
 40
1.0
  9
$USERR2
 40
3.0
  9
$USERR3
 40
3.0
  9
$USERR4
 40
3.0
  9
$USERR5
 40
10.0
  9
$WORLDVIEW
 70
     1
  9
$SHADEDGE
 70
     3
  9
$SHADEDIF
 70
    70
  9
$TILEMODE
 70
     1
  9
$MAXACTVP
 70
    16
  9
$PLIMCHECK
 70
     0
  9
$PEXTMIN
 10
1.0000000000000000E+020
 20
1.0000000000000000E+020
 30
1.0000000000000000E+020
  9
$PEXTMAX
 10
-1.0000000000000000E+020
 20
-1.0000000000000000E+020
 30
-1.0000000000000000E+020
  9
$PLIMMIN
 10
0.0
 20
0.0
  9
$PLIMMAX
 10
12.0
 20
9.0
  9
$UNITMODE
 70
     0
  9
$VISRETAIN
 70
     0
  9
$PLINEGEN
 70
     0
  9
$PSLTSCALE
 70
     0
  0
ENDSEC
  0
SECTION
  2
TABLES
  0
TABLE
  2
VPORT
 70
     1
  0
VPORT
  2
*ACTIVE
 70
     0
 10
0.0
 20
0.0
 11
1.0
 21
1.0
 12
187.49427839065231
 22
177.52205812711131
 13
0.0
 23
0.0
 14
10.0
 24
10.0
 15
10.0
 25
10.0
 16
0.0
 26
0.0
 36
1.0
 17
0.0
 27
0.0
 37
0.0
 40
364.13085016302909
 41
1.755244755244755
 42
50.0
 43
0.0
 44
0.0
 50
0.0
 51
0.0
 71
    16
 72
   100
 73
     1
 74
     0
 75
     0
 76
     0
 77
     0
 78
     0
  0
ENDTAB
  0
TABLE
  2
LTYPE
 70
     3
  0
LTYPE
  2
CONTINUOUS
 70
     0
  3
Solid Line
 72
    65
 73
     0
 40
0.0
  0
LTYPE
  2
PHANTOM2
 70
     0
  3
___ _ _ ___ _ _ ___ _ _ ___ _ _
 72
    65
 73
     6
 40
1.25
 49
0.625
 49
-0.125
 49
0.125
 49
-0.125
 49
0.125
 49
-0.125
  0
LTYPE
  2
CENTER
 70
     0
  3
____ _ ____ _ ____ _ ____ _ ____ _ ____ _ ____
 72
    65
 73
     4
 40
2.0
 49
1.25
 49
-0.25
 49
0.25
 49
-0.25
  0
ENDTAB
  0
TABLE
  2
LAYER
 70
     3
  0
LAYER
  2
0
 70
     0
 62
     7
  6
CONTINUOUS
  0
LAYER
  2
1
 70
     0
 62
     1
  6
CENTER
  0
LAYER
  2
3
 70
     0
 62
     3
  6
CONTINUOUS
  0
ENDTAB
  0
TABLE
  2
STYLE
 70
     3
  0
STYLE
  2
STANDARD
 70
     0
 40
0.0
 41
1.0
 50
0.0
 71
     0
 42
0.2
  3
SIMPLEX
  4
BIGFONT
  0
STYLE
  2
ANNOTATIVE
 70
     0
 40
0.0
 41
1.0
 50
0.0
 71
     0
 42
0.2
  3
txt
  4

  0
STYLE
  2
STANDARD1
 70
     0
 40
0.0
 41
1.0
 50
0.0
 71
     0
 42
3.0
  3
txt
  4

  0
ENDTAB
  0
TABLE
  2
VIEW
 70
     0
  0
ENDTAB
  0
TABLE
  2
UCS
 70
     0
  0
ENDTAB
  0
TABLE
  2
APPID
 70
    29
  0
APPID
  2
ACAD
 70
     0
  0
APPID
  2
ACADANNOTATIVE
 70
     0
  0
APPID
  2
GENIUS_GENOREF_13
 70
     0
  0
APPID
  2
GENIUS_GENOENT_13
 70
     0
  0
APPID
  2
GENIUS_GENBH_13
 70
     0
  0
APPID
  2
GENIUS_GENOBJ_13
 70
     0
  0
APPID
  2
GENIUS_GENODEF_13
 70
     0
  0
APPID
  2
GENIUS_GENOLIS_13
 70
     0
  0
APPID
  2
GENIUS_GENOBJ-NBEHI-BHF_13
 70
     0
  0
APPID
  2
GENIUS_GENOBJ-NBEHI-BHB_13
 70
     0
  0
APPID
  2
GENIUS_GENOBJ-F-PART_13
 70
     0
  0
APPID
  2
GENIUS_GEFSTDP_13
 70
     0
  0
APPID
  2
GENIUS_GENOBJ-N-RSSYM_13
 70
     0
  0
APPID
  2
GENIUS_GENSYMENT_13
 70
     0
  0
APPID
  2
GENIUS_GENOBJ-N-TIT_13
 70
     0
  0
APPID
  2
GENIUS_GENTITLE_13
 70
     0
  0
APPID
  2
GENIUS_GENZVEED_13
 70
     0
  0
APPID
  2
GENIUS_GENOBJ-N-LEADER_13
 70
     0
  0
APPID
  2
GENIUS_GENOBJ-N-FIL_13
 70
     0
  0
APPID
  2
GENIUS_GENOBJ-N-SEC_13
 70
     0
  0
APPID
  2
GENIUS_GENOBJ-N-CRS_13
 70
     0
  0
APPID
  2
GENIUS_GENOBJ-N-ZOO_13
 70
     0
  0
APPID
  2
GENIUS_GENZOO_13
 70
     0
  0
APPID
  2
GENIUS_GENOBJ-F-TOL_13
 70
     0
  0
APPID
  2
GENIUS_GENFIL_13
 70
     0
  0
APPID
  2
GENIUS_GENOBJ-N-CHA_13
 70
     0
  0
APPID
  2
ACAD_EXEMPT_FROM_CAD_STANDARDS
 70
     0
  0
APPID
  2
ACAD_MLEADERVER
 70
     0
  0
APPID
  2
ACAD_NAV_VCDISPLAY
 70
     0
  0
ENDTAB
  0
TABLE
  2
DIMSTYLE
 70
     2
  0
DIMSTYLE
  2
STANDARD
 70
     0
  3

  4

  5

  6

  7

 40
1.0
 41
0.18
 42
0.0625
 43
0.38
 44
0.18
 45
0.0
 46
0.0
 47
0.0
 48
0.0
140
0.18
141
0.09
142
0.0
143
25.399999999999999
144
1.0
145
0.0
146
1.0
147
0.09
 71
     0
 72
     0
 73
     1
 74
     1
 75
     0
 76
     0
 77
     0
 78
     0
170
     0
171
     2
172
     0
173
     0
174
     0
175
     0
176
     0
177
     0
178
     0
  0
DIMSTYLE
  2
ANNOTATIVE
 70
     0
  3

  4

  5

  6

  7

 40
1.0
 41
0.18
 42
0.0625
 43
0.38
 44
0.18
 45
0.0
 46
0.0
 47
0.0
 48
0.0
140
0.18
141
0.09
142
0.0
143
25.399999999999999
144
1.0
145
0.0
146
1.0
147
0.09
 71
     0
 72
     0
 73
     1
 74
     1
 75
     0
 76
     0
 77
     0
 78
     0
170
     0
171
     2
172
     0
173
     0
174
     0
175
     0
176
     0
177
     0
178
     0
  0
ENDTAB
  0
ENDSEC
  0
SECTION
  2
BLOCKS
  0
BLOCK
  8
0
  2
$MODEL_SPACE
 70
     0
 10
0.0
 20
0.0
 30
0.0
  3
$MODEL_SPACE
  1

  0
ENDBLK
  5
517B
  8
0
  0
BLOCK
 67
     1
  8
0
  2
$PAPER_SPACE
 70
     0
 10
0.0
 20
0.0
 30
0.0
  3
$PAPER_SPACE
  1

  0
ENDBLK
  5
5177
 67
     1
  8
0
  0
ENDSEC
  0
SECTION
  2
ENTITIES
  0
LINE
  5
4E17
  8
0
 10
89.356145479241604
 20
26.392963370299981
 30
0.0
 11
9.3561454792415493
 21
26.392963370299981
 31
0.0
  0
LINE
  5
4E18
  8
0
 10
89.356145479241604
 20
26.392963370299981
 30
0.0
 11
89.356145479241718
 21
35.237668038589511
 31
0.0
  0
CIRCLE
  5
4E1A
  8
0
 10
49.356145479241597
 20
190.79424255480109
 30
0.0
 40
40.00000000000005
  0
LINE
  5
4E1B
  8
1
 10
49.356145479241597
 20
236.5085282690869
 30
0.0
 11
49.356145479241597
 21
145.07995684051531
 31
0.0
  0
LINE
  5
4E1C
  8
1
 10
95.070431193527355
 20
190.79424255480109
 30
0.0
 11
3.6418597649558242
 21
190.79424255480109
 31
0.0
  0
LINE
  5
4E1D
  8
0
 10
82.856145479241604
 20
38.424467136834551
 30
0.0
 11
15.856145479241601
 21
38.424467136834551
 31
0.0
  0
LINE
  5
4E1E
  8
0
 10
76.85614547924159
 20
42.795492098899892
 30
0.0
 11
21.856145479241601
 21
42.795492098899892
 31
0.0
  0
LINE
  5
4E1F
  8
0
 10
70.20658853031739
 20
45.691701968560089
 30
0.0
 11
28.505702428165929
 21
45.691701968560089
 31
0.0
  0
LINE
  5
4E20
  8
0
 10
63.35614547924159
 20
50.392963370299967
 30
0.0
 11
35.356145479241597
 21
50.392963370299967
 31
0.0
  0
LINE
  5
4E21
  8
0
 10
82.856145479241604
 20
38.424467136834551
 30
0.0
 11
82.856145479241604
 21
39.265854217581932
 31
0.0
  0
LINE
  5
4E22
  8
0
 10
82.856145479241604
 20
38.424467136834551
 30
0.0
 11
88.715124558550542
 21
36.171013644792652
 31
0.0
  0
LINE
  5
4E23
  8
0
 10
76.85614547924159
 20
42.795492098899892
 30
0.0
 11
82.291621661629662
 21
40.166054470066101
 31
0.0
  0
LINE
  5
4E24
  8
0
 10
70.206588530317276
 20
45.691701968560089
 30
0.0
 11
76.084244592709737
 21
44.314713549173803
 31
0.0
  0
LINE
  5
4E25
  8
0
 10
64.356145479241547
 20
48.795492098899899
 30
0.0
 11
34.356145479241597
 21
48.795492098899793
 31
0.0
  0
LINE
  5
4E26
  8
0
 10
64.356145479241604
 20
48.795492098899899
 30
0.0
 11
69.516309029031603
 21
47.114631814108741
 31
0.0
  0
LINE
  5
4E27
  8
0
 10
64.356145479241604
 20
49.39296337029986
 30
0.0
 11
64.356145479241604
 21
48.795492098899899
 31
0.0
  0
LINE
  5
4E28
  8
0
 10
76.85614547924159
 20
42.795492098899892
 30
0.0
 11
76.85614547924159
 21
43.341075631652529
 31
0.0
  0
LINE
  5
4E29
  8
0
 10
70.206588530317276
 20
45.691701968560089
 30
0.0
 11
70.206588530317276
 21
46.163804167962439
 31
0.0
  0
ARC
  5
4E2A
  8
0
 10
63.35614547924159
 20
49.392963370299981
 30
0.0
 40
1.0
 50
359.99999999999881
 51
90.0
  0
ARC
  5
4E2B
  8
0
 10
69.206588530317276
 20
46.163804167962439
 30
0.0
 40
1.0
 50
0.0
 51
71.957612741641725
  0
ARC
  5
4E2C
  8
0
 10
75.85614547924159
 20
43.341075631652529
 30
0.0
 40
1.0
 50
0.0
 51
76.814815600247385
  0
ARC
  5
4E2D
  8
0
 10
88.35614547924169
 20
35.237668038589511
 30
0.0
 40
1.0
 50
0.0
 51
68.962488974578207
  0
ARC
  5
4E2E
  8
0
 10
81.856145479241576
 20
39.265854217581932
 30
0.0
 40
1.0
 50
0.0
 51
64.184402028348941
  0
ARC
  5
4E30
  8
0
 10
16.856145479241601
 20
39.265854217581932
 30
0.0
 40
1.0
 50
115.8155979716512
 51
180.0
  0
ARC
  5
4E31
  8
0
 10
10.356145479241491
 20
35.237668038589511
 30
0.0
 40
1.0
 50
111.03751102542159
 51
180.0
  0
ARC
  5
4E32
  8
0
 10
22.856145479241601
 20
43.341075631652529
 30
0.0
 40
1.0
 50
103.1851843997528
 51
180.0
  0
ARC
  5
4E33
  8
0
 10
29.505702428165929
 20
46.163804167962439
 30
0.0
 40
1.0
 50
108.0423872583581
 51
180.0
  0
ARC
  5
4E34
  8
0
 10
35.356145479241597
 20
49.392963370299981
 30
0.0
 40
1.0
 50
90.0
 51
180.0000000000008
  0
LINE
  5
4E35
  8
0
 10
28.505702428165929
 20
45.691701968560089
 30
0.0
 11
28.505702428165929
 21
46.163804167962439
 31
0.0
  0
LINE
  5
4E36
  8
0
 10
21.856145479241601
 20
42.795492098899892
 30
0.0
 11
21.856145479241601
 21
43.341075631652529
 31
0.0
  0
LINE
  5
4E37
  8
0
 10
34.356145479241597
 20
49.39296337029986
 30
0.0
 11
34.356145479241597
 21
48.795492098899899
 31
0.0
  0
LINE
  5
4E38
  8
0
 10
34.356145479241597
 20
48.795492098899899
 30
0.0
 11
29.195981929451591
 21
47.114631814108741
 31
0.0
  0
LINE
  5
4E39
  8
0
 10
28.505702428165929
 20
45.691701968560089
 30
0.0
 11
22.628046365773461
 21
44.314713549173803
 31
0.0
  0
LINE
  5
4E3A
  8
0
 10
21.856145479241601
 20
42.795492098899892
 30
0.0
 11
16.420669296853529
 21
40.166054470066101
 31
0.0
  0
LINE
  5
4E3B
  8
0
 10
15.856145479241601
 20
38.424467136834551
 30
0.0
 11
9.9971663999326648
 21
36.171013644792652
 31
0.0
  0
LINE
  5
4E3C
  8
0
 10
15.856145479241601
 20
38.424467136834551
 30
0.0
 11
15.856145479241601
 21
39.265854217581932
 31
0.0
  0
LINE
  5
4E3D
  8
0
 10
9.3561454792415493
 20
26.392963370299981
 30
0.0
 11
9.3561454792414889
 21
35.237668038589511
 31
0.0
  0
CIRCLE
  5
4E3F
  8
0
 10
49.356145479241597
 20
190.79424255480109
 30
0.0
 40
33.5
  0
CIRCLE
  5
4E40
  8
0
 10
49.356145479241597
 20
190.79424255480109
 30
0.0
 40
27.5
  0
CIRCLE
  5
4E41
  8
0
 10
49.356145479241597
 20
190.79424255480109
 30
0.0
 40
20.850443051075668
  0
CIRCLE
  5
4E42
  8
0
 10
49.356145479241597
 20
190.79424255480109
 30
0.0
 40
14.99999999999997
  0
LINE
  5
4E43
  8
1
 10
49.356145479241597
 20
21.392963370299981
 30
0.0
 11
49.356145479241597
 21
132.39296337030001
 31
0.0
  0
LINE
  5
4E44
  8
1
 10
171.63393238242719
 20
21.392963370299981
 30
0.0
 11
171.63393238242719
 21
132.39296337030001
 31
0.0
  0
LINE
  5
4E46
  8
0
 10
131.63393238242719
 20
26.392963370299981
 30
0.0
 11
131.6339323824271
 21
35.237668038589511
 31
0.0
  0
LINE
  5
4E47
  8
0
 10
138.13393238242719
 20
38.424467136834551
 30
0.0
 11
138.13393238242719
 21
39.265854217581932
 31
0.0
  0
LINE
  5
4E48
  8
0
 10
138.13393238242719
 20
38.424467136834551
 30
0.0
 11
132.27495330311831
 21
36.171013644792652
 31
0.0
  0
LINE
  5
4E49
  8
0
 10
144.13393238242719
 20
42.795492098899892
 30
0.0
 11
138.69845620003909
 21
40.166054470066101
 31
0.0
  0
LINE
  5
4E4A
  8
0
 10
150.7834893313514
 20
45.691701968560089
 30
0.0
 11
144.9058332689591
 21
44.314713549173803
 31
0.0
  0
LINE
  5
4E4B
  8
0
 10
156.63393238242719
 20
48.795492098899899
 30
0.0
 11
151.47376883263721
 21
47.114631814108741
 31
0.0
  0
LINE
  5
4E4C
  8
0
 10
156.63393238242719
 20
49.39296337029986
 30
0.0
 11
156.63393238242719
 21
48.795492098899899
 31
0.0
  0
LINE
  5
4E4D
  8
0
 10
144.13393238242719
 20
42.795492098899892
 30
0.0
 11
144.13393238242719
 21
43.341075631652529
 31
0.0
  0
LINE
  5
4E4E
  8
0
 10
150.7834893313514
 20
45.691701968560089
 30
0.0
 11
150.7834893313514
 21
46.163804167962439
 31
0.0
  0
ARC
  5
4E4F
  8
0
 10
157.63393238242719
 20
49.392963370299981
 30
0.0
 40
1.0
 50
90.0
 51
180.0000000000008
  0
ARC
  5
4E50
  8
0
 10
151.7834893313514
 20
46.163804167962439
 30
0.0
 40
1.0
 50
108.04238725835749
 51
180.0
  0
ARC
  5
4E51
  8
0
 10
145.13393238242719
 20
43.341075631652529
 30
0.0
 40
1.0
 50
103.1851843997526
 51
180.0
  0
ARC
  5
4E52
  8
0
 10
132.6339323824271
 20
35.237668038589511
 30
0.0
 40
1.0
 50
111.0375110254224
 51
180.0
  0
ARC
  5
4E53
  8
0
 10
139.13393238242719
 20
39.265854217581932
 30
0.0
 40
1.0
 50
115.8155979716511
 51
180.0
  0
ARC
  5
4E55
  8
0
 10
204.13393238242719
 20
39.265854217581932
 30
0.0
 40
1.0
 50
0.0
 51
64.184402028348941
  0
ARC
  5
4E56
  8
0
 10
210.63393238242739
 20
35.237668038589511
 30
0.0
 40
1.0
 50
0.0
 51
68.962488974577454
  0
ARC
  5
4E57
  8
0
 10
198.13393238242719
 20
43.341075631652529
 30
0.0
 40
1.0
 50
0.0
 51
76.814815600247385
  0
ARC
  5
4E58
  8
0
 10
191.48437543350289
 20
46.163804167962439
 30
0.0
 40
1.0
 50
0.0
 51
71.957612741642507
  0
ARC
  5
4E59
  8
0
 10
185.63393238242719
 20
49.392963370299981
 30
0.0
 40
1.0
 50
359.99999999999881
 51
90.0
  0
LINE
  5
4E5A
  8
0
 10
192.48437543350289
 20
45.691701968560089
 30
0.0
 11
192.48437543350289
 21
46.163804167962439
 31
0.0
  0
LINE
  5
4E5B
  8
0
 10
199.13393238242719
 20
42.795492098899892
 30
0.0
 11
199.13393238242719
 21
43.341075631652529
 31
0.0
  0
LINE
  5
4E5C
  8
0
 10
186.63393238242719
 20
49.39296337029986
 30
0.0
 11
186.63393238242719
 21
48.795492098899899
 31
0.0
  0
LINE
  5
4E5D
  8
0
 10
186.63393238242719
 20
48.795492098899899
 30
0.0
 11
191.79409593221709
 21
47.114631814108741
 31
0.0
  0
LINE
  5
4E5E
  8
0
 10
186.63393238242719
 20
48.795492098899899
 30
0.0
 11
156.63393238242719
 21
48.795492098899793
 31
0.0
  0
LINE
  5
4E5F
  8
0
 10
192.48437543350289
 20
45.691701968560089
 30
0.0
 11
198.36203149589539
 21
44.314713549173803
 31
0.0
  0
LINE
  5
4E60
  8
0
 10
199.13393238242719
 20
42.795492098899892
 30
0.0
 11
204.5694085648154
 21
40.166054470066101
 31
0.0
  0
LINE
  5
4E61
  8
0
 10
205.13393238242719
 20
38.424467136834551
 30
0.0
 11
210.99291146173621
 21
36.171013644792652
 31
0.0
  0
LINE
  5
4E62
  8
0
 10
205.13393238242719
 20
38.424467136834551
 30
0.0
 11
205.13393238242719
 21
39.265854217581932
 31
0.0
  0
LINE
  5
4E63
  8
0
 10
185.63393238242719
 20
50.392963370299967
 30
0.0
 11
157.63393238242719
 21
50.392963370299967
 31
0.0
  0
LINE
  5
4E64
  8
0
 10
192.484375433503
 20
45.691701968560089
 30
0.0
 11
150.7834893313514
 21
45.691701968560089
 31
0.0
  0
LINE
  5
4E65
  8
0
 10
199.13393238242719
 20
42.795492098899892
 30
0.0
 11
144.13393238242719
 21
42.795492098899892
 31
0.0
  0
LINE
  5
4E66
  8
0
 10
205.13393238242719
 20
38.424467136834551
 30
0.0
 11
138.13393238242719
 21
38.424467136834551
 31
0.0
  0
LINE
  5
4E68
  8
0
 10
211.6339323824273
 20
26.392963370299981
 30
0.0
 11
211.63393238242739
 21
35.237668038589511
 31
0.0
  0
LINE
  5
4E69
  8
0
 10
211.6339323824273
 20
26.392963370299981
 30
0.0
 11
131.63393238242719
 21
26.392963370299981
 31
0.0
  0
LINE
  5
4E6A
  8
0
 10
43.871317921940197
 20
181.29424255480109
 30
0.0
 11
54.840973036542891
 21
181.29424255480109
 31
0.0
  0
CIRCLE
  5
4E6B
  8
0
 10
49.356145479241597
 20
190.79424255480109
 30
0.0
 40
9.0
  0
CIRCLE
  5
4E6C
  8
0
 10
49.356145479241597
 20
190.79424255480109
 30
0.0
 40
6.0
  0
CIRCLE
  5
4E6D
  8
3
 10
49.356145479241597
 20
190.79424255480109
 30
0.0
 40
5.052999999999999
  0
LINE
  5
4E6E
  8
0
 10
54.840973036542891
 20
181.29424255480109
 30
0.0
 11
60.325800593844392
 21
190.79424255480109
 31
0.0
  0
LINE
  5
4E6F
  8
0
 10
60.325800593844392
 20
190.79424255480109
 30
0.0
 11
54.840973036543119
 21
200.29424255480109
 31
0.0
  0
LINE
  5
4E70
  8
0
 10
54.840973036543119
 20
200.29424255480109
 30
0.0
 11
43.871317921940317
 21
200.29424255480109
 31
0.0
  0
LINE
  5
4E71
  8
0
 10
43.871317921940317
 20
200.29424255480109
 30
0.0
 11
38.386490364638689
 21
190.79424255480109
 31
0.0
  0
LINE
  5
4E72
  8
0
 10
38.386490364638689
 20
190.79424255480109
 30
0.0
 11
43.871317921940197
 21
181.29424255480109
 31
0.0
  0
LINE
  5
4E73
  8
0
 10
54.856145479241427
 20
50.392963370299519
 30
0.0
 11
54.856145479241427
 21
54.392963370299292
 31
0.0
  0
LINE
  5
4E74
  8
0
 10
43.85614547924142
 20
50.392963370299519
 30
0.0
 11
43.85614547924142
 21
54.392963370299292
 31
0.0
  0
LINE
  5
4E75
  8
0
 10
49.35614547924132
 20
58.612308130869891
 30
0.0
 11
49.35614547924132
 21
55.173618609728791
 31
0.0
  0
LINE
  5
4E76
  8
0
 10
42.356145479241313
 20
59.237522913209091
 30
0.0
 11
42.356145479241313
 21
54.5484038273895
 31
0.0
  0
LINE
  5
4E77
  8
0
 10
56.35614547924132
 20
59.237522913209091
 30
0.0
 11
56.35614547924132
 21
54.5484038273895
 31
0.0
  0
LINE
  5
4E78
  8
0
 10
56.086914710009353
 20
59.392963370299292
 30
0.0
 11
42.62537624847328
 21
59.392963370299292
 31
0.0
  0
ARC
  5
4E79
  8
0
 10
45.856145479241427
 20
49.128282152171657
 30
0.0
 40
10.10924076103746
 50
69.743841999583282
 51
110.2561580004167
  0
LINE
  5
4E7A
  8
0
 10
42.356145479241313
 20
59.237522913209091
 30
0.0
 11
42.62537624847328
 21
59.392963370299292
 31
0.0
  0
LINE
  5
4E7B
  8
0
 10
56.35614547924132
 20
59.237522913209091
 30
0.0
 11
56.086914710009353
 21
59.392963370299292
 31
0.0
  0
ARC
  5
4E7C
  8
0
 10
52.856145479241199
 20
49.128282152171657
 30
0.0
 40
10.10924076103746
 50
69.743841999583282
 51
110.2561580004167
  0
LINE
  5
4E7D
  8
0
 10
56.086914710009353
 20
54.392963370299292
 30
0.0
 11
42.62537624847328
 21
54.392963370299292
 31
0.0
  0
ARC
  5
4E7E
  8
0
 10
45.856145479241427
 20
64.657644588426933
 30
0.0
 40
10.10924076103746
 50
249.74384199958331
 51
290.25615800041669
  0
LINE
  5
4E7F
  8
0
 10
42.356145479241313
 20
54.5484038273895
 30
0.0
 11
42.62537624847328
 21
54.392963370299292
 31
0.0
  0
LINE
  5
4E80
  8
0
 10
56.35614547924132
 20
54.5484038273895
 30
0.0
 11
56.086914710009353
 21
54.392963370299292
 31
0.0
  0
ARC
  5
4E81
  8
0
 10
52.856145479241199
 20
64.657644588426933
 30
0.0
 40
10.10924076103746
 50
249.74384199958331
 51
290.25615800041669
  0
LINE
  5
4E82
  8
3
 10
54.409145479241552
 20
61.39296337029986
 30
0.0
 11
55.35614547924154
 21
59.752711255532162
 31
0.0
  0
LINE
  5
4E83
  8
3
 10
44.303145479241543
 20
61.39296337029986
 30
0.0
 11
43.35614547924154
 21
59.752711255532162
 31
0.0
  0
LINE
  5
4E84
  8
0
 10
55.35614547924154
 20
61.39296337029986
 30
0.0
 11
43.35614547924154
 21
61.39296337029986
 31
0.0
  0
LINE
  5
4E85
  8
0
 10
43.35614547924159
 20
125.3929633703
 30
0.0
 11
55.356145479241647
 21
125.3929633702998
 31
0.0
  0
LINE
  5
4E86
  8
0
 10
53.35614547924159
 20
127.3929633702998
 30
0.0
 11
55.356145479241597
 21
125.3929633702998
 31
0.0
  0
LINE
  5
4E87
  8
0
 10
45.356145479241597
 20
127.3929633703
 30
0.0
 11
43.35614547924159
 21
125.3929633703
 31
0.0
  0
LINE
  5
4E88
  8
0
 10
43.35614547924154
 20
59.39296337029986
 30
0.0
 11
43.35614547924159
 21
70.392963370299867
 31
0.0
  0
LINE
  5
4E89
  8
3
 10
44.303145479241543
 20
61.39296337029986
 30
0.0
 11
44.303145479241543
 21
70.392963370299981
 31
0.0
  0
LINE
  5
4E8A
  8
3
 10
54.409145479241602
 20
61.39296337029986
 30
0.0
 11
54.409145479241602
 21
70.392963370299867
 31
0.0
  0
LINE
  5
4E8B
  8
0
 10
55.35614547924154
 20
59.39296337029986
 30
0.0
 11
55.35614547924154
 21
70.392963370299867
 31
0.0
  0
LINE
  5
4E8C
  8
0
 10
45.356145479241597
 20
127.3929633703
 30
0.0
 11
53.35614547924159
 21
127.3929633702998
 31
0.0
  0
LINE
  5
4E8D
  8
0
 10
38.386490364638689
 20
79.255782459673924
 30
0.0
 11
40.35614547924034
 21
80.392963370299753
 31
0.0
  0
ARC
  5
4E8E
  8
0
 10
41.128904143289333
 20
75.248225013696469
 30
0.0
 40
4.8560632220084567
 50
55.615752531983382
 51
115.6157525319127
  0
ARC
  5
4E8F
  8
0
 10
49.356145479241711
 20
61.952794011719433
 30
0.0
 40
18.15149422398537
 50
72.412046226036338
 51
107.58795377396351
  0
ARC
  5
4E90
  8
0
 10
57.583386815194103
 20
75.248225013696469
 30
0.0
 40
4.8560632220084567
 50
64.384247468087224
 51
124.3842474680165
  0
LINE
  5
4E91
  8
0
 10
60.32580059384474
 20
79.255782459673924
 30
0.0
 11
58.356145479243082
 21
80.392963370299753
 31
0.0
  0
LINE
  5
4E92
  8
0
 10
40.35614547924034
 20
80.392963370299753
 30
0.0
 11
58.356145479243082
 21
80.392963370299753
 31
0.0
  0
LINE
  5
4E93
  8
0
 10
40.35614547924034
 20
70.392963370299867
 30
0.0
 11
58.356145479243082
 21
70.392963370299867
 31
0.0
  0
LINE
  5
4E94
  8
0
 10
60.32580059384474
 20
71.530144280925697
 30
0.0
 11
58.356145479243082
 21
70.392963370299867
 31
0.0
  0
ARC
  5
4E95
  8
0
 10
57.583386815194103
 20
75.537701726903151
 30
0.0
 40
4.8560632220084567
 50
235.6157525319833
 51
295.61575253191268
  0
ARC
  5
4E96
  8
0
 10
49.356145479241711
 20
88.833132728880187
 30
0.0
 40
18.15149422398537
 50
252.41204622603641
 51
287.5879537739637
  0
ARC
  5
4E97
  8
0
 10
41.128904143289333
 20
75.537701726903151
 30
0.0
 40
4.8560632220084567
 50
244.3842474680873
 51
304.3842474680165
  0
LINE
  5
4E98
  8
0
 10
38.386490364638689
 20
71.530144280925697
 30
0.0
 11
40.35614547924034
 21
70.392963370299867
 31
0.0
  0
LINE
  5
4E99
  8
0
 10
38.386490364638689
 20
79.255782459673924
 30
0.0
 11
38.386490364638689
 21
71.530144280925583
 31
0.0
  0
LINE
  5
4E9A
  8
0
 10
43.871317921944517
 20
79.255782459673924
 30
0.0
 11
43.87131792194041
 21
71.530144280925356
 31
0.0
  0
LINE
  5
4E9B
  8
0
 10
60.32580059384474
 20
79.255782459673924
 30
0.0
 11
60.32580059384474
 21
71.530144280925583
 31
0.0
  0
LINE
  5
4E9C
  8
0
 10
54.840973036538898
 20
79.255782459673924
 30
0.0
 11
54.840973036543012
 21
71.530144280925356
 31
0.0
  0
LINE
  5
4E9D
  8
0
 10
55.356145479241597
 20
80.392963370299753
 30
0.0
 11
55.356145479241597
 21
125.3929633702998
 31
0.0
  0
LINE
  5
4E9E
  8
3
 10
54.409145479241602
 20
80.392963370299853
 30
0.0
 11
54.409145479241637
 21
126.3399633702999
 31
0.0
  0
LINE
  5
4E9F
  8
3
 10
44.303145479241543
 20
80.392963370299753
 30
0.0
 11
44.303145479241607
 21
126.3399633702999
 31
0.0
  0
LINE
  5
4EA0
  8
0
 10
43.35614547924159
 20
80.392963370299753
 30
0.0
 11
43.35614547924159
 21
125.3929633703
 31
0.0
  0
LINE
  5
4EA1
  8
0
 10
178.36470161319531
 20
54.392963370299519
 30
0.0
 11
164.9031631516595
 21
54.392963370299519
 31
0.0
  0
LINE
  5
4EA2
  8
0
 10
164.90316315165799
 20
59.392963370299519
 30
0.0
 11
178.364701613195
 21
59.392963370299519
 31
0.0
  0
ARC
  5
4EA3
  8
0
 10
177.69611020891821
 20
55.659371065416842
 30
0.0
 40
3.5781518477924039
 50
64.384247467827308
 51
124.38424746803869
  0
LINE
  5
4EA4
  8
0
 10
179.71683615108199
 20
58.612308130869891
 30
0.0
 11
178.36470161319531
 21
59.392963370299519
 31
0.0
  0
LINE
  5
4EA5
  8
0
 10
179.71683615108199
 20
55.173618609729033
 30
0.0
 11
178.36470161319531
 21
54.392963370299519
 31
0.0
  0
ARC
  5
4EA6
  8
0
 10
177.69611020891821
 20
58.126555675182203
 30
0.0
 40
3.5781518477924039
 50
235.61575253196131
 51
295.61575253217268
  0
LINE
  5
4EA7
  8
0
 10
179.71683615108199
 20
58.612308130870019
 30
0.0
 11
179.71683615108199
 21
55.173618609729033
 31
0.0
  0
LINE
  5
4EA8
  8
0
 10
175.67538426675279
 20
58.612308130870467
 30
0.0
 11
175.67538426675469
 21
55.173618609730852
 31
0.0
  0
LINE
  5
4EA9
  8
0
 10
167.59248049810159
 20
58.612308130868662
 30
0.0
 11
167.5924804980998
 21
55.173618609730852
 31
0.0
  0
LINE
  5
4EAA
  8
0
 10
163.5510286137725
 20
58.612308130869891
 30
0.0
 11
163.5510286137725
 21
55.173618609729033
 31
0.0
  0
ARC
  5
4EAB
  8
0
 10
171.6339323824283
 20
67.923189045043614
 30
0.0
 40
13.374785217653811
 50
252.4120462259952
 51
287.5879537740048
  0
ARC
  5
4EAC
  8
0
 10
165.57175455593631
 20
58.126555675182203
 30
0.0
 40
3.5781518477924039
 50
244.38424746782729
 51
304.38424746803872
  0
LINE
  5
4EAD
  8
0
 10
163.5510286137725
 20
55.173618609729033
 30
0.0
 11
164.9031631516593
 21
54.392963370299519
 31
0.0
  0
LINE
  5
4EAE
  8
0
 10
163.5510286137725
 20
58.612308130869891
 30
0.0
 11
164.9031631516593
 21
59.392963370299519
 31
0.0
  0
ARC
  5
4EAF
  8
0
 10
171.6339323824283
 20
45.862737695555431
 30
0.0
 40
13.374785217653811
 50
72.412046225995169
 51
107.5879537740048
  0
ARC
  5
4EB0
  8
0
 10
165.57175455593631
 20
55.659371065416842
 30
0.0
 40
3.5781518477924039
 50
55.615752531961242
 51
115.61575253217271
  0
LINE
  5
4EB1
  8
0
 10
166.1339323824273
 20
50.392963370299519
 30
0.0
 11
166.1339323824273
 21
54.392963370299519
 31
0.0
  0
LINE
  5
4EB2
  8
0
 10
177.1339323824273
 20
50.392963370299519
 30
0.0
 11
177.1339323824273
 21
54.392963370299519
 31
0.0
  0
LINE
  5
4EB3
  8
0
 10
181.13393238242719
 20
80.104288235704985
 30
0.0
 11
180.63393238242719
 21
80.392963370299853
 31
0.0
  0
ARC
  5
4EB4
  8
0
 10
176.38393238242719
 20
66.384604345711864
 30
0.0
 40
13.719683889993171
 50
69.743841999613082
 51
110.256158000387
  0
LINE
  5
4EB5
  8
0
 10
180.63393238242719
 20
70.392963370299981
 30
0.0
 11
181.13393238242719
 21
70.753435274620074
 31
0.0
  0
LINE
  5
4EB6
  8
0
 10
181.13393238242719
 20
70.753435274620074
 30
0.0
 11
181.13393238242719
 21
80.104288235704985
 31
0.0
  0
ARC
  5
4EB7
  8
0
 10
176.38393238242719
 20
84.401322394887984
 30
0.0
 40
13.719683889993171
 50
249.7438419996115
 51
290.25615800038702
  0
ARC
  5
4EB8
  8
0
 10
166.88393238242719
 20
84.401322394887984
 30
0.0
 40
13.719683889993171
 50
249.7438419996115
 51
290.25615800038702
  0
LINE
  5
4EB9
  8
0
 10
162.13393238242719
 20
70.753435274620074
 30
0.0
 11
162.13393238242719
 21
80.104288235704985
 31
0.0
  0
LINE
  5
4EBA
  8
0
 10
162.63393238242719
 20
70.392963370299981
 30
0.0
 11
162.13393238242719
 21
70.753435274620074
 31
0.0
  0
ARC
  5
4EBB
  8
0
 10
166.88393238242719
 20
66.384604345711864
 30
0.0
 40
13.719683889993171
 50
69.743841999613082
 51
110.256158000387
  0
LINE
  5
4EBC
  8
0
 10
162.13393238242719
 20
80.104288235704985
 30
0.0
 11
162.63393238242719
 21
80.392963370299853
 31
0.0
  0
LINE
  5
4EBD
  8
0
 10
162.63393238242719
 20
80.392963370299853
 30
0.0
 11
180.63393238242719
 21
80.392963370299853
 31
0.0
  0
LINE
  5
4EBE
  8
0
 10
180.63393238242719
 20
70.392963370299981
 30
0.0
 11
162.63393238242719
 21
70.392963370299981
 31
0.0
  0
LINE
  5
4EBF
  8
0
 10
171.63393238242401
 20
79.255782459674037
 30
0.0
 11
171.63393238242719
 21
71.530144280925811
 31
0.0
  0
LINE
  5
4EC0
  8
0
 10
167.63393238242719
 20
127.3929633703
 30
0.0
 11
175.63393238242719
 21
127.3929633702998
 31
0.0
  0
LINE
  5
4EC1
  8
0
 10
177.63393238242719
 20
59.39296337029986
 30
0.0
 11
177.63393238242719
 21
70.392963370299981
 31
0.0
  0
LINE
  5
4EC2
  8
3
 10
176.6869323824273
 20
61.39296337029986
 30
0.0
 11
176.6869323824273
 21
70.392963370299981
 31
0.0
  0
LINE
  5
4EC3
  8
0
 10
175.63393238242719
 20
127.3929633702998
 30
0.0
 11
177.63393238242719
 21
125.3929633702998
 31
0.0
  0
LINE
  5
4EC4
  8
0
 10
165.63393238242719
 20
125.3929633703
 30
0.0
 11
177.6339323824273
 21
125.3929633702998
 31
0.0
  0
LINE
  5
4EC5
  8
0
 10
177.63393238242719
 20
61.39296337029986
 30
0.0
 11
165.63393238242719
 21
61.39296337029986
 31
0.0
  0
LINE
  5
4EC6
  8
3
 10
176.68693238242719
 20
61.39296337029986
 30
0.0
 11
177.63393238242719
 21
59.752711255532162
 31
0.0
  0
LINE
  5
4EC7
  8
0
 10
165.63393238242719
 20
59.39296337029986
 30
0.0
 11
165.63393238242719
 21
70.392963370299981
 31
0.0
  0
LINE
  5
4EC8
  8
3
 10
166.58093238242719
 20
61.39296337029986
 30
0.0
 11
166.58093238242719
 21
70.392963370299981
 31
0.0
  0
LINE
  5
4EC9
  8
0
 10
167.63393238242719
 20
127.3929633703
 30
0.0
 11
165.63393238242719
 21
125.3929633703
 31
0.0
  0
LINE
  5
4ECA
  8
3
 10
166.58093238242719
 20
61.39296337029986
 30
0.0
 11
165.63393238242719
 21
59.752711255532162
 31
0.0
  0
LINE
  5
4ECB
  8
3
 10
166.58093238242719
 20
80.392963370299853
 30
0.0
 11
166.58093238242731
 21
126.3399633702999
 31
0.0
  0
LINE
  5
4ECC
  8
0
 10
165.63393238242719
 20
80.392963370299853
 30
0.0
 11
165.63393238242719
 21
125.3929633703
 31
0.0
  0
LINE
  5
4ECD
  8
3
 10
176.6869323824273
 20
80.392963370299853
 30
0.0
 11
176.6869323824273
 21
126.3399633702999
 31
0.0
  0
LINE
  5
4ECE
  8
0
 10
177.63393238242719
 20
80.392963370299853
 30
0.0
 11
177.63393238242719
 21
125.3929633702998
 31
0.0
  0
TEXT
  5
51FB
  8
0
 62
     3
 10
0.0
 20
0.0
 30
0.0
 40
10.0
  1
LVA80S12B
  7
STANDARD1
  0
ENDSEC
  0
EOF
