  0
SECTION
  2
HEADER
  9
$ACADVER
  1
AC1009
  9
$INSBASE
 10
0.0
 20
0.0
 30
0.0
  9
$EXTMIN
 10
0.0
 20
-2.960436562073669
 30
0.0
  9
$EXTMAX
 10
214.64777139755421
 20
266.72608661066511
 30
0.0
  9
$LIMMIN
 10
0.0
 20
0.0
  9
$LIMMAX
 10
375.0
 20
270.0
  9
$ORTHOMODE
 70
     1
  9
$REGENMODE
 70
     1
  9
$FILLMODE
 70
     1
  9
$QTEXTMODE
 70
     0
  9
$MIRRTEXT
 70
     0
  9
$DRAGMODE
 70
     2
  9
$LTSCALE
 40
6.0
  9
$OSMODE
 70
    37
  9
$ATTMODE
 70
     1
  9
$TEXTSIZE
 40
0.2
  9
$TRACEWID
 40
0.05
  9
$TEXTSTYLE
  7
STANDARD
  9
$CLAYER
  8
0
  9
$CELTYPE
  6
BYLAYER
  9
$CECOLOR
 62
   256
  9
$DIMSCALE
 40
1.0
  9
$DIMASZ
 40
3.0
  9
$DIMEXO
 40
1.0
  9
$DIMDLI
 40
6.0
  9
$DIMRND
 40
0.0
  9
$DIMDLE
 40
0.0
  9
$DIMEXE
 40
1.0
  9
$DIMTP
 40
495.0
  9
$DIMTM
 40
0.0
  9
$DIMTXT
 40
3.0
  9
$DIMCEN
 40
0.0
  9
$DIMTSZ
 40
0.0
  9
$DIMTOL
 70
     0
  9
$DIMLIM
 70
     0
  9
$DIMTIH
 70
     0
  9
$DIMTOH
 70
     0
  9
$DIMSE1
 70
     0
  9
$DIMSE2
 70
     0
  9
$DIMTAD
 70
     1
  9
$DIMZIN
 70
     0
  9
$DIMBLK
  1

  9
$DIMASO
 70
     0
  9
$DIMSHO
 70
     0
  9
$DIMPOST
  1

  9
$DIMAPOST
  1

  9
$DIMALT
 70
     0
  9
$DIMALTD
 70
     2
  9
$DIMALTF
 40
25.399999999999999
  9
$DIMLFAC
 40
1.0
  9
$DIMTOFL
 70
     1
  9
$DIMTVP
 40
0.0
  9
$DIMTIX
 70
     1
  9
$DIMSOXD
 70
     0
  9
$DIMSAH
 70
     0
  9
$DIMBLK1
  1

  9
$DIMBLK2
  1

  9
$DIMSTYLE
  2
STANDARD
  9
$DIMCLRD
 70
     0
  9
$DIMCLRE
 70
     0
  9
$DIMCLRT
 70
     4
  9
$DIMTFAC
 40
1.0
  9
$DIMGAP
 40
1.0
  9
$LUNITS
 70
     2
  9
$LUPREC
 70
     4
  9
$SKETCHINC
 40
0.1
  9
$FILLETRAD
 40
2.0
  9
$AUNITS
 70
     0
  9
$AUPREC
 70
     0
  9
$MENU
  1
C:\R13\WIN\SUPPORT\ACAD-I
  9
$ELEVATION
 40
0.0
  9
$PELEVATION
 40
0.0
  9
$THICKNESS
 40
0.0
  9
$LIMCHECK
 70
     0
  9
$BLIPMODE
 70
     0
  9
$CHAMFERA
 40
0.0
  9
$CHAMFERB
 40
0.0
  9
$SKPOLY
 70
     0
  9
$TDCREATE
 40
2451962.4557367591
  9
$TDUPDATE
 40
2456598.7197959609
  9
$TDINDWG
 40
0.0584482292
  9
$TDUSRTIMER
 40
2456598.0449234028
  9
$USRTIMER
 70
     1
  9
$ANGBASE
 50
0.0
  9
$ANGDIR
 70
     0
  9
$PDMODE
 70
     0
  9
$PDSIZE
 40
0.0
  9
$PLINEWID
 40
0.0
  9
$COORDS
 70
     1
  9
$SPLFRAME
 70
     0
  9
$SPLINETYPE
 70
     6
  9
$SPLINESEGS
 70
     8
  9
$ATTDIA
 70
     0
  9
$ATTREQ
 70
     1
  9
$HANDLING
 70
     1
  9
$HANDSEED
  5
544E
  9
$SURFTAB1
 70
     6
  9
$SURFTAB2
 70
     6
  9
$SURFTYPE
 70
     6
  9
$SURFU
 70
     6
  9
$SURFV
 70
     6
  9
$UCSNAME
  2

  9
$UCSORG
 10
0.0
 20
0.0
 30
0.0
  9
$UCSXDIR
 10
1.0
 20
0.0
 30
0.0
  9
$UCSYDIR
 10
0.0
 20
1.0
 30
0.0
  9
$PUCSNAME
  2

  9
$PUCSORG
 10
0.0
 20
0.0
 30
0.0
  9
$PUCSXDIR
 10
1.0
 20
0.0
 30
0.0
  9
$PUCSYDIR
 10
0.0
 20
1.0
 30
0.0
  9
$USERI1
 70
     4
  9
$USERI2
 70
     1
  9
$USERI3
 70
     0
  9
$USERI4
 70
     0
  9
$USERI5
 70
     0
  9
$USERR1
 40
1.0
  9
$USERR2
 40
3.0
  9
$USERR3
 40
3.0
  9
$USERR4
 40
3.0
  9
$USERR5
 40
10.0
  9
$WORLDVIEW
 70
     1
  9
$SHADEDGE
 70
     3
  9
$SHADEDIF
 70
    70
  9
$TILEMODE
 70
     1
  9
$MAXACTVP
 70
    16
  9
$PLIMCHECK
 70
     0
  9
$PEXTMIN
 10
1.0000000000000000E+020
 20
1.0000000000000000E+020
 30
1.0000000000000000E+020
  9
$PEXTMAX
 10
-1.0000000000000000E+020
 20
-1.0000000000000000E+020
 30
-1.0000000000000000E+020
  9
$PLIMMIN
 10
0.0
 20
0.0
  9
$PLIMMAX
 10
12.0
 20
9.0
  9
$UNITMODE
 70
     0
  9
$VISRETAIN
 70
     0
  9
$PLINEGEN
 70
     0
  9
$PSLTSCALE
 70
     0
  0
ENDSEC
  0
SECTION
  2
TABLES
  0
TABLE
  2
VPORT
 70
     1
  0
VPORT
  2
*ACTIVE
 70
     0
 10
0.0
 20
0.0
 11
1.0
 21
1.0
 12
187.49427839065231
 22
177.52205812711131
 13
0.0
 23
0.0
 14
10.0
 24
10.0
 15
10.0
 25
10.0
 16
0.0
 26
0.0
 36
1.0
 17
0.0
 27
0.0
 37
0.0
 40
364.13085016302909
 41
1.755244755244755
 42
50.0
 43
0.0
 44
0.0
 50
0.0
 51
0.0
 71
    16
 72
   100
 73
     1
 74
     0
 75
     0
 76
     0
 77
     0
 78
     0
  0
ENDTAB
  0
TABLE
  2
LTYPE
 70
     3
  0
LTYPE
  2
CONTINUOUS
 70
     0
  3
Solid Line
 72
    65
 73
     0
 40
0.0
  0
LTYPE
  2
PHANTOM2
 70
     0
  3
___ _ _ ___ _ _ ___ _ _ ___ _ _
 72
    65
 73
     6
 40
1.25
 49
0.625
 49
-0.125
 49
0.125
 49
-0.125
 49
0.125
 49
-0.125
  0
LTYPE
  2
CENTER
 70
     0
  3
____ _ ____ _ ____ _ ____ _ ____ _ ____ _ ____
 72
    65
 73
     4
 40
2.0
 49
1.25
 49
-0.25
 49
0.25
 49
-0.25
  0
ENDTAB
  0
TABLE
  2
LAYER
 70
     3
  0
LAYER
  2
0
 70
     0
 62
     7
  6
CONTINUOUS
  0
LAYER
  2
1
 70
     0
 62
     1
  6
CENTER
  0
LAYER
  2
3
 70
     0
 62
     3
  6
CONTINUOUS
  0
ENDTAB
  0
TABLE
  2
STYLE
 70
     3
  0
STYLE
  2
STANDARD
 70
     0
 40
0.0
 41
1.0
 50
0.0
 71
     0
 42
0.2
  3
SIMPLEX
  4
BIGFONT
  0
STYLE
  2
ANNOTATIVE
 70
     0
 40
0.0
 41
1.0
 50
0.0
 71
     0
 42
0.2
  3
txt
  4

  0
STYLE
  2
STANDARD1
 70
     0
 40
0.0
 41
1.0
 50
0.0
 71
     0
 42
3.0
  3
txt
  4

  0
ENDTAB
  0
TABLE
  2
VIEW
 70
     0
  0
ENDTAB
  0
TABLE
  2
UCS
 70
     0
  0
ENDTAB
  0
TABLE
  2
APPID
 70
    29
  0
APPID
  2
ACAD
 70
     0
  0
APPID
  2
ACADANNOTATIVE
 70
     0
  0
APPID
  2
GENIUS_GENOREF_13
 70
     0
  0
APPID
  2
GENIUS_GENOENT_13
 70
     0
  0
APPID
  2
GENIUS_GENBH_13
 70
     0
  0
APPID
  2
GENIUS_GENOBJ_13
 70
     0
  0
APPID
  2
GENIUS_GENODEF_13
 70
     0
  0
APPID
  2
GENIUS_GENOLIS_13
 70
     0
  0
APPID
  2
GENIUS_GENOBJ-NBEHI-BHF_13
 70
     0
  0
APPID
  2
GENIUS_GENOBJ-NBEHI-BHB_13
 70
     0
  0
APPID
  2
GENIUS_GENOBJ-F-PART_13
 70
     0
  0
APPID
  2
GENIUS_GEFSTDP_13
 70
     0
  0
APPID
  2
GENIUS_GENOBJ-N-RSSYM_13
 70
     0
  0
APPID
  2
GENIUS_GENSYMENT_13
 70
     0
  0
APPID
  2
GENIUS_GENOBJ-N-TIT_13
 70
     0
  0
APPID
  2
GENIUS_GENTITLE_13
 70
     0
  0
APPID
  2
GENIUS_GENZVEED_13
 70
     0
  0
APPID
  2
GENIUS_GENOBJ-N-LEADER_13
 70
     0
  0
APPID
  2
GENIUS_GENOBJ-N-FIL_13
 70
     0
  0
APPID
  2
GENIUS_GENOBJ-N-SEC_13
 70
     0
  0
APPID
  2
GENIUS_GENOBJ-N-CRS_13
 70
     0
  0
APPID
  2
GENIUS_GENOBJ-N-ZOO_13
 70
     0
  0
APPID
  2
GENIUS_GENZOO_13
 70
     0
  0
APPID
  2
GENIUS_GENOBJ-F-TOL_13
 70
     0
  0
APPID
  2
GENIUS_GENFIL_13
 70
     0
  0
APPID
  2
GENIUS_GENOBJ-N-CHA_13
 70
     0
  0
APPID
  2
ACAD_EXEMPT_FROM_CAD_STANDARDS
 70
     0
  0
APPID
  2
ACAD_MLEADERVER
 70
     0
  0
APPID
  2
ACAD_NAV_VCDISPLAY
 70
     0
  0
ENDTAB
  0
TABLE
  2
DIMSTYLE
 70
     2
  0
DIMSTYLE
  2
STANDARD
 70
     0
  3

  4

  5

  6

  7

 40
1.0
 41
0.18
 42
0.0625
 43
0.38
 44
0.18
 45
0.0
 46
0.0
 47
0.0
 48
0.0
140
0.18
141
0.09
142
0.0
143
25.399999999999999
144
1.0
145
0.0
146
1.0
147
0.09
 71
     0
 72
     0
 73
     1
 74
     1
 75
     0
 76
     0
 77
     0
 78
     0
170
     0
171
     2
172
     0
173
     0
174
     0
175
     0
176
     0
177
     0
178
     0
  0
DIMSTYLE
  2
ANNOTATIVE
 70
     0
  3

  4

  5

  6

  7

 40
1.0
 41
0.18
 42
0.0625
 43
0.38
 44
0.18
 45
0.0
 46
0.0
 47
0.0
 48
0.0
140
0.18
141
0.09
142
0.0
143
25.399999999999999
144
1.0
145
0.0
146
1.0
147
0.09
 71
     0
 72
     0
 73
     1
 74
     1
 75
     0
 76
     0
 77
     0
 78
     0
170
     0
171
     2
172
     0
173
     0
174
     0
175
     0
176
     0
177
     0
178
     0
  0
ENDTAB
  0
ENDSEC
  0
SECTION
  2
BLOCKS
  0
BLOCK
  8
0
  2
$MODEL_SPACE
 70
     0
 10
0.0
 20
0.0
 30
0.0
  3
$MODEL_SPACE
  1

  0
ENDBLK
  5
5315
  8
0
  0
BLOCK
 67
     1
  8
0
  2
$PAPER_SPACE
 70
     0
 10
0.0
 20
0.0
 30
0.0
  3
$PAPER_SPACE
  1

  0
ENDBLK
  5
5311
 67
     1
  8
0
  0
ENDSEC
  0
SECTION
  2
ENTITIES
  0
LINE
  5
4FA1
  8
0
 10
180.6477713975541
 20
80.610521711878164
 30
0.0
 11
180.6477713975541
 21
155.61052171187811
 31
0.0
  0
LINE
  5
4FA2
  8
3
 10
179.70077139755421
 20
80.610521711878164
 30
0.0
 11
179.70077139755421
 21
156.557521711878
 31
0.0
  0
LINE
  5
4FA3
  8
0
 10
168.6477713975541
 20
80.610521711878164
 30
0.0
 11
168.6477713975541
 21
155.61052171187811
 31
0.0
  0
LINE
  5
4FA4
  8
3
 10
169.5947713975543
 20
80.610521711878164
 30
0.0
 11
169.5947713975543
 21
156.557521711878
 31
0.0
  0
LINE
  5
4FA5
  8
3
 10
169.5947713975543
 20
61.61052171187815
 30
0.0
 11
168.6477713975541
 21
59.970269597110473
 31
0.0
  0
LINE
  5
4FA6
  8
0
 10
170.6477713975541
 20
157.61052171187811
 30
0.0
 11
168.6477713975541
 21
155.61052171187811
 31
0.0
  0
LINE
  5
4FA7
  8
3
 10
169.5947713975543
 20
61.61052171187815
 30
0.0
 11
169.5947713975543
 21
70.610521711878164
 31
0.0
  0
LINE
  5
4FA8
  8
0
 10
168.6477713975541
 20
59.610521711878157
 30
0.0
 11
168.6477713975541
 21
70.610521711878164
 31
0.0
  0
LINE
  5
4FA9
  8
3
 10
179.70077139755401
 20
61.61052171187815
 30
0.0
 11
180.6477713975541
 21
59.970269597110473
 31
0.0
  0
LINE
  5
4FAA
  8
0
 10
180.6477713975541
 20
61.61052171187815
 30
0.0
 11
168.6477713975541
 21
61.61052171187815
 31
0.0
  0
LINE
  5
4FAB
  8
0
 10
168.6477713975541
 20
155.61052171187811
 30
0.0
 11
180.6477713975541
 21
155.61052171187811
 31
0.0
  0
LINE
  5
4FAC
  8
0
 10
178.6477713975541
 20
157.61052171187811
 30
0.0
 11
180.6477713975541
 21
155.61052171187811
 31
0.0
  0
LINE
  5
4FAD
  8
3
 10
179.70077139755421
 20
61.61052171187815
 30
0.0
 11
179.70077139755421
 21
70.610521711878164
 31
0.0
  0
LINE
  5
4FAE
  8
0
 10
180.6477713975541
 20
59.610521711878157
 30
0.0
 11
180.6477713975541
 21
70.610521711878164
 31
0.0
  0
LINE
  5
4FAF
  8
0
 10
170.6477713975541
 20
157.61052171187811
 30
0.0
 11
178.6477713975541
 21
157.61052171187811
 31
0.0
  0
LINE
  5
4FB0
  8
0
 10
174.6477713975508
 20
79.473340801252348
 30
0.0
 11
174.6477713975541
 21
71.747702622503994
 31
0.0
  0
LINE
  5
4FB1
  8
0
 10
183.6477713975541
 20
70.610521711878164
 30
0.0
 11
165.6477713975541
 21
70.610521711878164
 31
0.0
  0
LINE
  5
4FB2
  8
0
 10
165.6477713975541
 20
80.610521711878164
 30
0.0
 11
183.6477713975541
 21
80.610521711878164
 31
0.0
  0
LINE
  5
4FB3
  8
0
 10
165.1477713975541
 20
80.321846577283395
 30
0.0
 11
165.6477713975541
 21
80.610521711878164
 31
0.0
  0
ARC
  5
4FB4
  8
0
 10
169.8977713975541
 20
66.60216268729026
 30
0.0
 40
13.719683889993171
 50
69.743841999613082
 51
110.256158000387
  0
LINE
  5
4FB5
  8
0
 10
165.6477713975541
 20
70.610521711878164
 30
0.0
 11
165.1477713975541
 21
70.970993616198257
 31
0.0
  0
LINE
  5
4FB6
  8
0
 10
165.1477713975541
 20
70.970993616198257
 30
0.0
 11
165.1477713975541
 21
80.321846577283395
 31
0.0
  0
ARC
  5
4FB7
  8
0
 10
169.8977713975541
 20
84.618880736466267
 30
0.0
 40
13.719683889993171
 50
249.7438419996115
 51
290.25615800038702
  0
ARC
  5
4FB8
  8
0
 10
179.3977713975541
 20
84.618880736466267
 30
0.0
 40
13.719683889993171
 50
249.7438419996115
 51
290.25615800038702
  0
LINE
  5
4FB9
  8
0
 10
184.1477713975541
 20
70.970993616198257
 30
0.0
 11
184.1477713975541
 21
80.321846577283395
 31
0.0
  0
LINE
  5
4FBA
  8
0
 10
183.6477713975541
 20
70.610521711878164
 30
0.0
 11
184.1477713975541
 21
70.970993616198257
 31
0.0
  0
ARC
  5
4FBB
  8
0
 10
179.3977713975541
 20
66.60216268729026
 30
0.0
 40
13.719683889993171
 50
69.743841999613082
 51
110.256158000387
  0
LINE
  5
4FBC
  8
0
 10
184.1477713975541
 20
80.321846577283395
 30
0.0
 11
183.6477713975541
 21
80.610521711878164
 31
0.0
  0
LINE
  5
4FBD
  8
0
 10
180.1477713975541
 20
50.610521711877688
 30
0.0
 11
180.1477713975541
 21
54.610521711877702
 31
0.0
  0
LINE
  5
4FBE
  8
0
 10
169.1477713975541
 20
50.610521711877688
 30
0.0
 11
169.1477713975541
 21
54.610521711877702
 31
0.0
  0
ARC
  5
4FBF
  8
0
 10
168.5855935710633
 20
55.876929406995032
 30
0.0
 40
3.5781518477924039
 50
55.615752531961242
 51
115.61575253217271
  0
ARC
  5
4FC0
  8
0
 10
174.64777139755509
 20
46.080296037133607
 30
0.0
 40
13.374785217653811
 50
72.412046225995169
 51
107.5879537740048
  0
LINE
  5
4FC1
  8
0
 10
166.56486762889921
 20
58.829866472448209
 30
0.0
 11
167.9170021667862
 21
59.610521711877702
 31
0.0
  0
LINE
  5
4FC2
  8
0
 10
166.56486762889921
 20
55.391176951307209
 30
0.0
 11
167.9170021667862
 21
54.610521711877702
 31
0.0
  0
ARC
  5
4FC3
  8
0
 10
168.5855935710633
 20
58.344114016760393
 30
0.0
 40
3.5781518477924039
 50
244.38424746782729
 51
304.38424746803872
  0
ARC
  5
4FC4
  8
0
 10
174.64777139755509
 20
68.140747386621797
 30
0.0
 40
13.374785217653811
 50
252.4120462259952
 51
287.5879537740048
  0
LINE
  5
4FC5
  8
0
 10
166.56486762889921
 20
58.829866472448209
 30
0.0
 11
166.56486762889921
 21
55.391176951307209
 31
0.0
  0
LINE
  5
4FC6
  8
0
 10
170.6063195132285
 20
58.829866472446852
 30
0.0
 11
170.60631951322671
 21
55.391176951309042
 31
0.0
  0
LINE
  5
4FC7
  8
0
 10
178.68922328187969
 20
58.829866472448657
 30
0.0
 11
178.6892232818816
 21
55.391176951309042
 31
0.0
  0
LINE
  5
4FC8
  8
0
 10
182.73067516620901
 20
58.829866472448209
 30
0.0
 11
182.73067516620901
 21
55.391176951307209
 31
0.0
  0
ARC
  5
4FC9
  8
0
 10
180.709949224045
 20
58.344114016760393
 30
0.0
 40
3.5781518477924039
 50
235.61575253196131
 51
295.61575253217268
  0
LINE
  5
4FCA
  8
0
 10
182.73067516620901
 20
55.391176951307209
 30
0.0
 11
181.3785406283223
 21
54.610521711877702
 31
0.0
  0
LINE
  5
4FCB
  8
0
 10
182.73067516620901
 20
58.829866472448209
 30
0.0
 11
181.3785406283223
 21
59.610521711877702
 31
0.0
  0
ARC
  5
4FCC
  8
0
 10
180.709949224045
 20
55.876929406995032
 30
0.0
 40
3.5781518477924039
 50
64.384247467827308
 51
124.38424746803869
  0
LINE
  5
4FCD
  8
0
 10
167.9170021667851
 20
59.610521711877702
 30
0.0
 11
181.3785406283217
 21
59.610521711877702
 31
0.0
  0
LINE
  5
4FCE
  8
0
 10
181.3785406283223
 20
54.610521711877702
 30
0.0
 11
167.9170021667864
 21
54.610521711877702
 31
0.0
  0
LINE
  5
4FCF
  8
0
 10
46.369984494368488
 20
80.610521711878164
 30
0.0
 11
46.369984494368488
 21
155.61052171187811
 31
0.0
  0
LINE
  5
4FD0
  8
3
 10
47.316984494368398
 20
80.610521711878164
 30
0.0
 11
47.316984494368512
 21
156.557521711878
 31
0.0
  0
LINE
  5
4FD1
  8
3
 10
57.422984494368492
 20
80.610521711878164
 30
0.0
 11
57.42298449436862
 21
156.557521711878
 31
0.0
  0
LINE
  5
4FD2
  8
0
 10
58.369984494368488
 20
80.610521711878164
 30
0.0
 11
58.369984494368488
 21
155.61052171187811
 31
0.0
  0
LINE
  5
4FD3
  8
0
 10
57.854812051665832
 20
79.473340801252348
 30
0.0
 11
57.854812051669903
 21
71.747702622503539
 31
0.0
  0
LINE
  5
4FD4
  8
0
 10
63.339639608971652
 20
79.473340801252348
 30
0.0
 11
63.339639608971652
 21
71.747702622503766
 31
0.0
  0
LINE
  5
4FD5
  8
0
 10
46.885156937071429
 20
79.473340801252348
 30
0.0
 11
46.885156937067322
 21
71.747702622503539
 31
0.0
  0
LINE
  5
4FD6
  8
0
 10
41.400329379765587
 20
79.473340801252348
 30
0.0
 11
41.400329379765587
 21
71.747702622503766
 31
0.0
  0
LINE
  5
4FD7
  8
0
 10
41.400329379765587
 20
71.747702622503994
 30
0.0
 11
43.369984494367259
 21
70.610521711878164
 31
0.0
  0
ARC
  5
4FD8
  8
0
 10
44.142743158416224
 20
75.755260068481448
 30
0.0
 40
4.8560632220084567
 50
244.3842474680873
 51
304.3842474680165
  0
ARC
  5
4FD9
  8
0
 10
52.369984494368623
 20
89.050691070458456
 30
0.0
 40
18.15149422398537
 50
252.41204622603641
 51
287.5879537739637
  0
ARC
  5
4FDA
  8
0
 10
60.597225830321008
 20
75.755260068481448
 30
0.0
 40
4.8560632220084567
 50
235.6157525319833
 51
295.61575253191268
  0
LINE
  5
4FDB
  8
0
 10
63.339639608971652
 20
71.747702622503994
 30
0.0
 11
61.36998449436998
 21
70.610521711878164
 31
0.0
  0
LINE
  5
4FDC
  8
0
 10
43.369984494367259
 20
70.610521711878164
 30
0.0
 11
61.36998449436998
 21
70.610521711878164
 31
0.0
  0
LINE
  5
4FDD
  8
0
 10
43.369984494367259
 20
80.610521711878164
 30
0.0
 11
61.36998449436998
 21
80.610521711878164
 31
0.0
  0
LINE
  5
4FDE
  8
0
 10
63.339639608971652
 20
79.473340801252348
 30
0.0
 11
61.36998449436998
 21
80.610521711878164
 31
0.0
  0
ARC
  5
4FDF
  8
0
 10
60.597225830321008
 20
75.465783355274894
 30
0.0
 40
4.8560632220084567
 50
64.384247468087224
 51
124.3842474680165
  0
ARC
  5
4FE0
  8
0
 10
52.369984494368623
 20
62.170352353297851
 30
0.0
 40
18.15149422398537
 50
72.412046226036352
 51
107.5879537739636
  0
ARC
  5
4FE1
  8
0
 10
44.142743158416224
 20
75.465783355274894
 30
0.0
 40
4.8560632220084567
 50
55.615752531983382
 51
115.6157525319127
  0
LINE
  5
4FE2
  8
0
 10
41.400329379765587
 20
79.473340801252348
 30
0.0
 11
43.369984494367259
 21
80.610521711878164
 31
0.0
  0
LINE
  5
4FE3
  8
0
 10
48.369984494368488
 20
157.61052171187811
 30
0.0
 11
56.369984494368488
 21
157.61052171187811
 31
0.0
  0
LINE
  5
4FE4
  8
0
 10
58.369984494368488
 20
59.610521711878157
 30
0.0
 11
58.369984494368488
 21
70.610521711878164
 31
0.0
  0
LINE
  5
4FE5
  8
3
 10
57.422984494368492
 20
61.61052171187815
 30
0.0
 11
57.422984494368492
 21
70.610521711878164
 31
0.0
  0
LINE
  5
4FE6
  8
3
 10
47.316984494368398
 20
61.61052171187815
 30
0.0
 11
47.316984494368398
 21
70.610521711878164
 31
0.0
  0
LINE
  5
4FE7
  8
0
 10
46.369984494368488
 20
59.610521711878157
 30
0.0
 11
46.369984494368488
 21
70.610521711878164
 31
0.0
  0
LINE
  5
4FE8
  8
0
 10
48.369984494368488
 20
157.61052171187811
 30
0.0
 11
46.369984494368488
 21
155.61052171187811
 31
0.0
  0
LINE
  5
4FE9
  8
0
 10
56.369984494368488
 20
157.61052171187811
 30
0.0
 11
58.369984494368488
 21
155.61052171187811
 31
0.0
  0
LINE
  5
4FEA
  8
0
 10
46.369984494368488
 20
155.61052171187811
 30
0.0
 11
58.369984494368488
 21
155.61052171187811
 31
0.0
  0
LINE
  5
4FEB
  8
0
 10
58.369984494368488
 20
61.61052171187815
 30
0.0
 11
46.369984494368488
 21
61.61052171187815
 31
0.0
  0
LINE
  5
4FEC
  8
3
 10
47.316984494368398
 20
61.61052171187815
 30
0.0
 11
46.369984494368488
 21
59.970269597110473
 31
0.0
  0
LINE
  5
4FED
  8
3
 10
57.422984494368393
 20
61.61052171187815
 30
0.0
 11
58.369984494368488
 21
59.970269597110473
 31
0.0
  0
ARC
  5
4FEE
  8
0
 10
55.869984494368047
 20
64.875202930005116
 30
0.0
 40
10.10924076103746
 50
249.74384199958331
 51
290.25615800041669
  0
LINE
  5
4FEF
  8
0
 10
59.369984494368282
 20
54.765962168967668
 30
0.0
 11
59.100753725136201
 21
54.610521711877468
 31
0.0
  0
LINE
  5
4FF0
  8
0
 10
45.369984494368268
 20
54.765962168967668
 30
0.0
 11
45.639215263600128
 21
54.610521711877468
 31
0.0
  0
ARC
  5
4FF1
  8
0
 10
48.869984494368268
 20
64.875202930005116
 30
0.0
 40
10.10924076103746
 50
249.74384199958331
 51
290.25615800041669
  0
LINE
  5
4FF2
  8
0
 10
59.100753725136201
 20
54.610521711877468
 30
0.0
 11
45.639215263600128
 21
54.610521711877468
 31
0.0
  0
ARC
  5
4FF3
  8
0
 10
55.869984494368047
 20
49.345840493749847
 30
0.0
 40
10.10924076103746
 50
69.743841999583282
 51
110.2561580004167
  0
LINE
  5
4FF4
  8
0
 10
59.369984494368282
 20
59.455081254787281
 30
0.0
 11
59.100753725136201
 21
59.610521711877482
 31
0.0
  0
LINE
  5
4FF5
  8
0
 10
45.369984494368268
 20
59.455081254787281
 30
0.0
 11
45.639215263600128
 21
59.610521711877482
 31
0.0
  0
ARC
  5
4FF6
  8
0
 10
48.869984494368268
 20
49.345840493749847
 30
0.0
 40
10.10924076103746
 50
69.743841999583282
 51
110.2561580004167
  0
LINE
  5
4FF7
  8
0
 10
59.100753725136201
 20
59.610521711877482
 30
0.0
 11
45.639215263600128
 21
59.610521711877482
 31
0.0
  0
LINE
  5
4FF8
  8
0
 10
59.369984494368282
 20
59.455081254787281
 30
0.0
 11
59.369984494368282
 21
54.765962168967668
 31
0.0
  0
LINE
  5
4FF9
  8
0
 10
45.369984494368268
 20
59.455081254787281
 30
0.0
 11
45.369984494368268
 21
54.765962168967668
 31
0.0
  0
LINE
  5
4FFA
  8
0
 10
52.369984494368282
 20
58.829866472448209
 30
0.0
 11
52.369984494368282
 21
55.391176951306967
 31
0.0
  0
LINE
  5
4FFB
  8
0
 10
46.869984494368268
 20
50.610521711877688
 30
0.0
 11
46.869984494368268
 21
54.610521711877468
 31
0.0
  0
LINE
  5
4FFC
  8
0
 10
57.869984494368268
 20
50.610521711877688
 30
0.0
 11
57.869984494368268
 21
54.610521711877468
 31
0.0
  0
LINE
  5
4FFD
  8
0
 10
41.400329379765587
 20
221.0118008963793
 30
0.0
 11
46.885156937067109
 21
211.5118008963793
 31
0.0
  0
LINE
  5
4FFE
  8
0
 10
46.885156937067222
 20
230.5118008963793
 30
0.0
 11
41.400329379765587
 21
221.0118008963793
 31
0.0
  0
LINE
  5
4FFF
  8
0
 10
57.854812051670017
 20
230.5118008963793
 30
0.0
 11
46.885156937067222
 21
230.5118008963793
 31
0.0
  0
LINE
  5
5000
  8
0
 10
63.339639608971311
 20
221.0118008963793
 30
0.0
 11
57.854812051670017
 21
230.5118008963793
 31
0.0
  0
LINE
  5
5001
  8
0
 10
57.854812051669803
 20
211.5118008963793
 30
0.0
 11
63.339639608971311
 21
221.0118008963793
 31
0.0
  0
CIRCLE
  5
5002
  8
3
 10
52.369984494368502
 20
221.0118008963793
 30
0.0
 40
5.052999999999999
  0
CIRCLE
  5
5003
  8
0
 10
52.369984494368502
 20
221.0118008963793
 30
0.0
 40
6.0
  0
CIRCLE
  5
5004
  8
0
 10
52.369984494368502
 20
221.0118008963793
 30
0.0
 40
9.0
  0
LINE
  5
5005
  8
0
 10
46.885156937067109
 20
211.5118008963793
 30
0.0
 11
57.854812051669803
 21
211.5118008963793
 31
0.0
  0
LINE
  5
5006
  8
0
 10
214.64777139755421
 20
26.61052171187816
 30
0.0
 11
134.6477713975541
 21
26.61052171187816
 31
0.0
  0
LINE
  5
5007
  8
0
 10
214.64777139755421
 20
26.61052171187816
 30
0.0
 11
214.64777139755421
 21
35.455226380167687
 31
0.0
  0
LINE
  5
5009
  8
0
 10
208.1477713975541
 20
38.642025478412727
 30
0.0
 11
141.1477713975541
 21
38.642025478412727
 31
0.0
  0
LINE
  5
500A
  8
0
 10
202.14777139755421
 20
43.013050440478068
 30
0.0
 11
147.1477713975541
 21
43.013050440478068
 31
0.0
  0
LINE
  5
500B
  8
0
 10
195.4982144486298
 20
45.909260310138279
 30
0.0
 11
153.79732834647851
 21
45.909260310138279
 31
0.0
  0
LINE
  5
500C
  8
0
 10
188.6477713975541
 20
50.610521711878157
 30
0.0
 11
160.6477713975541
 21
50.610521711878157
 31
0.0
  0
LINE
  5
500D
  8
0
 10
208.1477713975541
 20
38.642025478412727
 30
0.0
 11
208.1477713975541
 21
39.483412559160122
 31
0.0
  0
LINE
  5
500E
  8
0
 10
208.1477713975541
 20
38.642025478412727
 30
0.0
 11
214.00675047686309
 21
36.388571986370827
 31
0.0
  0
LINE
  5
500F
  8
0
 10
202.14777139755421
 20
43.013050440478068
 30
0.0
 11
207.58324757994231
 21
40.383612811644291
 31
0.0
  0
LINE
  5
5010
  8
0
 10
195.4982144486298
 20
45.909260310138279
 30
0.0
 11
201.37587051102221
 21
44.532271890752092
 31
0.0
  0
LINE
  5
5011
  8
0
 10
189.6477713975541
 20
49.013050440478068
 30
0.0
 11
159.6477713975541
 21
49.013050440478068
 31
0.0
  0
LINE
  5
5012
  8
0
 10
189.6477713975541
 20
49.013050440478068
 30
0.0
 11
194.80793494734411
 21
47.332190155686931
 31
0.0
  0
LINE
  5
5013
  8
0
 10
189.6477713975541
 20
49.610521711878157
 30
0.0
 11
189.6477713975541
 21
49.013050440478068
 31
0.0
  0
LINE
  5
5014
  8
0
 10
202.14777139755421
 20
43.013050440478068
 30
0.0
 11
202.14777139755421
 21
43.558633973230833
 31
0.0
  0
LINE
  5
5015
  8
0
 10
195.4982144486298
 20
45.909260310138279
 30
0.0
 11
195.4982144486298
 21
46.381362509540622
 31
0.0
  0
ARC
  5
5016
  8
0
 10
188.6477713975541
 20
49.610521711878157
 30
0.0
 40
1.0
 50
359.99999999999881
 51
90.0
  0
ARC
  5
5017
  8
0
 10
194.4982144486298
 20
46.381362509540622
 30
0.0
 40
1.0
 50
0.0
 51
71.957612741642507
  0
ARC
  5
5018
  8
0
 10
201.1477713975541
 20
43.558633973230833
 30
0.0
 40
1.0
 50
0.0
 51
76.814815600247385
  0
ARC
  5
5019
  8
0
 10
213.6477713975541
 20
35.455226380167687
 30
0.0
 40
1.0
 50
0.0
 51
68.962488974577596
  0
ARC
  5
501A
  8
0
 10
207.14777139755421
 20
39.483412559160122
 30
0.0
 40
1.0
 50
0.0
 51
64.184402028348941
  0
ARC
  5
501C
  8
0
 10
142.1477713975541
 20
39.483412559160122
 30
0.0
 40
1.0
 50
115.8155979716511
 51
180.0
  0
ARC
  5
501D
  8
0
 10
135.6477713975541
 20
35.455226380167687
 30
0.0
 40
1.0
 50
111.0375110254224
 51
180.0
  0
ARC
  5
501E
  8
0
 10
148.1477713975541
 20
43.558633973230833
 30
0.0
 40
1.0
 50
103.1851843997526
 51
180.0
  0
ARC
  5
501F
  8
0
 10
154.79732834647839
 20
46.381362509540622
 30
0.0
 40
1.0
 50
108.04238725835749
 51
180.0
  0
ARC
  5
5020
  8
0
 10
160.6477713975541
 20
49.610521711878157
 30
0.0
 40
1.0
 50
90.0
 51
180.0000000000008
  0
LINE
  5
5021
  8
0
 10
153.79732834647851
 20
45.909260310138279
 30
0.0
 11
153.79732834647851
 21
46.381362509540622
 31
0.0
  0
LINE
  5
5022
  8
0
 10
147.1477713975541
 20
43.013050440478068
 30
0.0
 11
147.1477713975541
 21
43.558633973230833
 31
0.0
  0
LINE
  5
5023
  8
0
 10
159.6477713975541
 20
49.610521711878157
 30
0.0
 11
159.6477713975541
 21
49.013050440478068
 31
0.0
  0
LINE
  5
5024
  8
0
 10
159.6477713975541
 20
49.013050440478068
 30
0.0
 11
154.48760784776411
 21
47.332190155686931
 31
0.0
  0
LINE
  5
5025
  8
0
 10
153.79732834647851
 20
45.909260310138279
 30
0.0
 11
147.91967228408609
 21
44.532271890752092
 31
0.0
  0
LINE
  5
5026
  8
0
 10
147.1477713975541
 20
43.013050440478068
 30
0.0
 11
141.71229521516599
 21
40.383612811644291
 31
0.0
  0
LINE
  5
5027
  8
0
 10
141.1477713975541
 20
38.642025478412727
 30
0.0
 11
135.28879231824521
 21
36.388571986370827
 31
0.0
  0
LINE
  5
5028
  8
0
 10
141.1477713975541
 20
38.642025478412727
 30
0.0
 11
141.1477713975541
 21
39.483412559160122
 31
0.0
  0
LINE
  5
5029
  8
0
 10
134.6477713975541
 20
26.61052171187816
 30
0.0
 11
134.6477713975541
 21
35.455226380167687
 31
0.0
  0
LINE
  5
502B
  8
1
 10
174.6477713975541
 20
21.61052171187816
 30
0.0
 11
174.6477713975541
 21
162.61052171187811
 31
0.0
  0
LINE
  5
502C
  8
1
 10
52.369984494368502
 20
21.61052171187816
 30
0.0
 11
52.369984494368502
 21
162.61052171187811
 31
0.0
  0
CIRCLE
  5
502D
  8
0
 10
52.369984494368502
 20
221.0118008963793
 30
0.0
 40
14.99999999999997
  0
CIRCLE
  5
502E
  8
0
 10
52.369984494368502
 20
221.0118008963793
 30
0.0
 40
20.850443051075668
  0
CIRCLE
  5
502F
  8
0
 10
52.369984494368502
 20
221.0118008963793
 30
0.0
 40
27.5
  0
CIRCLE
  5
5030
  8
0
 10
52.369984494368502
 20
221.0118008963793
 30
0.0
 40
33.5
  0
LINE
  5
5032
  8
0
 10
12.369984494368509
 20
26.61052171187816
 30
0.0
 11
12.36998449436839
 21
35.455226380167687
 31
0.0
  0
LINE
  5
5033
  8
0
 10
18.869984494368509
 20
38.642025478412727
 30
0.0
 11
18.869984494368509
 21
39.483412559160122
 31
0.0
  0
LINE
  5
5034
  8
0
 10
18.869984494368509
 20
38.642025478412727
 30
0.0
 11
13.01100541505957
 21
36.388571986370827
 31
0.0
  0
LINE
  5
5035
  8
0
 10
24.869984494368509
 20
43.013050440478068
 30
0.0
 11
19.43450831198038
 21
40.383612811644291
 31
0.0
  0
LINE
  5
5036
  8
0
 10
31.519541443292841
 20
45.909260310138279
 30
0.0
 11
25.641885380900359
 21
44.532271890752092
 31
0.0
  0
LINE
  5
5037
  8
0
 10
37.369984494368502
 20
49.013050440478068
 30
0.0
 11
32.20982094457851
 21
47.332190155686931
 31
0.0
  0
LINE
  5
5038
  8
0
 10
37.369984494368502
 20
49.610521711878157
 30
0.0
 11
37.369984494368502
 21
49.013050440478068
 31
0.0
  0
LINE
  5
5039
  8
0
 10
24.869984494368509
 20
43.013050440478068
 30
0.0
 11
24.869984494368509
 21
43.558633973230833
 31
0.0
  0
LINE
  5
503A
  8
0
 10
31.519541443292841
 20
45.909260310138279
 30
0.0
 11
31.519541443292841
 21
46.381362509540622
 31
0.0
  0
ARC
  5
503B
  8
0
 10
38.369984494368502
 20
49.610521711878157
 30
0.0
 40
1.0
 50
90.0
 51
180.0000000000008
  0
ARC
  5
503C
  8
0
 10
32.519541443292837
 20
46.381362509540622
 30
0.0
 40
1.0
 50
108.0423872583583
 51
180.0
  0
ARC
  5
503D
  8
0
 10
25.869984494368509
 20
43.558633973230833
 30
0.0
 40
1.0
 50
103.185184399753
 51
180.0
  0
ARC
  5
503E
  8
0
 10
13.36998449436839
 20
35.455226380167687
 30
0.0
 40
1.0
 50
111.03751102542159
 51
180.0
  0
ARC
  5
503F
  8
0
 10
19.869984494368509
 20
39.483412559160122
 30
0.0
 40
1.0
 50
115.8155979716512
 51
180.0
  0
ARC
  5
5041
  8
0
 10
84.869984494368509
 20
39.483412559160122
 30
0.0
 40
1.0
 50
0.0
 51
64.184402028348941
  0
ARC
  5
5042
  8
0
 10
91.369984494368481
 20
35.455226380167687
 30
0.0
 40
1.0
 50
0.0
 51
68.962488974578363
  0
ARC
  5
5043
  8
0
 10
78.869984494368509
 20
43.558633973230833
 30
0.0
 40
1.0
 50
0.0
 51
76.814815600247385
  0
ARC
  5
5044
  8
0
 10
72.220427545444181
 20
46.381362509540622
 30
0.0
 40
1.0
 50
0.0
 51
71.957612741641725
  0
ARC
  5
5045
  8
0
 10
66.369984494368495
 20
49.610521711878157
 30
0.0
 40
1.0
 50
359.99999999999881
 51
90.0
  0
LINE
  5
5046
  8
0
 10
73.220427545444181
 20
45.909260310138279
 30
0.0
 11
73.220427545444181
 21
46.381362509540622
 31
0.0
  0
LINE
  5
5047
  8
0
 10
79.869984494368509
 20
43.013050440478068
 30
0.0
 11
79.869984494368509
 21
43.558633973230833
 31
0.0
  0
LINE
  5
5048
  8
0
 10
67.369984494368495
 20
49.610521711878157
 30
0.0
 11
67.369984494368495
 21
49.013050440478068
 31
0.0
  0
LINE
  5
5049
  8
0
 10
67.369984494368495
 20
49.013050440478068
 30
0.0
 11
72.530148044158537
 21
47.332190155686931
 31
0.0
  0
LINE
  5
504A
  8
0
 10
67.369984494368495
 20
49.013050440478068
 30
0.0
 11
37.369984494368502
 21
49.013050440478068
 31
0.0
  0
LINE
  5
504B
  8
0
 10
73.220427545444181
 20
45.909260310138279
 30
0.0
 11
79.098083607836656
 21
44.532271890752092
 31
0.0
  0
LINE
  5
504C
  8
0
 10
79.869984494368509
 20
43.013050440478068
 30
0.0
 11
85.305460676756624
 21
40.383612811644291
 31
0.0
  0
LINE
  5
504D
  8
0
 10
85.869984494368509
 20
38.642025478412727
 30
0.0
 11
91.728963573677447
 21
36.388571986370827
 31
0.0
  0
LINE
  5
504E
  8
0
 10
85.869984494368509
 20
38.642025478412727
 30
0.0
 11
85.869984494368509
 21
39.483412559160122
 31
0.0
  0
LINE
  5
504F
  8
0
 10
66.369984494368495
 20
50.610521711878157
 30
0.0
 11
38.369984494368502
 21
50.610521711878157
 31
0.0
  0
LINE
  5
5050
  8
0
 10
73.220427545444295
 20
45.909260310138279
 30
0.0
 11
31.519541443292841
 21
45.909260310138279
 31
0.0
  0
LINE
  5
5051
  8
0
 10
79.869984494368509
 20
43.013050440478068
 30
0.0
 11
24.869984494368509
 21
43.013050440478068
 31
0.0
  0
LINE
  5
5052
  8
0
 10
85.869984494368509
 20
38.642025478412727
 30
0.0
 11
18.869984494368509
 21
38.642025478412727
 31
0.0
  0
LINE
  5
5053
  8
1
 10
98.084270208654303
 20
221.0118008963793
 30
0.0
 11
6.6556987800827292
 21
221.0118008963793
 31
0.0
  0
LINE
  5
5054
  8
1
 10
52.369984494368502
 20
266.72608661066511
 30
0.0
 11
52.369984494368502
 21
175.29751518209341
 31
0.0
  0
CIRCLE
  5
5055
  8
0
 10
52.369984494368502
 20
221.0118008963793
 30
0.0
 40
40.00000000000005
  0
LINE
  5
5057
  8
0
 10
92.369984494368509
 20
26.61052171187816
 30
0.0
 11
92.369984494368509
 21
35.455226380167687
 31
0.0
  0
LINE
  5
5058
  8
0
 10
92.369984494368509
 20
26.61052171187816
 30
0.0
 11
12.369984494368509
 21
26.61052171187816
 31
0.0
  0
TEXT
  5
5395
  8
0
 62
     3
 10
0.0
 20
0.0
 30
0.0
 40
10.0
  1
LVA80S12C-SUS
  7
STANDARD1
  0
ENDSEC
  0
EOF
