  0
SECTION
  2
HEADER
  9
$ACADVER
  1
AC1009
  9
$INSBASE
 10
0.0
 20
0.0
 30
0.0
  9
$EXTMIN
 10
0.0
 20
-2.960436562073669
 30
0.0
  9
$EXTMAX
 10
223.91262764562859
 20
261.82797471082711
 30
0.0
  9
$LIMMIN
 10
0.0
 20
0.0
  9
$LIMMAX
 10
375.0
 20
270.0
  9
$ORTHOMODE
 70
     1
  9
$REGENMODE
 70
     1
  9
$FILLMODE
 70
     1
  9
$QTEXTMODE
 70
     0
  9
$MIRRTEXT
 70
     0
  9
$DRAGMODE
 70
     2
  9
$LTSCALE
 40
6.0
  9
$OSMODE
 70
  3071
  9
$ATTMODE
 70
     1
  9
$TEXTSIZE
 40
0.2
  9
$TRACEWID
 40
0.05
  9
$TEXTSTYLE
  7
STANDARD
  9
$CLAYER
  8
0
  9
$CELTYPE
  6
BYLAYER
  9
$CECOLOR
 62
   256
  9
$DIMSCALE
 40
1.0
  9
$DIMASZ
 40
3.0
  9
$DIMEXO
 40
1.0
  9
$DIMDLI
 40
6.0
  9
$DIMRND
 40
0.0
  9
$DIMDLE
 40
0.0
  9
$DIMEXE
 40
1.0
  9
$DIMTP
 40
495.0
  9
$DIMTM
 40
0.0
  9
$DIMTXT
 40
3.0
  9
$DIMCEN
 40
0.0
  9
$DIMTSZ
 40
0.0
  9
$DIMTOL
 70
     0
  9
$DIMLIM
 70
     0
  9
$DIMTIH
 70
     0
  9
$DIMTOH
 70
     0
  9
$DIMSE1
 70
     0
  9
$DIMSE2
 70
     0
  9
$DIMTAD
 70
     1
  9
$DIMZIN
 70
     0
  9
$DIMBLK
  1

  9
$DIMASO
 70
     0
  9
$DIMSHO
 70
     0
  9
$DIMPOST
  1

  9
$DIMAPOST
  1

  9
$DIMALT
 70
     0
  9
$DIMALTD
 70
     2
  9
$DIMALTF
 40
25.399999999999999
  9
$DIMLFAC
 40
1.0
  9
$DIMTOFL
 70
     1
  9
$DIMTVP
 40
0.0
  9
$DIMTIX
 70
     1
  9
$DIMSOXD
 70
     0
  9
$DIMSAH
 70
     0
  9
$DIMBLK1
  1

  9
$DIMBLK2
  1

  9
$DIMSTYLE
  2
STANDARD
  9
$DIMCLRD
 70
     0
  9
$DIMCLRE
 70
     0
  9
$DIMCLRT
 70
     4
  9
$DIMTFAC
 40
1.0
  9
$DIMGAP
 40
1.0
  9
$LUNITS
 70
     2
  9
$LUPREC
 70
     4
  9
$SKETCHINC
 40
0.1
  9
$FILLETRAD
 40
2.0
  9
$AUNITS
 70
     0
  9
$AUPREC
 70
     0
  9
$MENU
  1
C:\R13\WIN\SUPPORT\ACAD-I
  9
$ELEVATION
 40
0.0
  9
$PELEVATION
 40
0.0
  9
$THICKNESS
 40
0.0
  9
$LIMCHECK
 70
     0
  9
$BLIPMODE
 70
     0
  9
$CHAMFERA
 40
0.0
  9
$CHAMFERB
 40
0.0
  9
$SKPOLY
 70
     0
  9
$TDCREATE
 40
2451962.4562477898
  9
$TDUPDATE
 40
2456597.6134648151
  9
$TDINDWG
 40
0.0660297917
  9
$TDUSRTIMER
 40
2456556.1772879981
  9
$USRTIMER
 70
     1
  9
$ANGBASE
 50
0.0
  9
$ANGDIR
 70
     0
  9
$PDMODE
 70
     0
  9
$PDSIZE
 40
0.0
  9
$PLINEWID
 40
0.0
  9
$COORDS
 70
     1
  9
$SPLFRAME
 70
     0
  9
$SPLINETYPE
 70
     6
  9
$SPLINESEGS
 70
     8
  9
$ATTDIA
 70
     0
  9
$ATTREQ
 70
     1
  9
$HANDLING
 70
     1
  9
$HANDSEED
  5
558F
  9
$SURFTAB1
 70
     6
  9
$SURFTAB2
 70
     6
  9
$SURFTYPE
 70
     6
  9
$SURFU
 70
     6
  9
$SURFV
 70
     6
  9
$UCSNAME
  2

  9
$UCSORG
 10
0.0
 20
0.0
 30
0.0
  9
$UCSXDIR
 10
1.0
 20
0.0
 30
0.0
  9
$UCSYDIR
 10
0.0
 20
1.0
 30
0.0
  9
$PUCSNAME
  2

  9
$PUCSORG
 10
0.0
 20
0.0
 30
0.0
  9
$PUCSXDIR
 10
1.0
 20
0.0
 30
0.0
  9
$PUCSYDIR
 10
0.0
 20
1.0
 30
0.0
  9
$USERI1
 70
     4
  9
$USERI2
 70
     1
  9
$USERI3
 70
     0
  9
$USERI4
 70
     0
  9
$USERI5
 70
     0
  9
$USERR1
 40
1.0
  9
$USERR2
 40
3.0
  9
$USERR3
 40
3.0
  9
$USERR4
 40
3.0
  9
$USERR5
 40
10.0
  9
$WORLDVIEW
 70
     1
  9
$SHADEDGE
 70
     3
  9
$SHADEDIF
 70
    70
  9
$TILEMODE
 70
     1
  9
$MAXACTVP
 70
    16
  9
$PLIMCHECK
 70
     0
  9
$PEXTMIN
 10
1.0000000000000000E+020
 20
1.0000000000000000E+020
 30
1.0000000000000000E+020
  9
$PEXTMAX
 10
-1.0000000000000000E+020
 20
-1.0000000000000000E+020
 30
-1.0000000000000000E+020
  9
$PLIMMIN
 10
0.0
 20
0.0
  9
$PLIMMAX
 10
12.0
 20
9.0
  9
$UNITMODE
 70
     0
  9
$VISRETAIN
 70
     0
  9
$PLINEGEN
 70
     0
  9
$PSLTSCALE
 70
     0
  0
ENDSEC
  0
SECTION
  2
TABLES
  0
TABLE
  2
VPORT
 70
     1
  0
VPORT
  2
*ACTIVE
 70
     0
 10
0.0
 20
0.0
 11
1.0
 21
1.0
 12
187.49427839065231
 22
134.10366293909439
 13
0.0
 23
0.0
 14
10.0
 24
10.0
 15
10.0
 25
10.0
 16
0.0
 26
0.0
 36
1.0
 17
0.0
 27
0.0
 37
0.0
 40
277.29405978699532
 41
2.304913294797688
 42
50.0
 43
0.0
 44
0.0
 50
0.0
 51
0.0
 71
    16
 72
   100
 73
     1
 74
     0
 75
     0
 76
     0
 77
     0
 78
     0
  0
ENDTAB
  0
TABLE
  2
LTYPE
 70
     3
  0
LTYPE
  2
CONTINUOUS
 70
     0
  3
Solid Line
 72
    65
 73
     0
 40
0.0
  0
LTYPE
  2
PHANTOM2
 70
     0
  3
___ _ _ ___ _ _ ___ _ _ ___ _ _
 72
    65
 73
     6
 40
1.25
 49
0.625
 49
-0.125
 49
0.125
 49
-0.125
 49
0.125
 49
-0.125
  0
LTYPE
  2
CENTER
 70
     0
  3
____ _ ____ _ ____ _ ____ _ ____ _ ____ _ ____
 72
    65
 73
     4
 40
2.0
 49
1.25
 49
-0.25
 49
0.25
 49
-0.25
  0
ENDTAB
  0
TABLE
  2
LAYER
 70
     3
  0
LAYER
  2
0
 70
     0
 62
     7
  6
CONTINUOUS
  0
LAYER
  2
1
 70
     0
 62
     1
  6
CENTER
  0
LAYER
  2
3
 70
     0
 62
     3
  6
CONTINUOUS
  0
ENDTAB
  0
TABLE
  2
STYLE
 70
     3
  0
STYLE
  2
STANDARD
 70
     0
 40
0.0
 41
1.0
 50
0.0
 71
     0
 42
0.2
  3
SIMPLEX
  4
BIGFONT
  0
STYLE
  2
ANNOTATIVE
 70
     0
 40
0.0
 41
1.0
 50
0.0
 71
     0
 42
0.2
  3
txt
  4

  0
STYLE
  2
STANDARD1
 70
     0
 40
0.0
 41
1.0
 50
0.0
 71
     0
 42
3.0
  3
txt
  4

  0
ENDTAB
  0
TABLE
  2
VIEW
 70
     0
  0
ENDTAB
  0
TABLE
  2
UCS
 70
     0
  0
ENDTAB
  0
TABLE
  2
APPID
 70
    29
  0
APPID
  2
ACAD
 70
     0
  0
APPID
  2
ACADANNOTATIVE
 70
     0
  0
APPID
  2
GENIUS_GENOREF_13
 70
     0
  0
APPID
  2
GENIUS_GENOENT_13
 70
     0
  0
APPID
  2
GENIUS_GENBH_13
 70
     0
  0
APPID
  2
GENIUS_GENOBJ_13
 70
     0
  0
APPID
  2
GENIUS_GENODEF_13
 70
     0
  0
APPID
  2
GENIUS_GENOLIS_13
 70
     0
  0
APPID
  2
GENIUS_GENOBJ-NBEHI-BHF_13
 70
     0
  0
APPID
  2
GENIUS_GENOBJ-NBEHI-BHB_13
 70
     0
  0
APPID
  2
GENIUS_GENOBJ-F-PART_13
 70
     0
  0
APPID
  2
GENIUS_GEFSTDP_13
 70
     0
  0
APPID
  2
GENIUS_GENOBJ-N-RSSYM_13
 70
     0
  0
APPID
  2
GENIUS_GENSYMENT_13
 70
     0
  0
APPID
  2
GENIUS_GENOBJ-N-TIT_13
 70
     0
  0
APPID
  2
GENIUS_GENTITLE_13
 70
     0
  0
APPID
  2
GENIUS_GENZVEED_13
 70
     0
  0
APPID
  2
GENIUS_GENOBJ-N-LEADER_13
 70
     0
  0
APPID
  2
GENIUS_GENOBJ-N-FIL_13
 70
     0
  0
APPID
  2
GENIUS_GENOBJ-N-SEC_13
 70
     0
  0
APPID
  2
GENIUS_GENOBJ-N-CRS_13
 70
     0
  0
APPID
  2
GENIUS_GENOBJ-N-ZOO_13
 70
     0
  0
APPID
  2
GENIUS_GENZOO_13
 70
     0
  0
APPID
  2
GENIUS_GENOBJ-F-TOL_13
 70
     0
  0
APPID
  2
GENIUS_GENFIL_13
 70
     0
  0
APPID
  2
GENIUS_GENOBJ-N-CHA_13
 70
     0
  0
APPID
  2
ACAD_EXEMPT_FROM_CAD_STANDARDS
 70
     0
  0
APPID
  2
ACAD_MLEADERVER
 70
     0
  0
APPID
  2
ACAD_NAV_VCDISPLAY
 70
     0
  0
ENDTAB
  0
TABLE
  2
DIMSTYLE
 70
     2
  0
DIMSTYLE
  2
STANDARD
 70
     0
  3

  4

  5

  6

  7

 40
1.0
 41
0.18
 42
0.0625
 43
0.38
 44
0.18
 45
0.0
 46
0.0
 47
0.0
 48
0.0
140
0.18
141
0.09
142
0.0
143
25.399999999999999
144
1.0
145
0.0
146
1.0
147
0.09
 71
     0
 72
     0
 73
     1
 74
     1
 75
     0
 76
     0
 77
     0
 78
     0
170
     0
171
     2
172
     0
173
     0
174
     0
175
     0
176
     0
177
     0
178
     0
  0
DIMSTYLE
  2
ANNOTATIVE
 70
     0
  3

  4

  5

  6

  7

 40
1.0
 41
0.18
 42
0.0625
 43
0.38
 44
0.18
 45
0.0
 46
0.0
 47
0.0
 48
0.0
140
0.18
141
0.09
142
0.0
143
25.399999999999999
144
1.0
145
0.0
146
1.0
147
0.09
 71
     0
 72
     0
 73
     1
 74
     1
 75
     0
 76
     0
 77
     0
 78
     0
170
     0
171
     2
172
     0
173
     0
174
     0
175
     0
176
     0
177
     0
178
     0
  0
ENDTAB
  0
ENDSEC
  0
SECTION
  2
BLOCKS
  0
BLOCK
  8
0
  2
$MODEL_SPACE
 70
     0
 10
0.0
 20
0.0
 30
0.0
  3
$MODEL_SPACE
  1

  0
ENDBLK
  5
54B2
  8
0
  0
BLOCK
 67
     1
  8
0
  2
$PAPER_SPACE
 70
     0
 10
0.0
 20
0.0
 30
0.0
  3
$PAPER_SPACE
  1

  0
ENDBLK
  5
54AE
 67
     1
  8
0
  0
ENDSEC
  0
SECTION
  2
ENTITIES
  0
LINE
  5
513B
  8
1
 10
183.9126276456285
 20
127.71240981204031
 30
0.0
 11
183.9126276456285
 21
16.712409812040281
 31
0.0
  0
LINE
  5
513C
  8
1
 10
61.634840742442982
 20
127.71240981204031
 30
0.0
 11
61.634840742442982
 21
16.712409812040281
 31
0.0
  0
CIRCLE
  5
513D
  8
3
 10
61.634840742442982
 20
216.1136889965415
 30
0.0
 40
6.9175000000000004
  0
CIRCLE
  5
513E
  8
0
 10
61.634840742442982
 20
216.1136889965415
 30
0.0
 40
8.0
  0
CIRCLE
  5
513F
  8
0
 10
61.634840742442982
 20
216.1136889965415
 30
0.0
 40
11.5
  0
LINE
  5
5140
  8
0
 10
75.491247202994032
 20
216.1136889965415
 30
0.0
 11
68.563043972718447
 21
228.11368899654141
 31
0.0
  0
LINE
  5
5141
  8
0
 10
68.563043972718447
 20
204.11368899654141
 30
0.0
 11
75.491247202994032
 21
216.1136889965415
 31
0.0
  0
LINE
  5
5142
  8
0
 10
54.706637512167511
 20
204.11368899654141
 30
0.0
 11
68.563043972718447
 21
204.11368899654141
 31
0.0
  0
LINE
  5
5143
  8
0
 10
47.778434281891919
 20
216.1136889965415
 30
0.0
 11
54.706637512167511
 21
204.11368899654141
 31
0.0
  0
LINE
  5
5144
  8
0
 10
54.706637512167511
 20
228.11368899654141
 30
0.0
 11
47.778434281891919
 21
216.1136889965415
 31
0.0
  0
LINE
  5
5145
  8
0
 10
68.563043972718447
 20
228.11368899654141
 30
0.0
 11
54.706637512167511
 21
228.11368899654141
 31
0.0
  0
LINE
  5
5146
  8
3
 10
190.83012764562861
 20
94.501084946603427
 30
0.0
 11
190.83012764562861
 21
121.7949098120402
 31
0.0
  0
LINE
  5
5147
  8
0
 10
191.9126276456285
 20
94.50108494660526
 30
0.0
 11
191.9126276456285
 21
120.71240981204021
 31
0.0
  0
LINE
  5
5148
  8
0
 10
175.91262764562859
 20
94.501084946578445
 30
0.0
 11
175.91262764562859
 21
120.7124098120407
 31
0.0
  0
LINE
  5
5149
  8
3
 10
176.9951276456286
 20
94.501084946580235
 30
0.0
 11
176.9951276456286
 21
121.7949098120405
 31
0.0
  0
LINE
  5
514A
  8
3
 10
176.9951276456286
 20
56.712409812040498
 30
0.0
 11
175.91262764562859
 21
54.837464812847202
 31
0.0
  0
LINE
  5
514B
  8
0
 10
175.91262764562859
 20
120.7124098120407
 30
0.0
 11
177.91262764562859
 21
122.71240981204051
 31
0.0
  0
LINE
  5
514C
  8
0
 10
175.91262764562859
 20
54.576562689877839
 30
0.0
 11
175.91262764562859
 21
81.501084946631934
 31
0.0
  0
LINE
  5
514D
  8
3
 10
176.9951276456286
 20
56.712409812040498
 30
0.0
 11
176.9951276456286
 21
81.501084946630101
 31
0.0
  0
LINE
  5
514E
  8
3
 10
190.83012764562861
 20
56.712409812040498
 30
0.0
 11
191.9126276456285
 21
54.837464812847202
 31
0.0
  0
LINE
  5
514F
  8
0
 10
175.91262764562859
 20
56.712409812040498
 30
0.0
 11
191.9126276456285
 21
56.712409812040498
 31
0.0
  0
LINE
  5
5150
  8
0
 10
191.9126276456285
 20
120.71240981204021
 30
0.0
 11
175.91262764562859
 21
120.71240981204051
 31
0.0
  0
LINE
  5
5151
  8
0
 10
189.9126276456285
 20
122.71240981204031
 30
0.0
 11
191.9126276456285
 21
120.71240981204021
 31
0.0
  0
LINE
  5
5152
  8
3
 10
190.83012764562861
 20
56.712409812040498
 30
0.0
 11
190.83012764562861
 21
81.501084946607165
 31
0.0
  0
LINE
  5
5153
  8
0
 10
191.9126276456285
 20
54.576562689877377
 30
0.0
 11
191.9126276456285
 21
81.50108494660509
 31
0.0
  0
LINE
  5
5154
  8
0
 10
177.91262764562859
 20
122.71240981204051
 30
0.0
 11
189.9126276456285
 21
122.71240981204031
 31
0.0
  0
LINE
  5
5155
  8
0
 10
191.67733352798169
 20
48.712409812040491
 30
0.0
 11
176.14792176327521
 21
48.712409812040491
 31
0.0
  0
LINE
  5
5156
  8
0
 10
176.14792176327541
 20
54.712409812040733
 30
0.0
 11
191.67733352798169
 21
54.712409812040278
 31
0.0
  0
ARC
  5
5157
  8
0
 10
190.840830875904
 20
50.48724629239679
 30
0.0
 40
4.0893163974808306
 50
64.384247467885544
 51
124.38424746800619
  0
LINE
  5
5158
  8
0
 10
193.15023195266241
 20
53.862031510062032
 30
0.0
 11
191.6773335279814
 21
54.712409812040733
 31
0.0
  0
LINE
  5
5159
  8
0
 10
193.15023195266241
 20
49.562788114018971
 30
0.0
 11
191.6773335279814
 21
48.712409812040278
 31
0.0
  0
ARC
  5
515A
  8
0
 10
190.840830875904
 20
52.93757333168422
 30
0.0
 40
4.0893163974808306
 50
235.61575253199379
 51
295.61575253211453
  0
LINE
  5
515B
  8
0
 10
193.15023195266241
 20
53.862031510062032
 30
0.0
 11
193.15023195266241
 21
49.562788114018971
 31
0.0
  0
LINE
  5
515C
  8
0
 10
188.53142979914639
 20
53.862031510062032
 30
0.0
 11
188.5314297991458
 21
49.562788114018538
 31
0.0
  0
LINE
  5
515D
  8
0
 10
179.2938254921105
 20
53.862031510062032
 30
0.0
 11
179.2938254921111
 21
49.562788114018538
 31
0.0
  0
LINE
  5
515E
  8
0
 10
174.67502333859451
 20
53.862031510062032
 30
0.0
 11
174.67502333859451
 21
49.562788114018971
 31
0.0
  0
ARC
  5
515F
  8
0
 10
183.91262764562799
 20
64.133725754407124
 30
0.0
 40
15.28546882020385
 50
252.4120462260301
 51
287.58795377396979
  0
ARC
  5
5160
  8
0
 10
176.984424415353
 20
52.93757333168422
 30
0.0
 40
4.0893163974808306
 50
244.3842474678855
 51
304.38424746800621
  0
LINE
  5
5161
  8
0
 10
174.67502333859451
 20
49.562788114018971
 30
0.0
 11
176.14792176327541
 21
48.712409812040278
 31
0.0
  0
LINE
  5
5162
  8
0
 10
174.67502333859451
 20
53.862031510062032
 30
0.0
 11
176.14792176327541
 21
54.712409812040733
 31
0.0
  0
ARC
  5
5163
  8
0
 10
183.91262764562799
 20
39.291093869673659
 30
0.0
 40
15.28546882020385
 50
72.412046226030142
 51
107.5879537739699
  0
ARC
  5
5164
  8
0
 10
176.984424415353
 20
50.48724629239679
 30
0.0
 40
4.0893163974808306
 50
55.61575253199382
 51
115.6157525321144
  0
LINE
  5
5165
  8
0
 10
195.4126276456285
 20
81.50108494659942
 30
0.0
 11
172.41262764556211
 21
81.501084946637846
 31
0.0
  0
LINE
  5
5166
  8
0
 10
172.41262764556211
 20
94.501084946572519
 30
0.0
 11
195.4126276456285
 21
94.501084946610945
 31
0.0
  0
ARC
  5
5167
  8
0
 10
177.91262764562859
 20
76.882282794674211
 30
0.0
 40
17.330127017333279
 50
69.743841997644466
 51
110.25615800235551
  0
LINE
  5
5168
  8
0
 10
171.91262764561361
 20
94.212409812007508
 30
0.0
 11
172.41262764562859
 21
94.501084946610945
 31
0.0
  0
LINE
  5
5169
  8
0
 10
171.91262764561361
 20
81.789760081202829
 30
0.0
 11
172.41262764562859
 21
81.50108494659942
 31
0.0
  0
ARC
  5
516A
  8
0
 10
177.91262764562859
 20
99.119887098536154
 30
0.0
 40
17.330127017333279
 50
249.74384199764449
 51
290.25615800235551
  0
LINE
  5
516B
  8
0
 10
171.91262764561361
 20
94.212409812007508
 30
0.0
 11
171.91262764562859
 21
81.789760081194174
 31
0.0
  0
LINE
  5
516C
  8
0
 10
183.9126276456285
 20
82.861556851032063
 30
0.0
 11
183.9126276456285
 21
93.140613042178273
 31
0.0
  0
LINE
  5
516D
  8
0
 10
195.91262764564351
 20
94.212409812007508
 30
0.0
 11
195.9126276456285
 21
81.789760081194174
 31
0.0
  0
ARC
  5
516E
  8
0
 10
189.9126276456285
 20
99.119887098536154
 30
0.0
 40
17.330127017333279
 50
249.74384199764449
 51
290.25615800235551
  0
LINE
  5
516F
  8
0
 10
195.91262764564351
 20
81.789760081202829
 30
0.0
 11
195.4126276456285
 21
81.50108494659942
 31
0.0
  0
LINE
  5
5170
  8
0
 10
195.91262764564351
 20
94.212409812007508
 30
0.0
 11
195.4126276456285
 21
94.501084946610945
 31
0.0
  0
ARC
  5
5171
  8
0
 10
189.9126276456285
 20
76.882282794674211
 30
0.0
 40
17.330127017333279
 50
69.743841997644466
 51
110.25615800235551
  0
LINE
  5
5172
  8
0
 10
178.4126276456287
 20
45.712409812040491
 30
0.0
 11
178.4126276456287
 21
48.712409812040278
 31
0.0
  0
LINE
  5
5173
  8
0
 10
189.4126276456287
 20
45.712409812040491
 30
0.0
 11
189.4126276456287
 21
48.712409812040278
 31
0.0
  0
LINE
  5
5174
  8
0
 10
53.634840742442968
 20
94.501084946539919
 30
0.0
 11
53.634840742442968
 21
120.71240981204021
 31
0.0
  0
LINE
  5
5175
  8
3
 10
54.71734074244295
 20
94.501084946539919
 30
0.0
 11
54.71734074244295
 21
121.7949098120402
 31
0.0
  0
LINE
  5
5176
  8
0
 10
69.634840742442975
 20
94.501084946539919
 30
0.0
 11
69.634840742442975
 21
120.71240981204021
 31
0.0
  0
LINE
  5
5177
  8
3
 10
68.552340742442993
 20
94.501084946539919
 30
0.0
 11
68.552340742442993
 21
121.7949098120402
 31
0.0
  0
LINE
  5
5178
  8
0
 10
53.870134860089472
 20
48.712409812040043
 30
0.0
 11
69.399546624795391
 21
48.712409812040043
 31
0.0
  0
LINE
  5
5179
  8
0
 10
69.399546624794354
 20
54.71240981204005
 30
0.0
 11
53.870134860090452
 21
54.71240981204005
 31
0.0
  0
ARC
  5
517A
  8
0
 10
57.634840742442456
 20
43.023144677250002
 30
0.0
 40
11.55341801262729
 50
69.743841999608421
 51
110.25615800039159
  0
LINE
  5
517B
  8
0
 10
53.6348407424424
 20
54.576562689877377
 30
0.0
 11
53.870134860090452
 21
54.71240981204005
 31
0.0
  0
ARC
  5
517C
  8
0
 10
57.634840742442456
 20
60.401674946829651
 30
0.0
 40
11.55341801262729
 50
249.74384199960841
 51
290.25615800039151
  0
LINE
  5
517D
  8
0
 10
53.6348407424424
 20
48.848256934202247
 30
0.0
 11
53.870134860090452
 21
48.712409812039368
 31
0.0
  0
LINE
  5
517E
  8
0
 10
53.6348407424424
 20
54.576562689877377
 30
0.0
 11
53.634840742442456
 21
48.848256934202247
 31
0.0
  0
LINE
  5
517F
  8
0
 10
61.634840742442456
 20
53.862031510061342
 30
0.0
 11
61.634840742442456
 21
49.562788114018083
 31
0.0
  0
LINE
  5
5180
  8
0
 10
69.63484074244252
 20
54.576562689877377
 30
0.0
 11
69.634840742442464
 21
48.848256934202247
 31
0.0
  0
ARC
  5
5181
  8
0
 10
65.634840742442464
 20
60.401674946829651
 30
0.0
 40
11.55341801262729
 50
249.74384199960841
 51
290.25615800039151
  0
LINE
  5
5182
  8
0
 10
69.63484074244252
 20
48.848256934202247
 30
0.0
 11
69.399546624794425
 21
48.712409812039368
 31
0.0
  0
LINE
  5
5183
  8
0
 10
69.63484074244252
 20
54.576562689877377
 30
0.0
 11
69.399546624794425
 21
54.71240981204005
 31
0.0
  0
ARC
  5
5184
  8
0
 10
65.634840742442464
 20
43.023144677250002
 30
0.0
 40
11.55341801262729
 50
69.743841999608421
 51
110.25615800039159
  0
LINE
  5
5185
  8
0
 10
55.634840742442961
 20
122.71240981204031
 30
0.0
 11
67.634840742442975
 21
122.71240981204031
 31
0.0
  0
LINE
  5
5186
  8
0
 10
69.634840742442975
 20
54.576562689876937
 30
0.0
 11
69.634840742442975
 21
81.501084946605019
 31
0.0
  0
LINE
  5
5187
  8
3
 10
68.552340742442993
 20
56.712409812040278
 30
0.0
 11
68.552340742442993
 21
81.501084946605019
 31
0.0
  0
LINE
  5
5188
  8
3
 10
54.71734074244295
 20
56.712409812040278
 30
0.0
 11
54.71734074244295
 21
81.501084946605019
 31
0.0
  0
LINE
  5
5189
  8
0
 10
53.634840742442968
 20
54.576562689877612
 30
0.0
 11
53.634840742442968
 21
81.501084946605275
 31
0.0
  0
LINE
  5
518A
  8
0
 10
53.634840742442968
 20
120.71240981204021
 30
0.0
 11
55.634840742442961
 21
122.71240981204031
 31
0.0
  0
LINE
  5
518B
  8
0
 10
67.634840742442975
 20
122.71240981204031
 30
0.0
 11
69.634840742442975
 21
120.71240981204021
 31
0.0
  0
LINE
  5
518C
  8
0
 10
69.634840742442975
 20
120.71240981204021
 30
0.0
 11
53.634840742442968
 21
120.71240981204021
 31
0.0
  0
LINE
  5
518D
  8
0
 10
53.634840742442968
 20
56.712409812040278
 30
0.0
 11
69.634840742442975
 21
56.712409812040278
 31
0.0
  0
LINE
  5
518E
  8
3
 10
54.71734074244295
 20
56.712409812040278
 30
0.0
 11
53.634840742442968
 21
54.837464812846967
 31
0.0
  0
LINE
  5
518F
  8
3
 10
68.552340742442993
 20
56.712409812040278
 30
0.0
 11
69.634840742442975
 21
54.837464812846967
 31
0.0
  0
LINE
  5
5190
  8
0
 10
73.134840742334916
 20
81.501084946605275
 30
0.0
 11
50.134840742550459
 21
81.501084946605275
 31
0.0
  0
LINE
  5
5191
  8
0
 10
50.134840742442677
 20
94.501084946539919
 30
0.0
 11
73.134840742334916
 21
94.501084946539919
 31
0.0
  0
ARC
  5
5192
  8
0
 10
72.027145587856182
 20
88.078435216254022
 30
0.0
 40
6.1339745957208196
 50
64.384247469854884
 51
124.3842474712113
  0
LINE
  5
5193
  8
0
 10
75.491247203015703
 20
93.140613042145716
 30
0.0
 11
73.134840742334916
 21
94.501084946539919
 31
0.0
  0
LINE
  5
5194
  8
0
 10
75.491247203015703
 20
82.861556850999449
 30
0.0
 11
73.134840742334916
 21
81.501084946605275
 31
0.0
  0
ARC
  5
5195
  8
0
 10
72.027145587856182
 20
87.923734676890945
 30
0.0
 40
6.1339745957208196
 50
235.6157525287887
 51
295.61575253014507
  0
LINE
  5
5196
  8
0
 10
75.491247202993861
 20
93.140613042145716
 30
0.0
 11
75.491247202993861
 21
82.861556850986744
 31
0.0
  0
LINE
  5
5197
  8
0
 10
68.563043972718049
 20
93.140613042145716
 30
0.0
 11
68.563043972718049
 21
82.861556850999449
 31
0.0
  0
LINE
  5
5198
  8
0
 10
54.706637512167333
 20
93.140613042145716
 30
0.0
 11
54.706637512167333
 21
82.861556850999449
 31
0.0
  0
LINE
  5
5199
  8
0
 10
47.778434281891528
 20
93.140613042145716
 30
0.0
 11
47.778434281891528
 21
82.861556850986744
 31
0.0
  0
ARC
  5
519A
  8
0
 10
61.634840742442677
 20
104.7179633093096
 30
0.0
 40
22.928203228139491
 50
252.41204622431411
 51
287.58795377568589
  0
ARC
  5
519B
  8
0
 10
51.2425358970292
 20
87.923734676890945
 30
0.0
 40
6.1339745957208196
 50
244.3842474698549
 51
304.38424747121132
  0
LINE
  5
519C
  8
0
 10
47.778434281869679
 20
82.861556850999449
 30
0.0
 11
50.134840742550459
 21
81.501084946605275
 31
0.0
  0
LINE
  5
519D
  8
0
 10
47.778434281869679
 20
93.140613042145716
 30
0.0
 11
50.134840742550459
 21
94.501084946539919
 31
0.0
  0
ARC
  5
519E
  8
0
 10
51.2425358970292
 20
88.078435216254022
 30
0.0
 40
6.1339745957208196
 50
55.61575252878869
 51
115.6157525301451
  0
ARC
  5
519F
  8
0
 10
61.634840742442677
 20
71.284206583835314
 30
0.0
 40
22.928203228139491
 50
72.412046224314139
 51
107.5879537756858
  0
LINE
  5
51A0
  8
0
 10
67.134840742442336
 20
45.712409812040264
 30
0.0
 11
67.134840742442336
 21
48.712409812040043
 31
0.0
  0
LINE
  5
51A1
  8
0
 10
56.13484074244235
 20
45.712409812040264
 30
0.0
 11
56.13484074244235
 21
48.712409812040043
 31
0.0
  0
LINE
  5
51B1
  8
0
 10
101.634840742443
 20
21.712409812040281
 30
0.0
 11
21.634840742442979
 21
21.712409812040281
 31
0.0
  0
LINE
  5
51B2
  8
0
 10
101.634840742443
 20
21.712409812040281
 30
0.0
 11
101.634840742443
 21
30.557114480329801
 31
0.0
  0
CIRCLE
  5
51B4
  8
0
 10
61.634840742442982
 20
216.1136889965415
 30
0.0
 40
40.00000000000005
  0
LINE
  5
51B5
  8
1
 10
61.634840742442982
 20
261.82797471082711
 30
0.0
 11
61.634840742442982
 21
170.39940328225561
 31
0.0
  0
LINE
  5
51B6
  8
1
 10
107.3491264567287
 20
216.1136889965415
 30
0.0
 11
15.920555028157191
 21
216.1136889965415
 31
0.0
  0
LINE
  5
51B7
  8
0
 10
95.134840742442947
 20
33.743913578574862
 30
0.0
 11
28.134840742442979
 21
33.743913578574862
 31
0.0
  0
LINE
  5
51B8
  8
0
 10
89.134840742443004
 20
38.114938540640203
 30
0.0
 11
34.134840742442982
 21
38.114938540640203
 31
0.0
  0
LINE
  5
51B9
  8
0
 10
82.485283793518747
 20
41.011148410300379
 30
0.0
 11
40.784397691367289
 21
41.011148410300379
 31
0.0
  0
LINE
  5
51BA
  8
0
 10
75.634840742442975
 20
45.712409812040264
 30
0.0
 11
47.634840742442961
 21
45.712409812040264
 31
0.0
  0
LINE
  5
51BB
  8
0
 10
95.134840742442947
 20
33.743913578574862
 30
0.0
 11
95.134840742442947
 21
34.585300659322229
 31
0.0
  0
LINE
  5
51BC
  8
0
 10
95.134840742442947
 20
33.743913578574862
 30
0.0
 11
100.9938198217519
 21
31.490460086532948
 31
0.0
  0
LINE
  5
51BD
  8
0
 10
89.134840742443004
 20
38.114938540640203
 30
0.0
 11
94.57031692483109
 21
35.485500911806398
 31
0.0
  0
LINE
  5
51BE
  8
0
 10
82.485283793518633
 20
41.011148410300379
 30
0.0
 11
88.362939855911122
 21
39.63415999091422
 31
0.0
  0
LINE
  5
51BF
  8
0
 10
76.634840742442975
 20
44.114938540640182
 30
0.0
 11
46.634840742442968
 21
44.114938540640182
 31
0.0
  0
LINE
  5
51C0
  8
0
 10
76.634840742442975
 20
44.114938540640182
 30
0.0
 11
81.795004292232974
 21
42.43407825584903
 31
0.0
  0
LINE
  5
51C1
  8
0
 10
76.634840742442975
 20
44.712409812040278
 30
0.0
 11
76.634840742442975
 21
44.114938540640182
 31
0.0
  0
LINE
  5
51C2
  8
0
 10
89.134840742443004
 20
38.114938540640203
 30
0.0
 11
89.134840742443004
 21
38.66052207339294
 31
0.0
  0
LINE
  5
51C3
  8
0
 10
82.485283793518633
 20
41.011148410300379
 30
0.0
 11
82.485283793518633
 21
41.483250609702722
 31
0.0
  0
ARC
  5
51C4
  8
0
 10
75.634840742442975
 20
44.712409812040278
 30
0.0
 40
1.0
 50
359.99999999999892
 51
90.0
  0
ARC
  5
51C5
  8
0
 10
81.485283793518633
 20
41.483250609702722
 30
0.0
 40
1.0
 50
0.0
 51
71.957612741641853
  0
ARC
  5
51C6
  8
0
 10
88.134840742442975
 20
38.66052207339294
 30
0.0
 40
1.0
 50
0.0
 51
76.814815600247044
  0
ARC
  5
51C7
  8
0
 10
100.6348407424429
 20
30.557114480329801
 30
0.0
 40
1.0
 50
0.0
 51
68.962488974578235
  0
ARC
  5
51C8
  8
0
 10
94.134840742442947
 20
34.585300659322229
 30
0.0
 40
1.0
 50
0.0
 51
64.18440202834887
  0
ARC
  5
51CA
  8
0
 10
29.134840742442979
 20
34.585300659322229
 30
0.0
 40
1.0
 50
115.8155979716511
 51
180.0
  0
ARC
  5
51CB
  8
0
 10
22.634840742442861
 20
30.557114480329801
 30
0.0
 40
1.0
 50
111.03751102542169
 51
180.0
  0
ARC
  5
51CC
  8
0
 10
35.134840742442982
 20
38.66052207339294
 30
0.0
 40
1.0
 50
103.1851843997529
 51
180.0
  0
ARC
  5
51CD
  8
0
 10
41.784397691367289
 20
41.483250609702722
 30
0.0
 40
1.0
 50
108.0423872583581
 51
180.0
  0
ARC
  5
51CE
  8
0
 10
47.634840742442961
 20
44.712409812040278
 30
0.0
 40
1.0
 50
90.0
 51
180.00000000000099
  0
LINE
  5
51CF
  8
0
 10
40.784397691367289
 20
41.011148410300379
 30
0.0
 11
40.784397691367289
 21
41.483250609702722
 31
0.0
  0
LINE
  5
51D0
  8
0
 10
34.134840742442982
 20
38.114938540640203
 30
0.0
 11
34.134840742442982
 21
38.66052207339294
 31
0.0
  0
LINE
  5
51D1
  8
0
 10
46.634840742442968
 20
44.712409812040278
 30
0.0
 11
46.634840742442968
 21
44.114938540640182
 31
0.0
  0
LINE
  5
51D2
  8
0
 10
46.634840742442968
 20
44.114938540640182
 30
0.0
 11
41.474677192652962
 21
42.43407825584903
 31
0.0
  0
LINE
  5
51D3
  8
0
 10
40.784397691367289
 20
41.011148410300379
 30
0.0
 11
34.906741628974828
 21
39.63415999091422
 31
0.0
  0
LINE
  5
51D4
  8
0
 10
34.134840742442982
 20
38.114938540640203
 30
0.0
 11
28.69936456005485
 21
35.485500911806398
 31
0.0
  0
LINE
  5
51D5
  8
0
 10
28.134840742442979
 20
33.743913578574862
 30
0.0
 11
22.275861663134041
 21
31.490460086532948
 31
0.0
  0
LINE
  5
51D6
  8
0
 10
28.134840742442979
 20
33.743913578574862
 30
0.0
 11
28.134840742442979
 21
34.585300659322229
 31
0.0
  0
LINE
  5
51D7
  8
0
 10
21.634840742442979
 20
21.712409812040281
 30
0.0
 11
21.634840742442861
 21
30.557114480329801
 31
0.0
  0
CIRCLE
  5
51D9
  8
0
 10
61.634840742442982
 20
216.1136889965415
 30
0.0
 40
33.5
  0
CIRCLE
  5
51DA
  8
0
 10
61.634840742442982
 20
216.1136889965415
 30
0.0
 40
27.5
  0
CIRCLE
  5
51DB
  8
0
 10
61.634840742442982
 20
216.1136889965415
 30
0.0
 40
20.850443051075668
  0
CIRCLE
  5
51DC
  8
0
 10
61.634840742442982
 20
216.1136889965415
 30
0.0
 40
14.99999999999997
  0
LINE
  5
51DF
  8
0
 10
143.91262764562859
 20
21.712409812040281
 30
0.0
 11
143.91262764562859
 21
30.557114480329801
 31
0.0
  0
LINE
  5
51E0
  8
0
 10
150.41262764562859
 20
33.743913578574862
 30
0.0
 11
150.41262764562859
 21
34.585300659322229
 31
0.0
  0
LINE
  5
51E1
  8
0
 10
150.41262764562859
 20
33.743913578574862
 30
0.0
 11
144.55364856631971
 21
31.490460086532948
 31
0.0
  0
LINE
  5
51E2
  8
0
 10
156.41262764562859
 20
38.114938540640203
 30
0.0
 11
150.9771514632404
 21
35.485500911806398
 31
0.0
  0
LINE
  5
51E3
  8
0
 10
163.06218459455289
 20
41.011148410300379
 30
0.0
 11
157.18452853216061
 21
39.63415999091422
 31
0.0
  0
LINE
  5
51E4
  8
0
 10
168.91262764562859
 20
44.114938540640182
 30
0.0
 11
163.7524640958386
 21
42.43407825584903
 31
0.0
  0
LINE
  5
51E5
  8
0
 10
168.91262764562859
 20
44.712409812040278
 30
0.0
 11
168.91262764562859
 21
44.114938540640182
 31
0.0
  0
LINE
  5
51E6
  8
0
 10
156.41262764562859
 20
38.114938540640203
 30
0.0
 11
156.41262764562859
 21
38.66052207339294
 31
0.0
  0
LINE
  5
51E7
  8
0
 10
163.06218459455289
 20
41.011148410300379
 30
0.0
 11
163.06218459455289
 21
41.483250609702722
 31
0.0
  0
ARC
  5
51E8
  8
0
 10
169.91262764562859
 20
44.712409812040278
 30
0.0
 40
1.0
 50
90.0
 51
180.00000000000099
  0
ARC
  5
51E9
  8
0
 10
164.06218459455289
 20
41.483250609702722
 30
0.0
 40
1.0
 50
108.0423872583581
 51
180.0
  0
ARC
  5
51EA
  8
0
 10
157.41262764562859
 20
38.66052207339294
 30
0.0
 40
1.0
 50
103.1851843997529
 51
180.0
  0
ARC
  5
51EB
  8
0
 10
144.91262764562859
 20
30.557114480329801
 30
0.0
 40
1.0
 50
111.03751102542169
 51
180.0
  0
ARC
  5
51EC
  8
0
 10
151.41262764562859
 20
34.585300659322229
 30
0.0
 40
1.0
 50
115.8155979716511
 51
180.0
  0
ARC
  5
51EE
  8
0
 10
216.41262764562859
 20
34.585300659322229
 30
0.0
 40
1.0
 50
0.0
 51
64.18440202834887
  0
ARC
  5
51EF
  8
0
 10
222.91262764562859
 20
30.557114480329801
 30
0.0
 40
1.0
 50
0.0
 51
68.962488974578235
  0
ARC
  5
51F0
  8
0
 10
210.41262764562859
 20
38.66052207339294
 30
0.0
 40
1.0
 50
0.0
 51
76.814815600247044
  0
ARC
  5
51F1
  8
0
 10
203.76307069670429
 20
41.483250609702722
 30
0.0
 40
1.0
 50
0.0
 51
71.957612741641853
  0
ARC
  5
51F2
  8
0
 10
197.9126276456285
 20
44.712409812040278
 30
0.0
 40
1.0
 50
359.99999999999892
 51
90.0
  0
LINE
  5
51F3
  8
0
 10
204.76307069670429
 20
41.011148410300379
 30
0.0
 11
204.76307069670429
 21
41.483250609702722
 31
0.0
  0
LINE
  5
51F4
  8
0
 10
211.41262764562859
 20
38.114938540640203
 30
0.0
 11
211.41262764562859
 21
38.66052207339294
 31
0.0
  0
LINE
  5
51F5
  8
0
 10
198.9126276456285
 20
44.712409812040278
 30
0.0
 11
198.9126276456285
 21
44.114938540640182
 31
0.0
  0
LINE
  5
51F6
  8
0
 10
198.9126276456285
 20
44.114938540640182
 30
0.0
 11
204.0727911954186
 21
42.43407825584903
 31
0.0
  0
LINE
  5
51F7
  8
0
 10
198.9126276456285
 20
44.114938540640182
 30
0.0
 11
168.91262764562859
 21
44.114938540640182
 31
0.0
  0
LINE
  5
51F8
  8
0
 10
204.76307069670429
 20
41.011148410300379
 30
0.0
 11
210.64072675909671
 21
39.63415999091422
 31
0.0
  0
LINE
  5
51F9
  8
0
 10
211.41262764562859
 20
38.114938540640203
 30
0.0
 11
216.84810382801669
 21
35.485500911806398
 31
0.0
  0
LINE
  5
51FA
  8
0
 10
217.41262764562859
 20
33.743913578574862
 30
0.0
 11
223.27160672493761
 21
31.490460086532948
 31
0.0
  0
LINE
  5
51FB
  8
0
 10
217.41262764562859
 20
33.743913578574862
 30
0.0
 11
217.41262764562859
 21
34.585300659322229
 31
0.0
  0
LINE
  5
51FC
  8
0
 10
197.9126276456285
 20
45.712409812040264
 30
0.0
 11
169.91262764562859
 21
45.712409812040264
 31
0.0
  0
LINE
  5
51FD
  8
0
 10
204.76307069670429
 20
41.011148410300379
 30
0.0
 11
163.06218459455289
 21
41.011148410300379
 31
0.0
  0
LINE
  5
51FE
  8
0
 10
211.41262764562859
 20
38.114938540640203
 30
0.0
 11
156.41262764562859
 21
38.114938540640203
 31
0.0
  0
LINE
  5
51FF
  8
0
 10
217.41262764562859
 20
33.743913578574862
 30
0.0
 11
150.41262764562859
 21
33.743913578574862
 31
0.0
  0
LINE
  5
5201
  8
0
 10
223.91262764562859
 20
21.712409812040281
 30
0.0
 11
223.91262764562859
 21
30.557114480329801
 31
0.0
  0
LINE
  5
5202
  8
0
 10
223.91262764562859
 20
21.712409812040281
 30
0.0
 11
143.91262764562859
 21
21.712409812040281
 31
0.0
  0
TEXT
  5
5532
  8
0
 62
     3
 10
0.0
 20
0.0
 30
0.0
 40
10.0
  1
LVA80S16A-SUS
  7
STANDARD1
  0
ENDSEC
  0
EOF
