  0
SECTION
  2
HEADER
  9
$ACADVER
  1
AC1009
  9
$INSBASE
 10
0.0
 20
0.0
 30
0.0
  9
$EXTMIN
 10
0.0
 20
-2.960436562073669
 30
0.0
  9
$EXTMAX
 10
343.4235705475856
 20
347.62003971693912
 30
0.0
  9
$LIMMIN
 10
0.0
 20
0.0
  9
$LIMMAX
 10
375.0
 20
270.0
  9
$ORTHOMODE
 70
     1
  9
$REGENMODE
 70
     1
  9
$FILLMODE
 70
     1
  9
$QTEXTMODE
 70
     0
  9
$MIRRTEXT
 70
     0
  9
$DRAGMODE
 70
     2
  9
$LTSCALE
 40
6.0
  9
$OSMODE
 70
  3071
  9
$ATTMODE
 70
     1
  9
$TEXTSIZE
 40
0.2
  9
$TRACEWID
 40
0.05
  9
$TEXTSTYLE
  7
STANDARD
  9
$CLAYER
  8
0
  9
$CELTYPE
  6
BYLAYER
  9
$CECOLOR
 62
   256
  9
$DIMSCALE
 40
1.0
  9
$DIMASZ
 40
3.0
  9
$DIMEXO
 40
1.0
  9
$DIMDLI
 40
6.0
  9
$DIMRND
 40
0.0
  9
$DIMDLE
 40
0.0
  9
$DIMEXE
 40
1.0
  9
$DIMTP
 40
495.0
  9
$DIMTM
 40
0.0
  9
$DIMTXT
 40
3.0
  9
$DIMCEN
 40
0.0
  9
$DIMTSZ
 40
0.0
  9
$DIMTOL
 70
     0
  9
$DIMLIM
 70
     0
  9
$DIMTIH
 70
     0
  9
$DIMTOH
 70
     0
  9
$DIMSE1
 70
     0
  9
$DIMSE2
 70
     0
  9
$DIMTAD
 70
     1
  9
$DIMZIN
 70
     0
  9
$DIMBLK
  1

  9
$DIMASO
 70
     0
  9
$DIMSHO
 70
     0
  9
$DIMPOST
  1

  9
$DIMAPOST
  1

  9
$DIMALT
 70
     0
  9
$DIMALTD
 70
     2
  9
$DIMALTF
 40
25.399999999999999
  9
$DIMLFAC
 40
1.0
  9
$DIMTOFL
 70
     1
  9
$DIMTVP
 40
0.0
  9
$DIMTIX
 70
     1
  9
$DIMSOXD
 70
     0
  9
$DIMSAH
 70
     0
  9
$DIMBLK1
  1

  9
$DIMBLK2
  1

  9
$DIMSTYLE
  2
STANDARD
  9
$DIMCLRD
 70
     0
  9
$DIMCLRE
 70
     0
  9
$DIMCLRT
 70
     4
  9
$DIMTFAC
 40
1.0
  9
$DIMGAP
 40
1.0
  9
$LUNITS
 70
     2
  9
$LUPREC
 70
     4
  9
$SKETCHINC
 40
0.1
  9
$FILLETRAD
 40
2.0
  9
$AUNITS
 70
     0
  9
$AUPREC
 70
     0
  9
$MENU
  1
C:\R13\WIN\SUPPORT\ACAD-I
  9
$ELEVATION
 40
0.0
  9
$PELEVATION
 40
0.0
  9
$THICKNESS
 40
0.0
  9
$LIMCHECK
 70
     0
  9
$BLIPMODE
 70
     0
  9
$CHAMFERA
 40
0.0
  9
$CHAMFERB
 40
0.0
  9
$SKPOLY
 70
     0
  9
$TDCREATE
 40
2451962.600933658
  9
$TDUPDATE
 40
2456597.6135740508
  9
$TDINDWG
 40
0.0131455671
  9
$TDUSRTIMER
 40
2456556.1908397111
  9
$USRTIMER
 70
     1
  9
$ANGBASE
 50
0.0
  9
$ANGDIR
 70
     0
  9
$PDMODE
 70
     0
  9
$PDSIZE
 40
0.0
  9
$PLINEWID
 40
0.0
  9
$COORDS
 70
     1
  9
$SPLFRAME
 70
     0
  9
$SPLINETYPE
 70
     6
  9
$SPLINESEGS
 70
     8
  9
$ATTDIA
 70
     0
  9
$ATTREQ
 70
     1
  9
$HANDLING
 70
     1
  9
$HANDSEED
  5
8E51
  9
$SURFTAB1
 70
     6
  9
$SURFTAB2
 70
     6
  9
$SURFTYPE
 70
     6
  9
$SURFU
 70
     6
  9
$SURFV
 70
     6
  9
$UCSNAME
  2

  9
$UCSORG
 10
0.0
 20
0.0
 30
0.0
  9
$UCSXDIR
 10
1.0
 20
0.0
 30
0.0
  9
$UCSYDIR
 10
0.0
 20
1.0
 30
0.0
  9
$PUCSNAME
  2

  9
$PUCSORG
 10
0.0
 20
0.0
 30
0.0
  9
$PUCSXDIR
 10
1.0
 20
0.0
 30
0.0
  9
$PUCSYDIR
 10
0.0
 20
1.0
 30
0.0
  9
$USERI1
 70
     4
  9
$USERI2
 70
     1
  9
$USERI3
 70
     0
  9
$USERI4
 70
     0
  9
$USERI5
 70
     0
  9
$USERR1
 40
1.0
  9
$USERR2
 40
3.0
  9
$USERR3
 40
3.0
  9
$USERR4
 40
3.0
  9
$USERR5
 40
10.0
  9
$WORLDVIEW
 70
     1
  9
$SHADEDGE
 70
     3
  9
$SHADEDIF
 70
    70
  9
$TILEMODE
 70
     1
  9
$MAXACTVP
 70
    16
  9
$PLIMCHECK
 70
     0
  9
$PEXTMIN
 10
1.0000000000000000E+020
 20
1.0000000000000000E+020
 30
1.0000000000000000E+020
  9
$PEXTMAX
 10
-1.0000000000000000E+020
 20
-1.0000000000000000E+020
 30
-1.0000000000000000E+020
  9
$PLIMMIN
 10
0.0
 20
0.0
  9
$PLIMMAX
 10
12.0
 20
9.0
  9
$UNITMODE
 70
     0
  9
$VISRETAIN
 70
     0
  9
$PLINEGEN
 70
     0
  9
$PSLTSCALE
 70
     0
  0
ENDSEC
  0
SECTION
  2
TABLES
  0
TABLE
  2
VPORT
 70
     1
  0
VPORT
  2
*ACTIVE
 70
     0
 10
0.0
 20
0.0
 11
1.0
 21
1.0
 12
187.49427839065231
 22
173.08383363063601
 13
0.0
 23
0.0
 14
10.0
 24
10.0
 15
10.0
 25
10.0
 16
0.0
 26
0.0
 36
1.0
 17
0.0
 27
0.0
 37
0.0
 40
356.15967373933239
 41
2.304913294797688
 42
50.0
 43
0.0
 44
0.0
 50
0.0
 51
0.0
 71
    16
 72
   100
 73
     1
 74
     0
 75
     0
 76
     0
 77
     0
 78
     0
  0
ENDTAB
  0
TABLE
  2
LTYPE
 70
     3
  0
LTYPE
  2
CONTINUOUS
 70
     0
  3
Solid Line
 72
    65
 73
     0
 40
0.0
  0
LTYPE
  2
PHANTOM2
 70
     0
  3
___ _ _ ___ _ _ ___ _ _ ___ _ _
 72
    65
 73
     6
 40
1.25
 49
0.625
 49
-0.125
 49
0.125
 49
-0.125
 49
0.125
 49
-0.125
  0
LTYPE
  2
CENTER
 70
     0
  3
____ _ ____ _ ____ _ ____ _ ____ _ ____ _ ____
 72
    65
 73
     4
 40
2.0
 49
1.25
 49
-0.25
 49
0.25
 49
-0.25
  0
ENDTAB
  0
TABLE
  2
LAYER
 70
     4
  0
LAYER
  2
0
 70
     0
 62
     7
  6
CONTINUOUS
  0
LAYER
  2
1
 70
     0
 62
     1
  6
CENTER
  0
LAYER
  2
3
 70
     0
 62
     3
  6
CONTINUOUS
  0
LAYER
  2
DEFPOINTS
 70
     0
 62
     7
  6
CONTINUOUS
  0
ENDTAB
  0
TABLE
  2
STYLE
 70
     3
  0
STYLE
  2
STANDARD
 70
     0
 40
0.0
 41
1.0
 50
0.0
 71
     0
 42
0.2
  3
SIMPLEX
  4
BIGFONT
  0
STYLE
  2
ANNOTATIVE
 70
     0
 40
0.0
 41
1.0
 50
0.0
 71
     0
 42
0.2
  3
txt
  4

  0
STYLE
  2
STANDARD1
 70
     0
 40
0.0
 41
1.0
 50
0.0
 71
     0
 42
3.0
  3
txt
  4

  0
ENDTAB
  0
TABLE
  2
VIEW
 70
     0
  0
ENDTAB
  0
TABLE
  2
UCS
 70
     0
  0
ENDTAB
  0
TABLE
  2
APPID
 70
    29
  0
APPID
  2
ACAD
 70
     0
  0
APPID
  2
ACADANNOTATIVE
 70
     0
  0
APPID
  2
GENIUS_GENOREF_13
 70
     0
  0
APPID
  2
GENIUS_GENOENT_13
 70
     0
  0
APPID
  2
GENIUS_GENBH_13
 70
     0
  0
APPID
  2
GENIUS_GENOBJ_13
 70
     0
  0
APPID
  2
GENIUS_GENODEF_13
 70
     0
  0
APPID
  2
GENIUS_GENOLIS_13
 70
     0
  0
APPID
  2
GENIUS_GENOBJ-NBEHI-BHF_13
 70
     0
  0
APPID
  2
GENIUS_GENOBJ-NBEHI-BHB_13
 70
     0
  0
APPID
  2
GENIUS_GENOBJ-F-PART_13
 70
     0
  0
APPID
  2
GENIUS_GEFSTDP_13
 70
     0
  0
APPID
  2
GENIUS_GENOBJ-N-RSSYM_13
 70
     0
  0
APPID
  2
GENIUS_GENSYMENT_13
 70
     0
  0
APPID
  2
GENIUS_GENOBJ-N-TIT_13
 70
     0
  0
APPID
  2
GENIUS_GENTITLE_13
 70
     0
  0
APPID
  2
GENIUS_GENZVEED_13
 70
     0
  0
APPID
  2
GENIUS_GENOBJ-N-LEADER_13
 70
     0
  0
APPID
  2
GENIUS_GENOBJ-N-FIL_13
 70
     0
  0
APPID
  2
GENIUS_GENOBJ-N-SEC_13
 70
     0
  0
APPID
  2
GENIUS_GENOBJ-N-CRS_13
 70
     0
  0
APPID
  2
GENIUS_GENOBJ-N-ZOO_13
 70
     0
  0
APPID
  2
GENIUS_GENZOO_13
 70
     0
  0
APPID
  2
GENIUS_GENOBJ-F-TOL_13
 70
     0
  0
APPID
  2
GENIUS_GENFIL_13
 70
     0
  0
APPID
  2
GENIUS_GENOBJ-N-CHA_13
 70
     0
  0
APPID
  2
ACAD_EXEMPT_FROM_CAD_STANDARDS
 70
     0
  0
APPID
  2
ACAD_MLEADERVER
 70
     0
  0
APPID
  2
ACAD_NAV_VCDISPLAY
 70
     0
  0
ENDTAB
  0
TABLE
  2
DIMSTYLE
 70
     2
  0
DIMSTYLE
  2
STANDARD
 70
     0
  3

  4

  5

  6

  7

 40
1.0
 41
0.18
 42
0.0625
 43
0.38
 44
0.18
 45
0.0
 46
0.0
 47
0.0
 48
0.0
140
0.18
141
0.09
142
0.0
143
25.399999999999999
144
1.0
145
0.0
146
1.0
147
0.09
 71
     0
 72
     0
 73
     1
 74
     1
 75
     0
 76
     0
 77
     0
 78
     0
170
     0
171
     2
172
     0
173
     0
174
     0
175
     0
176
     0
177
     0
178
     0
  0
DIMSTYLE
  2
ANNOTATIVE
 70
     0
  3

  4

  5

  6

  7

 40
1.0
 41
0.18
 42
0.0625
 43
0.38
 44
0.18
 45
0.0
 46
0.0
 47
0.0
 48
0.0
140
0.18
141
0.09
142
0.0
143
25.399999999999999
144
1.0
145
0.0
146
1.0
147
0.09
 71
     0
 72
     0
 73
     1
 74
     1
 75
     0
 76
     0
 77
     0
 78
     0
170
     0
171
     2
172
     0
173
     0
174
     0
175
     0
176
     0
177
     0
178
     0
  0
ENDTAB
  0
ENDSEC
  0
SECTION
  2
BLOCKS
  0
BLOCK
  8
0
  2
$MODEL_SPACE
 70
     0
 10
0.0
 20
0.0
 30
0.0
  3
$MODEL_SPACE
  1

  0
ENDBLK
  5
8D73
  8
0
  0
BLOCK
 67
     1
  8
0
  2
$PAPER_SPACE
 70
     0
 10
0.0
 20
0.0
 30
0.0
  3
$PAPER_SPACE
  1

  0
ENDBLK
  5
8D6F
 67
     1
  8
0
  0
ENDSEC
  0
SECTION
  2
ENTITIES
  0
ARC
  5
88B4
  8
0
 10
293.42357054758247
 20
64.093609494254565
 30
0.0
 40
12.25
 50
31.112020819731811
 51
46.120122896761671
  0
LINE
  5
88B5
  8
0
 10
293.423570547586
 20
129.79492221632981
 30
0.0
 11
293.423570547586
 21
117.0517644098253
 31
0.0
  0
LINE
  5
88B6
  8
0
 10
307.92357054758611
 20
115.4233433130801
 30
0.0
 11
278.9235705475877
 21
115.4233433130801
 31
0.0
  0
LINE
  5
88B7
  8
0
 10
278.9235705475877
 20
131.42334331308001
 30
0.0
 11
307.92357054758452
 21
131.42334331308001
 31
0.0
  0
ARC
  5
88B8
  8
0
 10
285.923570547586
 20
109.47200940481611
 30
0.0
 40
21.662658773668529
 50
69.743841999600619
 51
110.2561580003994
  0
LINE
  5
88B9
  8
0
 10
278.9235705475877
 20
131.42334331308001
 30
0.0
 11
278.42357054758628
 21
131.13466817848459
 31
0.0
  0
LINE
  5
88BA
  8
0
 10
278.9235705475877
 20
115.4233433130801
 30
0.0
 11
278.42357054758628
 21
115.7120184476756
 31
0.0
  0
ARC
  5
88BB
  8
0
 10
285.923570547586
 20
137.3746772213438
 30
0.0
 40
21.662658773668529
 50
249.74384199960059
 51
290.25615800039941
  0
LINE
  5
88BC
  8
0
 10
278.42357054758611
 20
131.13466817848459
 30
0.0
 11
278.42357054758628
 21
115.7120184476756
 31
0.0
  0
LINE
  5
88BD
  8
0
 10
308.423570547586
 20
131.13466817848459
 30
0.0
 11
308.42357054758588
 21
115.7120184476756
 31
0.0
  0
ARC
  5
88BE
  8
0
 10
300.92357054758611
 20
137.3746772213438
 30
0.0
 40
21.662658773668529
 50
249.74384199960059
 51
290.25615800039941
  0
LINE
  5
88BF
  8
0
 10
307.92357054758452
 20
115.4233433130801
 30
0.0
 11
308.42357054758588
 21
115.7120184476756
 31
0.0
  0
LINE
  5
88C0
  8
0
 10
307.92357054758452
 20
131.42334331308001
 30
0.0
 11
308.42357054758588
 21
131.13466817848459
 31
0.0
  0
ARC
  5
88C1
  8
0
 10
300.92357054758611
 20
109.47200940481611
 30
0.0
 40
21.662658773668529
 50
69.743841999600619
 51
110.2561580003994
  0
LINE
  5
88C2
  8
3
 10
284.77657054758572
 20
131.42334331308001
 30
0.0
 11
284.77657054758572
 21
186.276343313057
 31
0.0
  0
LINE
  5
88C3
  8
0
 10
283.4235705475856
 20
131.42334331308001
 30
0.0
 11
283.4235705475856
 21
184.92334331305699
 31
0.0
  0
LINE
  5
88C4
  8
0
 10
303.42357054758571
 20
131.42334331307981
 30
0.0
 11
303.42357054758571
 21
184.92334331305671
 31
0.0
  0
LINE
  5
88C5
  8
3
 10
302.07057054758548
 20
131.42334331308001
 30
0.0
 11
302.07057054758548
 21
186.2763433130568
 31
0.0
  0
ARC
  5
88C6
  8
0
 10
293.42357054758247
 20
64.093609494254565
 30
0.0
 40
12.25
 50
133.87987710304881
 51
148.8879791802681
  0
LINE
  5
88C7
  8
0
 10
301.9235705475856
 20
72.923343313004679
 30
0.0
 11
284.92357054758571
 21
72.923343313032902
 31
0.0
  0
LINE
  5
88C8
  8
0
 10
301.9235705475856
 20
79.423343313018805
 30
0.0
 11
301.9235705475856
 21
72.923343313004679
 31
0.0
  0
LINE
  5
88C9
  8
0
 10
284.92357054758571
 20
79.423343313018805
 30
0.0
 11
284.92357054758571
 21
72.923343313033101
 31
0.0
  0
LINE
  5
88CA
  8
0
 10
285.92357054758571
 20
187.42334331305699
 30
0.0
 11
300.92357054758571
 21
187.42334331305671
 31
0.0
  0
LINE
  5
88CB
  8
0
 10
303.42357054758571
 20
89.423343313056989
 30
0.0
 11
303.42357054758571
 21
115.4233433130795
 31
0.0
  0
LINE
  5
88CC
  8
3
 10
302.07057054758548
 20
93.423343313056947
 30
0.0
 11
302.07057054758548
 21
115.4233433130795
 31
0.0
  0
LINE
  5
88CD
  8
3
 10
284.77657054758572
 20
93.423343313056947
 30
0.0
 11
284.77657054758572
 21
115.4233433130793
 31
0.0
  0
LINE
  5
88CE
  8
0
 10
283.4235705475856
 20
89.423343313056989
 30
0.0
 11
283.4235705475856
 21
115.4233433130795
 31
0.0
  0
LINE
  5
88CF
  8
0
 10
283.4235705475856
 20
184.92334331305699
 30
0.0
 11
285.92357054758571
 21
187.42334331305699
 31
0.0
  0
LINE
  5
88D0
  8
0
 10
300.92357054758571
 20
187.42334331305671
 30
0.0
 11
303.42357054758571
 21
184.92334331305671
 31
0.0
  0
LINE
  5
88D1
  8
0
 10
283.4235705475856
 20
184.92334331305699
 30
0.0
 11
303.42357054758571
 21
184.92334331305671
 31
0.0
  0
LINE
  5
88D2
  8
0
 10
303.42357054758571
 20
93.423343313056947
 30
0.0
 11
283.4235705475856
 21
93.423343313056947
 31
0.0
  0
LINE
  5
88D3
  8
3
 10
284.77657054758572
 20
93.423343313056947
 30
0.0
 11
283.4235705475856
 21
91.079878570416085
 31
0.0
  0
LINE
  5
88D4
  8
3
 10
302.07057054758548
 20
93.423343313056947
 30
0.0
 11
303.42357054758571
 21
91.079878570416085
 31
0.0
  0
ARC
  5
88D5
  8
0
 10
293.42357054763949
 20
66.206464950433769
 30
0.0
 40
22.928203228139491
 50
72.412046224314381
 51
107.58795377568561
  0
ARC
  5
88D6
  8
0
 10
283.03126570222599
 20
83.000693582852449
 30
0.0
 40
6.1339745957208196
 50
55.615752528792761
 51
115.61575253015479
  0
LINE
  5
88D7
  8
0
 10
279.56716408706649
 20
88.062871408743945
 30
0.0
 11
281.92357054774732
 21
89.423343313138162
 31
0.0
  0
LINE
  5
88D8
  8
0
 10
279.56716408706649
 20
80.783815217532378
 30
0.0
 11
281.92357054774732
 21
79.423343313138162
 31
0.0
  0
ARC
  5
88D9
  8
0
 10
283.03126570222599
 20
85.845993043423846
 30
0.0
 40
6.1339745957208196
 50
244.38424746984521
 51
304.38424747120678
  0
ARC
  5
88DA
  8
0
 10
293.42357054763949
 20
102.6402216758425
 30
0.0
 40
22.928203228139491
 50
252.41204622431439
 51
287.58795377568561
  0
LINE
  5
88DB
  8
0
 10
279.56716408708832
 20
88.062871408743945
 30
0.0
 11
279.56716408708832
 21
80.78381521751966
 31
0.0
  0
LINE
  5
88DC
  8
0
 10
286.49536731736413
 20
88.062871408743945
 30
0.0
 11
286.49536731736413
 21
80.783815217532378
 31
0.0
  0
LINE
  5
88DD
  8
0
 10
300.35177377791479
 20
88.062871408743945
 30
0.0
 11
300.35177377791479
 21
80.783815217532378
 31
0.0
  0
LINE
  5
88DE
  8
0
 10
307.2799770081906
 20
88.062871408743945
 30
0.0
 11
307.2799770081906
 21
80.78381521751966
 31
0.0
  0
ARC
  5
88DF
  8
0
 10
303.81587539305292
 20
85.845993043423846
 30
0.0
 40
6.1339745957208196
 50
235.61575252879319
 51
295.61575253015491
  0
LINE
  5
88E0
  8
0
 10
307.27997700821248
 20
80.783815217532378
 30
0.0
 11
304.92357054753171
 21
79.423343313138162
 31
0.0
  0
LINE
  5
88E1
  8
0
 10
307.27997700821248
 20
88.062871408743945
 30
0.0
 11
304.92357054753171
 21
89.423343313138162
 31
0.0
  0
ARC
  5
88E2
  8
0
 10
303.81587539305292
 20
83.000693582852449
 30
0.0
 40
6.1339745957208196
 50
64.384247469845135
 51
124.3842474712072
  0
LINE
  5
88E3
  8
0
 10
281.92357054763949
 20
89.423343313138162
 30
0.0
 11
304.92357054753171
 21
89.423343313138162
 31
0.0
  0
LINE
  5
88E4
  8
0
 10
304.92357054753171
 20
79.423343313138162
 30
0.0
 11
281.92357054774732
 21
79.423343313138162
 31
0.0
  0
LINE
  5
88E5
  8
0
 10
343.4235705475856
 20
46.423343313056961
 30
0.0
 11
243.4235705475856
 21
46.423343313056968
 31
0.0
  0
LINE
  5
88E6
  8
0
 10
343.4235705475856
 20
46.423343313056961
 30
0.0
 11
343.4235705475856
 21
55.603539410338378
 31
0.0
  0
LINE
  5
88E7
  8
0
 10
336.92357054758571
 20
46.423343313056961
 30
0.0
 11
336.92357054758571
 21
43.423343313056918
 31
0.0
  0
LINE
  5
88E8
  8
0
 10
309.92357054758571
 20
70.423343313056961
 30
0.0
 11
276.9235705475856
 21
70.423343313056961
 31
0.0
  0
LINE
  5
88E9
  8
0
 10
336.92357054758571
 20
43.423343313056918
 30
0.0
 11
249.9235705475856
 21
43.423343313057011
 31
0.0
  0
LINE
  5
88EA
  8
DEFPOINTS
 10
310.92357054758571
 20
69.423343313056961
 30
0.0
 11
310.92357054758571
 21
69.423343313056961
 31
0.0
  0
LINE
  5
88EB
  8
DEFPOINTS
 10
317.42357054758571
 20
66.684768658538843
 30
0.0
 11
317.42357054758571
 21
66.423343313056961
 31
0.0
  0
LINE
  5
88EC
  8
DEFPOINTS
 10
323.42357054758571
 20
63.702584093000809
 30
0.0
 11
323.42357054758571
 21
63.423343313056961
 31
0.0
  0
LINE
  5
88ED
  8
DEFPOINTS
 10
330.42357054758571
 20
60.669041900302567
 30
0.0
 11
330.42357054758571
 21
60.423343313056961
 31
0.0
  0
LINE
  5
88EE
  8
DEFPOINTS
 10
338.42357054758571
 20
57.642566906652547
 30
0.0
 11
338.42357054758571
 21
57.423343313056968
 31
0.0
  0
LINE
  5
88EF
  8
DEFPOINTS
 10
310.92357054758571
 20
69.423343313056961
 30
0.0
 11
316.71765639642308
 21
67.64054766726079
 31
0.0
  0
LINE
  5
88F0
  8
DEFPOINTS
 10
317.42357054758571
 20
66.423343313056961
 30
0.0
 11
322.73979831360231
 21
64.651267391051334
 31
0.0
  0
LINE
  5
88F1
  8
DEFPOINTS
 10
323.42357054758571
 20
63.423343313056961
 30
0.0
 11
329.69829167548301
 21
61.630565847943409
 31
0.0
  0
LINE
  5
88F2
  8
DEFPOINTS
 10
330.42357054758571
 20
60.423343313056961
 30
0.0
 11
337.66610617262199
 21
58.612709406797848
 31
0.0
  0
ARC
  5
88F3
  8
DEFPOINTS
 10
337.4235705475856
 20
57.642566906652547
 30
0.0
 40
1.0
 50
0.0
 51
75.963756532073333
  0
ARC
  5
88F4
  8
DEFPOINTS
 10
329.4235705475856
 20
60.669041900302567
 30
0.0
 40
1.0
 50
0.0
 51
74.054604099077153
  0
ARC
  5
88F5
  8
DEFPOINTS
 10
322.42357054758571
 20
63.702584093000809
 30
0.0
 40
1.0
 50
0.0
 51
71.565051177077734
  0
ARC
  5
88F6
  8
DEFPOINTS
 10
316.4235705475856
 20
66.684768658538843
 30
0.0
 40
1.0
 50
0.0
 51
72.897271030947451
  0
ARC
  5
88F7
  8
DEFPOINTS
 10
309.92357054758571
 20
69.423343313056961
 30
0.0
 40
1.0
 50
0.0
 51
89.999999999999986
  0
LINE
  5
88F8
  8
DEFPOINTS
 10
338.42357054758571
 20
57.423343313056968
 30
0.0
 11
342.6196866827238
 21
56.584120086029301
 31
0.0
  0
ARC
  5
88F9
  8
DEFPOINTS
 10
342.42357054758571
 20
55.603539410338378
 30
0.0
 40
1.0
 50
359.99999999999972
 51
78.690067525979913
  0
ARC
  5
88FA
  8
DEFPOINTS
 10
244.42357054758551
 20
55.603539410338378
 30
0.0
 40
1.0
 50
101.3099324740201
 51
180.00000000000031
  0
LINE
  5
88FB
  8
DEFPOINTS
 10
248.4235705475856
 20
57.423343313056968
 30
0.0
 11
244.2274544124474
 21
56.584120086029301
 31
0.0
  0
ARC
  5
88FC
  8
DEFPOINTS
 10
276.9235705475856
 20
69.423343313056961
 30
0.0
 40
1.0
 50
90.000000000000057
 51
180.0
  0
ARC
  5
88FD
  8
DEFPOINTS
 10
270.4235705475856
 20
66.684768658538843
 30
0.0
 40
1.0
 50
107.10272896905251
 51
180.0
  0
ARC
  5
88FE
  8
DEFPOINTS
 10
264.4235705475856
 20
63.702584093000809
 30
0.0
 40
1.0
 50
108.43494882292219
 51
180.0
  0
ARC
  5
88FF
  8
DEFPOINTS
 10
257.4235705475856
 20
60.669041900302567
 30
0.0
 40
1.0
 50
105.9453959009228
 51
180.0
  0
ARC
  5
8900
  8
DEFPOINTS
 10
249.4235705475856
 20
57.642566906652547
 30
0.0
 40
1.0
 50
104.0362434679266
 51
180.0
  0
LINE
  5
8901
  8
DEFPOINTS
 10
256.4235705475856
 20
60.423343313056961
 30
0.0
 11
249.18103492254929
 21
58.612709406797848
 31
0.0
  0
LINE
  5
8902
  8
DEFPOINTS
 10
263.4235705475856
 20
63.423343313056961
 30
0.0
 11
257.14884941968808
 21
61.630565847943409
 31
0.0
  0
LINE
  5
8903
  8
DEFPOINTS
 10
269.4235705475856
 20
66.423343313056961
 30
0.0
 11
264.10734278156878
 21
64.651267391051334
 31
0.0
  0
LINE
  5
8904
  8
DEFPOINTS
 10
275.9235705475856
 20
69.423343313056961
 30
0.0
 11
270.12948469874812
 21
67.64054766726079
 31
0.0
  0
LINE
  5
8905
  8
DEFPOINTS
 10
248.4235705475856
 20
57.642566906652547
 30
0.0
 11
248.4235705475856
 21
57.423343313056968
 31
0.0
  0
LINE
  5
8906
  8
DEFPOINTS
 10
256.4235705475856
 20
60.669041900302567
 30
0.0
 11
256.4235705475856
 21
60.423343313056961
 31
0.0
  0
LINE
  5
8907
  8
DEFPOINTS
 10
263.4235705475856
 20
63.702584093000809
 30
0.0
 11
263.4235705475856
 21
63.423343313056961
 31
0.0
  0
LINE
  5
8908
  8
DEFPOINTS
 10
269.4235705475856
 20
66.684768658538843
 30
0.0
 11
269.4235705475856
 21
66.423343313056961
 31
0.0
  0
LINE
  5
8909
  8
DEFPOINTS
 10
275.9235705475856
 20
69.423343313056961
 30
0.0
 11
275.9235705475856
 21
69.423343313056961
 31
0.0
  0
LINE
  5
890A
  8
0
 10
249.9235705475856
 20
46.423343313056961
 30
0.0
 11
249.9235705475856
 21
43.423343313056918
 31
0.0
  0
LINE
  5
890B
  8
0
 10
243.4235705475856
 20
46.423343313056961
 30
0.0
 11
243.4235705475856
 21
55.603539410338378
 31
0.0
  0
LINE
  5
890C
  8
DEFPOINTS
 10
248.4235705475856
 20
57.423343313056968
 30
0.0
 11
338.42357054758571
 21
57.423343313056968
 31
0.0
  0
LINE
  5
890D
  8
DEFPOINTS
 10
256.4235705475856
 20
60.423343313056961
 30
0.0
 11
330.42357054758571
 21
60.423343313056961
 31
0.0
  0
LINE
  5
890E
  8
DEFPOINTS
 10
263.4235705475856
 20
63.423343313056961
 30
0.0
 11
323.42357054758571
 21
63.423343313056961
 31
0.0
  0
LINE
  5
890F
  8
DEFPOINTS
 10
317.42357054758571
 20
66.423343313056961
 30
0.0
 11
269.4235705475856
 21
66.423343313056961
 31
0.0
  0
LINE
  5
8910
  8
DEFPOINTS
 10
275.9235705475856
 20
69.423343313056961
 30
0.0
 11
310.92357054758571
 21
69.423343313056961
 31
0.0
  0
LINE
  5
8911
  8
0
 10
301.9235705475856
 20
79.423343313018904
 30
0.0
 11
301.9235705475856
 21
72.923343313004779
 31
0.0
  0
LINE
  5
8912
  8
0
 10
284.92357054758571
 20
79.423343313018904
 30
0.0
 11
284.92357054758571
 21
72.9233433130332
 31
0.0
  0
LINE
  5
8913
  8
1
 10
293.4235705475856
 20
197.42334331305699
 30
0.0
 11
293.42357054758543
 21
33.423343313056989
 31
0.0
  0
LINE
  5
8914
  8
1
 10
118.00039965153999
 20
197.42334331305699
 30
0.0
 11
118.00039965153989
 21
33.423343313056989
 31
0.0
  0
LINE
  5
8915
  8
1
 10
178.00039965154011
 20
287.62003971693912
 30
0.0
 11
58.000399651540079
 21
287.62003971693912
 31
0.0
  0
LINE
  5
8916
  8
1
 10
118.00039965153999
 20
347.62003971693912
 30
0.0
 11
118.00039965153999
 21
227.62003971693909
 31
0.0
  0
ARC
  5
8917
  8
0
 10
118.00039965153719
 20
64.093609494254679
 30
0.0
 40
12.25
 50
31.112020819731239
 51
46.120122896763412
  0
LINE
  5
8918
  8
3
 10
126.6473996515401
 20
93.423343313057103
 30
0.0
 11
128.00039965154011
 21
91.079878570416184
 31
0.0
  0
LINE
  5
8919
  8
3
 10
109.3533996515402
 20
93.423343313057103
 30
0.0
 11
108.00039965154011
 21
91.079878570416184
 31
0.0
  0
LINE
  5
891A
  8
0
 10
128.00039965154011
 20
93.423343313057103
 30
0.0
 11
108.00039965154011
 21
93.423343313057103
 31
0.0
  0
LINE
  5
891B
  8
0
 10
108.00039965154011
 20
184.9233433130571
 30
0.0
 11
128.00039965154011
 21
184.9233433130569
 31
0.0
  0
LINE
  5
891C
  8
0
 10
125.50039965154011
 20
187.4233433130569
 30
0.0
 11
128.00039965154011
 21
184.9233433130569
 31
0.0
  0
LINE
  5
891D
  8
0
 10
108.00039965154011
 20
184.9233433130571
 30
0.0
 11
110.50039965154011
 21
187.4233433130571
 31
0.0
  0
LINE
  5
891E
  8
0
 10
108.00039965154011
 20
89.423343313057103
 30
0.0
 11
108.00039965154011
 21
115.4233433130796
 31
0.0
  0
LINE
  5
891F
  8
3
 10
109.3533996515402
 20
93.423343313057103
 30
0.0
 11
109.3533996515402
 21
115.4233433130794
 31
0.0
  0
LINE
  5
8920
  8
3
 10
126.6473996515401
 20
93.423343313057103
 30
0.0
 11
126.6473996515401
 21
115.4233433130796
 31
0.0
  0
LINE
  5
8921
  8
0
 10
128.00039965154011
 20
89.423343313057103
 30
0.0
 11
128.00039965154011
 21
115.4233433130796
 31
0.0
  0
LINE
  5
8922
  8
0
 10
110.50039965154011
 20
187.4233433130571
 30
0.0
 11
125.50039965154011
 21
187.4233433130569
 31
0.0
  0
ARC
  5
8923
  8
0
 10
124.0003996515733
 20
71.804541161139696
 30
0.0
 40
17.330127017333279
 50
69.743841997634789
 51
110.2561580023652
  0
LINE
  5
8924
  8
0
 10
130.00039965158831
 20
89.134668178473021
 30
0.0
 11
129.5003996515733
 21
89.423343313076444
 31
0.0
  0
LINE
  5
8925
  8
0
 10
130.00039965158831
 20
79.712018447602986
 30
0.0
 11
129.5003996515733
 21
79.423343312999549
 31
0.0
  0
ARC
  5
8926
  8
0
 10
124.0003996515733
 20
97.042145464936311
 30
0.0
 40
17.330127017333279
 50
249.7438419976348
 51
290.25615800236528
  0
LINE
  5
8927
  8
0
 10
130.00039965158831
 20
89.134668178473021
 30
0.0
 11
130.0003996515733
 21
79.712018447594346
 31
0.0
  0
LINE
  5
8928
  8
0
 10
118.0003996515733
 20
80.783815217432235
 30
0.0
 11
118.0003996515733
 21
88.062871408643787
 31
0.0
  0
LINE
  5
8929
  8
0
 10
106.0003996515583
 20
89.134668178473021
 30
0.0
 11
106.0003996515733
 21
79.712018447594346
 31
0.0
  0
ARC
  5
892A
  8
0
 10
112.0003996515733
 20
97.042145464936311
 30
0.0
 40
17.330127017333279
 50
249.7438419976348
 51
290.25615800236528
  0
LINE
  5
892B
  8
0
 10
106.0003996515583
 20
79.712018447602986
 30
0.0
 11
106.5003996515733
 21
79.423343312999549
 31
0.0
  0
LINE
  5
892C
  8
0
 10
106.0003996515583
 20
89.134668178473021
 30
0.0
 11
106.5003996515733
 21
89.423343313076444
 31
0.0
  0
ARC
  5
892D
  8
0
 10
112.0003996515733
 20
71.804541161139696
 30
0.0
 40
17.330127017333279
 50
69.743841997634789
 51
110.2561580023652
  0
LINE
  5
892E
  8
0
 10
106.5003996515069
 20
89.423343313038004
 30
0.0
 11
129.5003996515733
 21
89.423343313076444
 31
0.0
  0
LINE
  5
892F
  8
0
 10
129.5003996515733
 20
79.423343312999549
 30
0.0
 11
106.5003996515069
 21
79.423343313037989
 31
0.0
  0
LINE
  5
8930
  8
0
 10
109.50039965154011
 20
79.423343313018904
 30
0.0
 11
109.50039965154011
 21
72.923343313033214
 31
0.0
  0
LINE
  5
8931
  8
0
 10
126.50039965154011
 20
79.423343313018904
 30
0.0
 11
126.50039965154011
 21
72.923343313004793
 31
0.0
  0
LINE
  5
8932
  8
0
 10
126.50039965154011
 20
72.923343313004793
 30
0.0
 11
109.50039965154011
 21
72.923343313032973
 31
0.0
  0
ARC
  5
8933
  8
0
 10
118.00039965153719
 20
64.093609494254679
 30
0.0
 40
12.25
 50
133.87987710304819
 51
148.8879791802687
  0
LINE
  5
8934
  8
0
 10
132.5003996515407
 20
115.4233433130798
 30
0.0
 11
103.50039965154031
 21
115.4233433130796
 31
0.0
  0
LINE
  5
8935
  8
0
 10
103.50039965154031
 20
131.42334331308041
 30
0.0
 11
132.50039965154099
 21
131.4233433130799
 31
0.0
  0
LINE
  5
8936
  8
0
 10
132.50039965154031
 20
131.42334331308041
 30
0.0
 11
135.3209077272289
 21
129.79492221633001
 31
0.0
  0
ARC
  5
8937
  8
0
 10
130.99078070830649
 20
123.4671999332091
 30
0.0
 40
7.6674682452751766
 50
64.384247470460238
 51
124.3842474680055
  0
ARC
  5
8938
  8
0
 10
130.99078070830649
 20
123.4671999332091
 30
0.0
 40
7.6674682452751766
 50
55.615752531994502
 51
55.615752531994502
  0
ARC
  5
8939
  8
0
 10
130.99078070830649
 20
123.37948669295091
 30
0.0
 40
7.6674682452751766
 50
304.38424746800558
 51
304.38424746800558
  0
ARC
  5
893A
  8
0
 10
130.99078070830649
 20
123.37948669295091
 30
0.0
 40
7.6674682452751766
 50
235.6157525319945
 51
295.61575252953969
  0
LINE
  5
893B
  8
0
 10
132.50039965154031
 20
115.4233433130796
 30
0.0
 11
135.3209077272289
 21
117.0517644098299
 31
0.0
  0
LINE
  5
893C
  8
0
 10
135.3209077272287
 20
129.79492221633001
 30
0.0
 11
135.32090772751241
 21
117.05176440999359
 31
0.0
  0
LINE
  5
893D
  8
0
 10
126.6606536893845
 20
117.0517644098534
 30
0.0
 11
126.6606536892306
 21
129.79492221633001
 31
0.0
  0
ARC
  5
893E
  8
0
 10
118.00039965161371
 20
144.37227248506809
 30
0.0
 40
28.660254037392811
 50
252.41204622557021
 51
287.5879537741294
  0
LINE
  5
893F
  8
0
 10
109.34014561369609
 20
117.0517644098534
 30
0.0
 11
109.34014561385
 21
129.79492221633001
 31
0.0
  0
LINE
  5
8940
  8
0
 10
100.6798915758519
 20
129.79492221633001
 30
0.0
 11
100.67989157556811
 21
117.05176440999359
 31
0.0
  0
LINE
  5
8941
  8
0
 10
103.50039965154031
 20
115.4233433130796
 30
0.0
 11
100.6798915758517
 21
117.0517644098299
 31
0.0
  0
ARC
  5
8942
  8
0
 10
105.0100185947741
 20
123.37948669295091
 30
0.0
 40
7.6674682452751766
 50
244.3842474704602
 51
304.38424746800558
  0
ARC
  5
8943
  8
0
 10
105.0100185947741
 20
123.37948669295091
 30
0.0
 40
7.6674682452751766
 50
235.6157525319945
 51
235.6157525319945
  0
ARC
  5
8944
  8
0
 10
118.00039965161371
 20
102.4744141410916
 30
0.0
 40
28.660254037392811
 50
72.412046225870512
 51
107.58795377442971
  0
ARC
  5
8945
  8
0
 10
105.0100185947741
 20
123.4671999332091
 30
0.0
 40
7.6674682452751766
 50
124.3842474680055
 51
124.3842474680055
  0
ARC
  5
8946
  8
0
 10
105.0100185947741
 20
123.4671999332091
 30
0.0
 40
7.6674682452751766
 50
55.615752531994502
 51
115.61575252953971
  0
LINE
  5
8947
  8
0
 10
103.50039965154031
 20
131.42334331308041
 30
0.0
 11
100.6798915758517
 21
129.79492221633001
 31
0.0
  0
LINE
  5
8948
  8
3
 10
126.6473996515401
 20
131.42334331308021
 30
0.0
 11
126.6473996515401
 21
186.2763433130568
 31
0.0
  0
LINE
  5
8949
  8
0
 10
128.00039965154011
 20
131.4233433130799
 30
0.0
 11
128.00039965154011
 21
184.9233433130569
 31
0.0
  0
LINE
  5
894A
  8
0
 10
108.00039965154011
 20
131.42334331308021
 30
0.0
 11
108.00039965154011
 21
184.9233433130571
 31
0.0
  0
LINE
  5
894B
  8
3
 10
109.3533996515402
 20
131.42334331308021
 30
0.0
 11
109.3533996515402
 21
186.2763433130572
 31
0.0
  0
CIRCLE
  5
894C
  8
0
 10
118.00039965153999
 20
287.62003971693912
 30
0.0
 40
10.0
  0
CIRCLE
  5
894D
  8
3
 10
118.00039965153999
 20
287.62003971693912
 30
0.0
 40
8.6470000000000002
  0
LINE
  5
894E
  8
0
 10
109.3401456136958
 20
272.62003971693912
 30
0.0
 11
126.6606536893845
 21
272.62003971693912
 31
0.0
  0
LINE
  5
894F
  8
0
 10
126.6606536893845
 20
272.62003971693912
 30
0.0
 11
135.32090772722881
 21
287.62003971693912
 31
0.0
  0
LINE
  5
8950
  8
0
 10
135.32090772722881
 20
287.62003971693912
 30
0.0
 11
126.6606536893843
 21
302.62003971693912
 31
0.0
  0
LINE
  5
8951
  8
0
 10
126.6606536893843
 20
302.62003971693912
 30
0.0
 11
109.3401456136959
 21
302.62003971693912
 31
0.0
  0
LINE
  5
8952
  8
0
 10
109.3401456136959
 20
302.62003971693912
 30
0.0
 11
100.6798915758514
 21
287.6200397169394
 31
0.0
  0
LINE
  5
8953
  8
0
 10
100.6798915758514
 20
287.6200397169394
 30
0.0
 11
109.3401456136958
 21
272.62003971693912
 31
0.0
  0
CIRCLE
  5
8954
  8
0
 10
118.00039965153999
 20
287.62003971693912
 30
0.0
 40
14.5
  0
CIRCLE
  5
8955
  8
DEFPOINTS
 10
118.00039965153999
 20
287.62003971693912
 30
0.0
 40
17.499999999999979
  0
CIRCLE
  5
8956
  8
DEFPOINTS
 10
118.00039965153999
 20
287.62003971693912
 30
0.0
 40
23.999999999999989
  0
CIRCLE
  5
8957
  8
DEFPOINTS
 10
118.00039965153999
 20
287.62003971693912
 30
0.0
 40
30.0
  0
CIRCLE
  5
8958
  8
DEFPOINTS
 10
118.00039965153999
 20
287.62003971693912
 30
0.0
 40
37.0
  0
CIRCLE
  5
8959
  8
DEFPOINTS
 10
118.00039965153999
 20
287.62003971693912
 30
0.0
 40
45.0
  0
CIRCLE
  5
895A
  8
DEFPOINTS
 10
118.00039965153999
 20
287.62003971693912
 30
0.0
 40
50.0
  0
LINE
  5
895B
  8
DEFPOINTS
 10
100.50039965153999
 20
69.423343313056975
 30
0.0
 11
135.50039965154011
 21
69.423343313056975
 31
0.0
  0
LINE
  5
895C
  8
DEFPOINTS
 10
142.00039965154011
 20
66.423343313056975
 30
0.0
 11
94.000399651540064
 21
66.423343313056975
 31
0.0
  0
LINE
  5
895D
  8
DEFPOINTS
 10
88.000399651540064
 20
63.423343313056961
 30
0.0
 11
148.00039965153999
 21
63.423343313056961
 31
0.0
  0
LINE
  5
895E
  8
DEFPOINTS
 10
81.000399651540079
 20
60.423343313056968
 30
0.0
 11
155.00039965154011
 21
60.423343313056968
 31
0.0
  0
LINE
  5
895F
  8
DEFPOINTS
 10
73.000399651540079
 20
57.423343313056968
 30
0.0
 11
163.00039965153999
 21
57.423343313056968
 31
0.0
  0
LINE
  5
8960
  8
0
 10
68.000399651540079
 20
46.423343313056968
 30
0.0
 11
68.000399651540022
 21
55.603539410338378
 31
0.0
  0
LINE
  5
8961
  8
0
 10
74.500399651540079
 20
46.423343313056961
 30
0.0
 11
74.500399651540079
 21
43.423343313056918
 31
0.0
  0
LINE
  5
8962
  8
DEFPOINTS
 10
100.50039965153999
 20
69.423343313056961
 30
0.0
 11
100.50039965153999
 21
69.423343313056975
 31
0.0
  0
LINE
  5
8963
  8
DEFPOINTS
 10
94.000399651540064
 20
66.684768658538843
 30
0.0
 11
94.000399651540064
 21
66.423343313056975
 31
0.0
  0
LINE
  5
8964
  8
DEFPOINTS
 10
88.000399651540064
 20
63.702584093000851
 30
0.0
 11
88.000399651540064
 21
63.423343313056961
 31
0.0
  0
LINE
  5
8965
  8
DEFPOINTS
 10
81.000399651540079
 20
60.669041900302602
 30
0.0
 11
81.000399651540079
 21
60.423343313056968
 31
0.0
  0
LINE
  5
8966
  8
DEFPOINTS
 10
73.000399651540079
 20
57.642566906652547
 30
0.0
 11
73.000399651540079
 21
57.423343313056968
 31
0.0
  0
LINE
  5
8967
  8
DEFPOINTS
 10
100.50039965153999
 20
69.423343313056975
 30
0.0
 11
94.706313802702596
 21
67.64054766726079
 31
0.0
  0
LINE
  5
8968
  8
DEFPOINTS
 10
94.000399651540064
 20
66.423343313056975
 30
0.0
 11
88.684171885523241
 21
64.651267391051334
 31
0.0
  0
LINE
  5
8969
  8
DEFPOINTS
 10
88.000399651540064
 20
63.423343313056961
 30
0.0
 11
81.725678523642699
 21
61.630565847943409
 31
0.0
  0
LINE
  5
896A
  8
DEFPOINTS
 10
81.000399651540079
 20
60.423343313056968
 30
0.0
 11
73.757864026503739
 21
58.612709406797848
 31
0.0
  0
ARC
  5
896B
  8
DEFPOINTS
 10
74.000399651540064
 20
57.642566906652547
 30
0.0
 40
1.0
 50
104.0362434679266
 51
180.0
  0
ARC
  5
896C
  8
DEFPOINTS
 10
82.000399651540079
 20
60.669041900302602
 30
0.0
 40
1.0
 50
105.9453959009228
 51
180.0
  0
ARC
  5
896D
  8
DEFPOINTS
 10
89.000399651540064
 20
63.702584093000851
 30
0.0
 40
1.0
 50
108.43494882292219
 51
180.0
  0
ARC
  5
896E
  8
DEFPOINTS
 10
95.000399651540064
 20
66.684768658538843
 30
0.0
 40
1.0
 50
107.10272896905251
 51
180.0
  0
ARC
  5
896F
  8
DEFPOINTS
 10
101.50039965153999
 20
69.423343313056961
 30
0.0
 40
1.0
 50
90.000000000000057
 51
180.0
  0
LINE
  5
8970
  8
DEFPOINTS
 10
73.000399651540079
 20
57.423343313056968
 30
0.0
 11
68.804283516401881
 21
56.584120086029301
 31
0.0
  0
ARC
  5
8971
  8
DEFPOINTS
 10
69.000399651540022
 20
55.603539410338378
 30
0.0
 40
1.0
 50
101.3099324740201
 51
180.00000000000031
  0
ARC
  5
8972
  8
DEFPOINTS
 10
167.00039965154011
 20
55.603539410338378
 30
0.0
 40
1.0
 50
359.99999999999972
 51
78.690067525979913
  0
LINE
  5
8973
  8
DEFPOINTS
 10
163.00039965153999
 20
57.423343313056968
 30
0.0
 11
167.1965157866783
 21
56.584120086029301
 31
0.0
  0
ARC
  5
8974
  8
DEFPOINTS
 10
134.50039965154011
 20
69.423343313056961
 30
0.0
 40
1.0
 50
0.0
 51
89.999999999999986
  0
ARC
  5
8975
  8
DEFPOINTS
 10
141.00039965153999
 20
66.684768658538843
 30
0.0
 40
1.0
 50
0.0
 51
72.897271030947451
  0
ARC
  5
8976
  8
DEFPOINTS
 10
147.00039965154011
 20
63.702584093000851
 30
0.0
 40
1.0
 50
0.0
 51
71.565051177077734
  0
ARC
  5
8977
  8
DEFPOINTS
 10
154.00039965154011
 20
60.669041900302602
 30
0.0
 40
1.0
 50
0.0
 51
74.054604099077153
  0
ARC
  5
8978
  8
DEFPOINTS
 10
162.00039965153999
 20
57.642566906652547
 30
0.0
 40
1.0
 50
0.0
 51
75.963756532073333
  0
LINE
  5
8979
  8
DEFPOINTS
 10
155.00039965154011
 20
60.423343313056968
 30
0.0
 11
162.24293527657639
 21
58.612709406797848
 31
0.0
  0
LINE
  5
897A
  8
DEFPOINTS
 10
148.00039965153999
 20
63.423343313056961
 30
0.0
 11
154.2751207794374
 21
61.630565847943409
 31
0.0
  0
LINE
  5
897B
  8
DEFPOINTS
 10
142.00039965154011
 20
66.423343313056975
 30
0.0
 11
147.3166274175569
 21
64.651267391051334
 31
0.0
  0
LINE
  5
897C
  8
DEFPOINTS
 10
135.50039965154011
 20
69.423343313056975
 30
0.0
 11
141.29448550037759
 21
67.64054766726079
 31
0.0
  0
LINE
  5
897D
  8
DEFPOINTS
 10
163.00039965153999
 20
57.642566906652547
 30
0.0
 11
163.00039965153999
 21
57.423343313056968
 31
0.0
  0
LINE
  5
897E
  8
DEFPOINTS
 10
155.00039965154011
 20
60.669041900302602
 30
0.0
 11
155.00039965154011
 21
60.423343313056968
 31
0.0
  0
LINE
  5
897F
  8
DEFPOINTS
 10
148.00039965153999
 20
63.702584093000851
 30
0.0
 11
148.00039965153999
 21
63.423343313056961
 31
0.0
  0
LINE
  5
8980
  8
DEFPOINTS
 10
142.00039965154011
 20
66.684768658538843
 30
0.0
 11
142.00039965154011
 21
66.423343313056975
 31
0.0
  0
LINE
  5
8981
  8
DEFPOINTS
 10
135.50039965154011
 20
69.423343313056961
 30
0.0
 11
135.50039965154011
 21
69.423343313056975
 31
0.0
  0
LINE
  5
8982
  8
0
 10
161.50039965154011
 20
43.423343313056918
 30
0.0
 11
74.500399651540079
 21
43.423343313057032
 31
0.0
  0
LINE
  5
8983
  8
0
 10
134.50039965154011
 20
70.423343313056961
 30
0.0
 11
101.50039965153999
 21
70.423343313056989
 31
0.0
  0
LINE
  5
8984
  8
0
 10
161.50039965154011
 20
46.423343313056961
 30
0.0
 11
161.50039965154011
 21
43.423343313056918
 31
0.0
  0
LINE
  5
8985
  8
0
 10
168.00039965153999
 20
46.423343313056968
 30
0.0
 11
168.00039965154011
 21
55.603539410338378
 31
0.0
  0
LINE
  5
8986
  8
0
 10
168.00039965153999
 20
46.423343313056961
 30
0.0
 11
68.000399651540079
 21
46.423343313056968
 31
0.0
  0
TEXT
  5
8DF4
  8
0
 62
     3
 10
0.0
 20
0.0
 30
0.0
 40
10.0
  1
LVAR100L20A-SUS
  7
STANDARD1
  0
ENDSEC
  0
EOF
