  0
SECTION
  2
HEADER
  9
$ACADVER
  1
AC1009
  9
$INSBASE
 10
0.0
 20
0.0
 30
0.0
  9
$EXTMIN
 10
0.0
 20
-2.960436562073669
 30
0.0
  9
$EXTMAX
 10
358.83226394098671
 20
472.3096030618172
 30
0.0
  9
$LIMMIN
 10
0.0
 20
0.0
  9
$LIMMAX
 10
375.0
 20
270.0
  9
$ORTHOMODE
 70
     1
  9
$REGENMODE
 70
     1
  9
$FILLMODE
 70
     1
  9
$QTEXTMODE
 70
     0
  9
$MIRRTEXT
 70
     0
  9
$DRAGMODE
 70
     2
  9
$LTSCALE
 40
6.0
  9
$OSMODE
 70
  3071
  9
$ATTMODE
 70
     1
  9
$TEXTSIZE
 40
0.2
  9
$TRACEWID
 40
0.05
  9
$TEXTSTYLE
  7
STANDARD
  9
$CLAYER
  8
0
  9
$CELTYPE
  6
BYLAYER
  9
$CECOLOR
 62
   256
  9
$DIMSCALE
 40
1.0
  9
$DIMASZ
 40
3.0
  9
$DIMEXO
 40
1.0
  9
$DIMDLI
 40
6.0
  9
$DIMRND
 40
0.0
  9
$DIMDLE
 40
0.0
  9
$DIMEXE
 40
1.0
  9
$DIMTP
 40
495.0
  9
$DIMTM
 40
0.0
  9
$DIMTXT
 40
3.0
  9
$DIMCEN
 40
0.0
  9
$DIMTSZ
 40
0.0
  9
$DIMTOL
 70
     0
  9
$DIMLIM
 70
     0
  9
$DIMTIH
 70
     0
  9
$DIMTOH
 70
     0
  9
$DIMSE1
 70
     0
  9
$DIMSE2
 70
     0
  9
$DIMTAD
 70
     1
  9
$DIMZIN
 70
     0
  9
$DIMBLK
  1

  9
$DIMASO
 70
     0
  9
$DIMSHO
 70
     0
  9
$DIMPOST
  1

  9
$DIMAPOST
  1

  9
$DIMALT
 70
     0
  9
$DIMALTD
 70
     2
  9
$DIMALTF
 40
25.399999999999999
  9
$DIMLFAC
 40
1.0
  9
$DIMTOFL
 70
     1
  9
$DIMTVP
 40
0.0
  9
$DIMTIX
 70
     1
  9
$DIMSOXD
 70
     0
  9
$DIMSAH
 70
     0
  9
$DIMBLK1
  1

  9
$DIMBLK2
  1

  9
$DIMSTYLE
  2
STANDARD
  9
$DIMCLRD
 70
     0
  9
$DIMCLRE
 70
     0
  9
$DIMCLRT
 70
     4
  9
$DIMTFAC
 40
1.0
  9
$DIMGAP
 40
1.0
  9
$LUNITS
 70
     2
  9
$LUPREC
 70
     4
  9
$SKETCHINC
 40
0.1
  9
$FILLETRAD
 40
2.0
  9
$AUNITS
 70
     0
  9
$AUPREC
 70
     0
  9
$MENU
  1
C:\R13\WIN\SUPPORT\ACAD-I
  9
$ELEVATION
 40
0.0
  9
$PELEVATION
 40
0.0
  9
$THICKNESS
 40
0.0
  9
$LIMCHECK
 70
     0
  9
$BLIPMODE
 70
     0
  9
$CHAMFERA
 40
0.0
  9
$CHAMFERB
 40
0.0
  9
$SKPOLY
 70
     0
  9
$TDCREATE
 40
2451962.6112228702
  9
$TDUPDATE
 40
2456597.6136818398
  9
$TDINDWG
 40
0.0500430556
  9
$TDUSRTIMER
 40
2456556.1968563772
  9
$USRTIMER
 70
     1
  9
$ANGBASE
 50
0.0
  9
$ANGDIR
 70
     0
  9
$PDMODE
 70
     0
  9
$PDSIZE
 40
0.0
  9
$PLINEWID
 40
0.0
  9
$COORDS
 70
     1
  9
$SPLFRAME
 70
     0
  9
$SPLINETYPE
 70
     6
  9
$SPLINESEGS
 70
     8
  9
$ATTDIA
 70
     0
  9
$ATTREQ
 70
     1
  9
$HANDLING
 70
     1
  9
$HANDSEED
  5
997D
  9
$SURFTAB1
 70
     6
  9
$SURFTAB2
 70
     6
  9
$SURFTYPE
 70
     6
  9
$SURFU
 70
     6
  9
$SURFV
 70
     6
  9
$UCSNAME
  2

  9
$UCSORG
 10
0.0
 20
0.0
 30
0.0
  9
$UCSXDIR
 10
1.0
 20
0.0
 30
0.0
  9
$UCSYDIR
 10
0.0
 20
1.0
 30
0.0
  9
$PUCSNAME
  2

  9
$PUCSORG
 10
0.0
 20
0.0
 30
0.0
  9
$PUCSXDIR
 10
1.0
 20
0.0
 30
0.0
  9
$PUCSYDIR
 10
0.0
 20
1.0
 30
0.0
  9
$USERI1
 70
     4
  9
$USERI2
 70
     1
  9
$USERI3
 70
     0
  9
$USERI4
 70
     0
  9
$USERI5
 70
     0
  9
$USERR1
 40
1.0
  9
$USERR2
 40
3.0
  9
$USERR3
 40
3.0
  9
$USERR4
 40
3.0
  9
$USERR5
 40
10.0
  9
$WORLDVIEW
 70
     1
  9
$SHADEDGE
 70
     3
  9
$SHADEDIF
 70
    70
  9
$TILEMODE
 70
     1
  9
$MAXACTVP
 70
    16
  9
$PLIMCHECK
 70
     0
  9
$PEXTMIN
 10
1.0000000000000000E+020
 20
1.0000000000000000E+020
 30
1.0000000000000000E+020
  9
$PEXTMAX
 10
-1.0000000000000000E+020
 20
-1.0000000000000000E+020
 30
-1.0000000000000000E+020
  9
$PLIMMIN
 10
0.0
 20
0.0
  9
$PLIMMAX
 10
12.0
 20
9.0
  9
$UNITMODE
 70
     0
  9
$VISRETAIN
 70
     0
  9
$PLINEGEN
 70
     0
  9
$PSLTSCALE
 70
     0
  0
ENDSEC
  0
SECTION
  2
TABLES
  0
TABLE
  2
VPORT
 70
     1
  0
VPORT
  2
*ACTIVE
 70
     0
 10
0.0
 20
0.0
 11
1.0
 21
1.0
 12
187.4942783906522
 22
235.70631117272049
 13
0.0
 23
0.0
 14
10.0
 24
10.0
 15
10.0
 25
10.0
 16
0.0
 26
0.0
 36
1.0
 17
0.0
 27
0.0
 37
0.0
 40
482.8142239651018
 41
2.304913294797688
 42
50.0
 43
0.0
 44
0.0
 50
0.0
 51
0.0
 71
    16
 72
   100
 73
     1
 74
     0
 75
     0
 76
     0
 77
     0
 78
     0
  0
ENDTAB
  0
TABLE
  2
LTYPE
 70
     3
  0
LTYPE
  2
CONTINUOUS
 70
     0
  3
Solid Line
 72
    65
 73
     0
 40
0.0
  0
LTYPE
  2
PHANTOM2
 70
     0
  3
___ _ _ ___ _ _ ___ _ _ ___ _ _
 72
    65
 73
     6
 40
1.25
 49
0.625
 49
-0.125
 49
0.125
 49
-0.125
 49
0.125
 49
-0.125
  0
LTYPE
  2
CENTER
 70
     0
  3
____ _ ____ _ ____ _ ____ _ ____ _ ____ _ ____
 72
    65
 73
     4
 40
2.0
 49
1.25
 49
-0.25
 49
0.25
 49
-0.25
  0
ENDTAB
  0
TABLE
  2
LAYER
 70
     4
  0
LAYER
  2
0
 70
     0
 62
     7
  6
CONTINUOUS
  0
LAYER
  2
1
 70
     0
 62
     1
  6
CENTER
  0
LAYER
  2
3
 70
     0
 62
     3
  6
CONTINUOUS
  0
LAYER
  2
DEFPOINTS
 70
     0
 62
     7
  6
CONTINUOUS
  0
ENDTAB
  0
TABLE
  2
STYLE
 70
     3
  0
STYLE
  2
STANDARD
 70
     0
 40
0.0
 41
1.0
 50
0.0
 71
     0
 42
0.2
  3
SIMPLEX
  4
BIGFONT
  0
STYLE
  2
ANNOTATIVE
 70
     0
 40
0.0
 41
1.0
 50
0.0
 71
     0
 42
0.2
  3
txt
  4

  0
STYLE
  2
STANDARD1
 70
     0
 40
0.0
 41
1.0
 50
0.0
 71
     0
 42
3.0
  3
txt
  4

  0
ENDTAB
  0
TABLE
  2
VIEW
 70
     0
  0
ENDTAB
  0
TABLE
  2
UCS
 70
     0
  0
ENDTAB
  0
TABLE
  2
APPID
 70
    29
  0
APPID
  2
ACAD
 70
     0
  0
APPID
  2
ACADANNOTATIVE
 70
     0
  0
APPID
  2
GENIUS_GENOREF_13
 70
     0
  0
APPID
  2
GENIUS_GENOENT_13
 70
     0
  0
APPID
  2
GENIUS_GENBH_13
 70
     0
  0
APPID
  2
GENIUS_GENOBJ_13
 70
     0
  0
APPID
  2
GENIUS_GENODEF_13
 70
     0
  0
APPID
  2
GENIUS_GENOLIS_13
 70
     0
  0
APPID
  2
GENIUS_GENOBJ-NBEHI-BHF_13
 70
     0
  0
APPID
  2
GENIUS_GENOBJ-NBEHI-BHB_13
 70
     0
  0
APPID
  2
GENIUS_GENOBJ-F-PART_13
 70
     0
  0
APPID
  2
GENIUS_GEFSTDP_13
 70
     0
  0
APPID
  2
GENIUS_GENOBJ-N-RSSYM_13
 70
     0
  0
APPID
  2
GENIUS_GENSYMENT_13
 70
     0
  0
APPID
  2
GENIUS_GENOBJ-N-TIT_13
 70
     0
  0
APPID
  2
GENIUS_GENTITLE_13
 70
     0
  0
APPID
  2
GENIUS_GENZVEED_13
 70
     0
  0
APPID
  2
GENIUS_GENOBJ-N-LEADER_13
 70
     0
  0
APPID
  2
GENIUS_GENOBJ-N-FIL_13
 70
     0
  0
APPID
  2
GENIUS_GENOBJ-N-SEC_13
 70
     0
  0
APPID
  2
GENIUS_GENOBJ-N-CRS_13
 70
     0
  0
APPID
  2
GENIUS_GENOBJ-N-ZOO_13
 70
     0
  0
APPID
  2
GENIUS_GENZOO_13
 70
     0
  0
APPID
  2
GENIUS_GENOBJ-F-TOL_13
 70
     0
  0
APPID
  2
GENIUS_GENFIL_13
 70
     0
  0
APPID
  2
GENIUS_GENOBJ-N-CHA_13
 70
     0
  0
APPID
  2
ACAD_EXEMPT_FROM_CAD_STANDARDS
 70
     0
  0
APPID
  2
ACAD_MLEADERVER
 70
     0
  0
APPID
  2
ACAD_NAV_VCDISPLAY
 70
     0
  0
ENDTAB
  0
TABLE
  2
DIMSTYLE
 70
     2
  0
DIMSTYLE
  2
STANDARD
 70
     0
  3

  4

  5

  6

  7

 40
1.0
 41
0.18
 42
0.0625
 43
0.38
 44
0.18
 45
0.0
 46
0.0
 47
0.0
 48
0.0
140
0.18
141
0.09
142
0.0
143
25.399999999999999
144
1.0
145
0.0
146
1.0
147
0.09
 71
     0
 72
     0
 73
     1
 74
     1
 75
     0
 76
     0
 77
     0
 78
     0
170
     0
171
     2
172
     0
173
     0
174
     0
175
     0
176
     0
177
     0
178
     0
  0
DIMSTYLE
  2
ANNOTATIVE
 70
     0
  3

  4

  5

  6

  7

 40
1.0
 41
0.18
 42
0.0625
 43
0.38
 44
0.18
 45
0.0
 46
0.0
 47
0.0
 48
0.0
140
0.18
141
0.09
142
0.0
143
25.399999999999999
144
1.0
145
0.0
146
1.0
147
0.09
 71
     0
 72
     0
 73
     1
 74
     1
 75
     0
 76
     0
 77
     0
 78
     0
170
     0
171
     2
172
     0
173
     0
174
     0
175
     0
176
     0
177
     0
178
     0
  0
ENDTAB
  0
ENDSEC
  0
SECTION
  2
BLOCKS
  0
BLOCK
  8
0
  2
$MODEL_SPACE
 70
     0
 10
0.0
 20
0.0
 30
0.0
  3
$MODEL_SPACE
  1

  0
ENDBLK
  5
989F
  8
0
  0
BLOCK
 67
     1
  8
0
  2
$PAPER_SPACE
 70
     0
 10
0.0
 20
0.0
 30
0.0
  3
$PAPER_SPACE
  1

  0
ENDBLK
  5
989B
 67
     1
  8
0
  0
ENDSEC
  0
SECTION
  2
ENTITIES
  0
ARC
  5
9417
  8
0
 10
308.83226394098671
 20
84.604402965780764
 30
0.0
 40
12.25
 50
31.065080896355841
 51
46.062160114254262
  0
ARC
  5
9418
  8
0
 10
308.83226394098671
 20
84.604402965780764
 30
0.0
 40
12.25
 50
133.93783988574569
 51
148.93491910364409
  0
LINE
  5
9419
  8
0
 10
300.33226394098671
 20
99.925542347983324
 30
0.0
 11
300.33226394098671
 21
93.425542347997407
 31
0.0
  0
LINE
  5
941A
  8
0
 10
317.33226394098682
 20
99.925542347983324
 30
0.0
 11
317.33226394098682
 21
93.425542347969213
 31
0.0
  0
LINE
  5
941B
  8
0
 10
299.83226394098801
 20
307.92554234803862
 30
0.0
 11
317.83226394098801
 21
307.92554234803828
 31
0.0
  0
LINE
  5
941C
  8
0
 10
320.83226394098682
 20
109.6368672134144
 30
0.0
 11
320.83226394098682
 21
133.92554234804061
 31
0.0
  0
LINE
  5
941D
  8
3
 10
319.20826394098691
 20
114.92554234804059
 30
0.0
 11
319.20826394098691
 21
133.92554234804041
 31
0.0
  0
LINE
  5
941E
  8
3
 10
298.45626394098639
 20
114.92554234804059
 30
0.0
 11
298.45626394098639
 21
133.92554234804061
 31
0.0
  0
LINE
  5
941F
  8
0
 10
296.83226394098659
 20
109.6368672133521
 30
0.0
 11
296.83226394098659
 21
133.92554234804061
 31
0.0
  0
LINE
  5
9420
  8
0
 10
296.83226394098801
 20
304.9255423480389
 30
0.0
 11
299.83226394098801
 21
307.92554234803862
 31
0.0
  0
LINE
  5
9421
  8
0
 10
317.83226394098801
 20
307.92554234803828
 30
0.0
 11
320.83226394098801
 21
304.92554234803828
 31
0.0
  0
LINE
  5
9422
  8
0
 10
296.83226394098801
 20
304.9255423480389
 30
0.0
 11
320.83226394098801
 21
304.92554234803828
 31
0.0
  0
LINE
  5
9423
  8
0
 10
320.83226394098682
 20
114.92554234804059
 30
0.0
 11
296.83226394098659
 21
114.92554234804059
 31
0.0
  0
LINE
  5
9424
  8
3
 10
298.45626394098639
 20
114.92554234804059
 30
0.0
 11
296.83226394098659
 21
112.11269183654871
 31
0.0
  0
LINE
  5
9425
  8
3
 10
319.20826394098691
 20
114.92554234804059
 30
0.0
 11
320.83226394098682
 21
112.11269183654871
 31
0.0
  0
LINE
  5
9426
  8
0
 10
320.33226394093288
 20
99.925542348040594
 30
0.0
 11
297.3322639411486
 21
99.925542348040594
 31
0.0
  0
LINE
  5
9427
  8
0
 10
297.33226394104031
 20
109.92554234804059
 30
0.0
 11
320.33226394093288
 21
109.92554234804059
 31
0.0
  0
ARC
  5
9428
  8
0
 10
319.2245687864538
 20
103.5028926177549
 30
0.0
 40
6.1339745957208196
 50
64.384247469840446
 51
124.3842474712085
  0
LINE
  5
9429
  8
0
 10
322.68867040161382
 20
108.56507044364641
 30
0.0
 11
320.33226394093288
 21
109.92554234804059
 31
0.0
  0
LINE
  5
942A
  8
0
 10
322.68867040161382
 20
101.2860142524347
 30
0.0
 11
320.33226394093288
 21
99.925542348040594
 31
0.0
  0
ARC
  5
942B
  8
0
 10
319.2245687864538
 20
106.34819207832631
 30
0.0
 40
6.1339745957208196
 50
235.6157525287887
 51
295.61575253015963
  0
LINE
  5
942C
  8
0
 10
322.68867040159188
 20
108.56507044364641
 30
0.0
 11
322.68867040159188
 21
101.28601425242211
 31
0.0
  0
LINE
  5
942D
  8
0
 10
315.76046717131572
 20
108.56507044364641
 30
0.0
 11
315.76046717131572
 21
101.2860142524347
 31
0.0
  0
LINE
  5
942E
  8
0
 10
301.9040607107649
 20
108.56507044364641
 30
0.0
 11
301.9040607107649
 21
101.2860142524347
 31
0.0
  0
LINE
  5
942F
  8
0
 10
294.97585748048959
 20
108.56507044364641
 30
0.0
 11
294.97585748048959
 21
101.28601425242211
 31
0.0
  0
ARC
  5
9430
  8
0
 10
308.83226394104031
 20
123.142420710745
 30
0.0
 40
22.928203228139491
 50
252.41204622431411
 51
287.58795377568589
  0
ARC
  5
9431
  8
0
 10
298.43995909562682
 20
106.34819207832631
 30
0.0
 40
6.1339745957208196
 50
244.3842474698404
 51
304.38424747121132
  0
LINE
  5
9432
  8
0
 10
294.97585748046782
 20
101.2860142524347
 30
0.0
 11
297.3322639411486
 21
99.925542348040594
 31
0.0
  0
LINE
  5
9433
  8
0
 10
294.97585748046782
 20
108.56507044364641
 30
0.0
 11
297.3322639411486
 21
109.92554234804059
 31
0.0
  0
ARC
  5
9434
  8
0
 10
298.43995909562682
 20
103.5028926177549
 30
0.0
 40
6.1339745957208196
 50
55.615752528791369
 51
115.6157525301595
  0
ARC
  5
9435
  8
0
 10
308.83226394104031
 20
86.708663985336202
 30
0.0
 40
22.928203228139491
 50
72.412046224314139
 51
107.5879537756858
  0
LINE
  5
9436
  8
0
 10
300.33226394098671
 20
93.425542347969213
 30
0.0
 11
317.33226394098682
 21
93.425542347969213
 31
0.0
  0
LINE
  5
9437
  8
0
 10
290.8322639556377
 20
152.34819208730909
 30
0.0
 11
290.8322639556377
 21
134.50289260877139
 31
0.0
  0
LINE
  5
9438
  8
0
 10
291.83226394098682
 20
152.9255423480401
 30
0.0
 11
290.8322639556377
 21
152.34819208730909
 31
0.0
  0
ARC
  5
9439
  8
0
 10
299.83226394831172
 20
126.353001579997
 30
0.0
 40
25.995190507312159
 50
69.743841999652659
 51
110.2561580003473
  0
ARC
  5
943A
  8
0
 10
299.83226394831172
 20
160.49808311608351
 30
0.0
 40
25.995190507312159
 50
249.74384199965269
 51
290.2561580003474
  0
LINE
  5
943B
  8
0
 10
291.83226394098682
 20
133.92554234804041
 30
0.0
 11
290.8322639556377
 21
134.50289260877139
 31
0.0
  0
LINE
  5
943C
  8
0
 10
325.83226394098648
 20
133.92554234804041
 30
0.0
 11
326.8322639263356
 21
134.50289260877139
 31
0.0
  0
ARC
  5
943D
  8
0
 10
317.83226393366112
 20
160.49808311608351
 30
0.0
 40
25.995190507312159
 50
249.74384199965269
 51
290.2561580003474
  0
ARC
  5
943E
  8
0
 10
317.83226393366112
 20
126.353001579997
 30
0.0
 40
25.995190507312159
 50
69.743841999652659
 51
110.2561580003473
  0
LINE
  5
943F
  8
0
 10
325.83226394098648
 20
152.9255423480401
 30
0.0
 11
326.8322639263356
 21
152.34819208730909
 31
0.0
  0
LINE
  5
9440
  8
0
 10
291.83226394098682
 20
152.9255423480401
 30
0.0
 11
325.83226394098648
 21
152.9255423480401
 31
0.0
  0
LINE
  5
9441
  8
0
 10
326.8322639263356
 20
152.34819208730909
 30
0.0
 11
326.8322639263356
 21
134.50289260877139
 31
0.0
  0
LINE
  5
9442
  8
0
 10
291.83226394098682
 20
133.92554234804041
 30
0.0
 11
325.83226394098648
 21
133.92554234804041
 31
0.0
  0
LINE
  5
9443
  8
0
 10
308.83226394098671
 20
150.7404969340368
 30
0.0
 11
308.83226394098671
 21
136.11058776204391
 31
0.0
  0
LINE
  5
9444
  8
0
 10
320.83226394098682
 20
152.9255423480401
 30
0.0
 11
320.83226394098801
 21
304.92554234803828
 31
0.0
  0
LINE
  5
9445
  8
3
 10
319.20826394098691
 20
152.9255423480401
 30
0.0
 11
319.20826394098782
 21
306.5495423480383
 31
0.0
  0
LINE
  5
9446
  8
0
 10
296.83226394098659
 20
152.9255423480401
 30
0.0
 11
296.83226394098801
 21
304.9255423480389
 31
0.0
  0
LINE
  5
9447
  8
3
 10
298.45626394098639
 20
152.9255423480399
 30
0.0
 11
298.45626394098781
 21
306.54954234803859
 31
0.0
  0
LINE
  5
9448
  8
1
 10
308.83226394098801
 20
317.92554234803839
 30
0.0
 11
308.83226394098671
 21
53.925542348040381
 31
0.0
  0
LINE
  5
9449
  8
DEFPOINTS
 10
291.33226394098648
 20
89.925542348040352
 30
0.0
 11
326.33226394098648
 21
89.925542348040352
 31
0.0
  0
LINE
  5
944A
  8
DEFPOINTS
 10
332.83226394098648
 20
86.925542348040366
 30
0.0
 11
284.83226394098648
 21
86.925542348040366
 31
0.0
  0
LINE
  5
944B
  8
DEFPOINTS
 10
278.83226394098648
 20
83.925542348040366
 30
0.0
 11
338.83226394098648
 21
83.925542348040366
 31
0.0
  0
LINE
  5
944C
  8
DEFPOINTS
 10
271.83226394098659
 20
80.925542348040366
 30
0.0
 11
345.83226394098682
 21
80.925542348040366
 31
0.0
  0
LINE
  5
944D
  8
DEFPOINTS
 10
263.83226394098648
 20
77.925542348040366
 30
0.0
 11
353.83226394098648
 21
77.925542348040366
 31
0.0
  0
LINE
  5
944E
  8
0
 10
258.83226394098671
 20
66.925542348040381
 30
0.0
 11
258.83226394098671
 21
76.105738445321776
 31
0.0
  0
LINE
  5
944F
  8
0
 10
265.33226394098671
 20
66.925542348040381
 30
0.0
 11
265.33226394098671
 21
63.925542348040381
 31
0.0
  0
LINE
  5
9450
  8
DEFPOINTS
 10
291.33226394098648
 20
89.925542348040352
 30
0.0
 11
291.33226394098648
 21
89.925542348040352
 31
0.0
  0
LINE
  5
9451
  8
DEFPOINTS
 10
284.83226394098648
 20
87.186967693522206
 30
0.0
 11
284.83226394098648
 21
86.925542348040366
 31
0.0
  0
LINE
  5
9452
  8
DEFPOINTS
 10
278.83226394098648
 20
84.204783127984214
 30
0.0
 11
278.83226394098648
 21
83.925542348040366
 31
0.0
  0
LINE
  5
9453
  8
DEFPOINTS
 10
271.83226394098659
 20
81.17124093528605
 30
0.0
 11
271.83226394098659
 21
80.925542348040366
 31
0.0
  0
LINE
  5
9454
  8
DEFPOINTS
 10
263.83226394098648
 20
78.14476594163591
 30
0.0
 11
263.83226394098648
 21
77.925542348040366
 31
0.0
  0
LINE
  5
9455
  8
DEFPOINTS
 10
291.33226394098648
 20
89.925542348040352
 30
0.0
 11
285.53817809214939
 21
88.142746702244153
 31
0.0
  0
LINE
  5
9456
  8
DEFPOINTS
 10
284.83226394098648
 20
86.925542348040366
 30
0.0
 11
279.51603617497
 21
85.153466426034683
 31
0.0
  0
LINE
  5
9457
  8
DEFPOINTS
 10
278.83226394098648
 20
83.925542348040366
 30
0.0
 11
272.55754281308919
 21
82.132764882926722
 31
0.0
  0
LINE
  5
9458
  8
DEFPOINTS
 10
271.83226394098659
 20
80.925542348040366
 30
0.0
 11
264.5897283159502
 21
79.114908441781267
 31
0.0
  0
ARC
  5
9459
  8
DEFPOINTS
 10
264.83226394098671
 20
78.14476594163591
 30
0.0
 40
1.0
 50
104.0362434679266
 51
180.0
  0
ARC
  5
945A
  8
DEFPOINTS
 10
272.83226394098671
 20
81.17124093528605
 30
0.0
 40
1.0
 50
105.9453959009228
 51
180.0
  0
ARC
  5
945B
  8
DEFPOINTS
 10
279.83226394098671
 20
84.204783127984214
 30
0.0
 40
1.0
 50
108.43494882292219
 51
180.0
  0
ARC
  5
945C
  8
DEFPOINTS
 10
285.83226394098648
 20
87.186967693522206
 30
0.0
 40
1.0
 50
107.10272896905251
 51
180.0
  0
ARC
  5
945D
  8
DEFPOINTS
 10
292.33226394098671
 20
89.925542348040352
 30
0.0
 40
1.0
 50
90.000000000000057
 51
180.0
  0
LINE
  5
945E
  8
DEFPOINTS
 10
263.83226394098648
 20
77.925542348040366
 30
0.0
 11
259.6361478058484
 21
77.086319121012707
 31
0.0
  0
ARC
  5
945F
  8
DEFPOINTS
 10
259.83226394098648
 20
76.105738445321776
 30
0.0
 40
1.0
 50
101.3099324740201
 51
180.00000000000031
  0
ARC
  5
9460
  8
DEFPOINTS
 10
357.83226394098648
 20
76.105738445321776
 30
0.0
 40
1.0
 50
359.99999999999972
 51
78.690067525979913
  0
LINE
  5
9461
  8
DEFPOINTS
 10
353.83226394098648
 20
77.925542348040366
 30
0.0
 11
358.0283800761249
 21
77.086319121012707
 31
0.0
  0
ARC
  5
9462
  8
DEFPOINTS
 10
325.33226394098671
 20
89.925542348040352
 30
0.0
 40
1.0
 50
0.0
 51
89.999999999999986
  0
ARC
  5
9463
  8
DEFPOINTS
 10
331.83226394098671
 20
87.186967693522206
 30
0.0
 40
1.0
 50
0.0
 51
72.897271030947451
  0
ARC
  5
9464
  8
DEFPOINTS
 10
337.83226394098671
 20
84.204783127984214
 30
0.0
 40
1.0
 50
0.0
 51
71.565051177077734
  0
ARC
  5
9465
  8
DEFPOINTS
 10
344.83226394098659
 20
81.17124093528605
 30
0.0
 40
1.0
 50
0.0
 51
74.054604099077153
  0
ARC
  5
9466
  8
DEFPOINTS
 10
352.83226394098682
 20
78.14476594163591
 30
0.0
 40
1.0
 50
0.0
 51
75.963756532073333
  0
LINE
  5
9467
  8
DEFPOINTS
 10
345.83226394098682
 20
80.925542348040366
 30
0.0
 11
353.0747995660227
 21
79.114908441781267
 31
0.0
  0
LINE
  5
9468
  8
DEFPOINTS
 10
338.83226394098648
 20
83.925542348040366
 30
0.0
 11
345.10698506888411
 21
82.132764882926722
 31
0.0
  0
LINE
  5
9469
  8
DEFPOINTS
 10
332.83226394098648
 20
86.925542348040366
 30
0.0
 11
338.14849170700342
 21
85.153466426034683
 31
0.0
  0
LINE
  5
946A
  8
DEFPOINTS
 10
326.33226394098648
 20
89.925542348040352
 30
0.0
 11
332.12634978982402
 21
88.142746702244153
 31
0.0
  0
LINE
  5
946B
  8
DEFPOINTS
 10
353.83226394098648
 20
78.14476594163591
 30
0.0
 11
353.83226394098648
 21
77.925542348040366
 31
0.0
  0
LINE
  5
946C
  8
DEFPOINTS
 10
345.83226394098682
 20
81.17124093528605
 30
0.0
 11
345.83226394098682
 21
80.925542348040366
 31
0.0
  0
LINE
  5
946D
  8
DEFPOINTS
 10
338.83226394098648
 20
84.204783127984214
 30
0.0
 11
338.83226394098648
 21
83.925542348040366
 31
0.0
  0
LINE
  5
946E
  8
DEFPOINTS
 10
332.83226394098648
 20
87.186967693522206
 30
0.0
 11
332.83226394098648
 21
86.925542348040366
 31
0.0
  0
LINE
  5
946F
  8
DEFPOINTS
 10
326.33226394098648
 20
89.925542348040352
 30
0.0
 11
326.33226394098648
 21
89.925542348040352
 31
0.0
  0
LINE
  5
9470
  8
0
 10
352.33226394098682
 20
63.925542348040381
 30
0.0
 11
265.33226394098671
 21
63.925542348040381
 31
0.0
  0
LINE
  5
9471
  8
0
 10
325.33226394098671
 20
90.925542348040395
 30
0.0
 11
292.33226394098671
 21
90.925542348040395
 31
0.0
  0
LINE
  5
9472
  8
0
 10
352.33226394098682
 20
66.925542348040381
 30
0.0
 11
352.33226394098682
 21
63.925542348040381
 31
0.0
  0
LINE
  5
9473
  8
0
 10
358.83226394098671
 20
66.925542348040381
 30
0.0
 11
358.83226394098671
 21
76.105738445321776
 31
0.0
  0
LINE
  5
9474
  8
0
 10
358.83226394098671
 20
66.925542348040381
 30
0.0
 11
258.83226394098671
 21
66.925542348040381
 31
0.0
  0
CIRCLE
  5
9475
  8
3
 10
148.51637676588641
 20
412.30960306181743
 30
0.0
 40
10.375999999999999
  0
CIRCLE
  5
9476
  8
0
 10
148.51637676588641
 20
412.30960306181743
 30
0.0
 40
12.0
  0
CIRCLE
  5
9477
  8
0
 10
148.51637676588641
 20
412.30960306181743
 30
0.0
 40
17.0
  0
LINE
  5
9478
  8
0
 10
138.12407192892621
 20
430.30960304716649
 30
0.0
 11
158.90868161975141
 21
430.30960304716649
 31
0.0
  0
LINE
  5
9479
  8
0
 10
158.9086816028439
 20
430.309603047152
 30
0.0
 11
169.30098644826009
 21
412.30960304716649
 31
0.0
  0
LINE
  5
947A
  8
0
 10
169.30098643978721
 20
412.30960306182021
 30
0.0
 11
158.90868159437829
 21
394.30960306182033
 31
0.0
  0
LINE
  5
947B
  8
0
 10
158.90868160283301
 20
394.30960307647422
 30
0.0
 11
138.12407191200779
 21
394.30960307647422
 31
0.0
  0
LINE
  5
947C
  8
0
 10
138.124071928928
 20
394.30960307647422
 30
0.0
 11
127.7317670835118
 21
412.3096030764741
 31
0.0
  0
LINE
  5
947D
  8
0
 10
127.73176709198469
 20
412.30960306182021
 30
0.0
 11
138.1240719373935
 21
430.30960306182033
 31
0.0
  0
LINE
  5
947E
  8
1
 10
148.51637676588641
 20
317.92554234804061
 30
0.0
 11
148.51637676588641
 21
53.925542348040437
 31
0.0
  0
ARC
  5
947F
  8
0
 10
148.51637676588641
 20
84.604402965780537
 30
0.0
 40
12.25
 50
31.065080896357031
 51
46.062160114254262
  0
LINE
  5
9480
  8
DEFPOINTS
 10
140.0163767659146
 20
93.425542347996469
 30
0.0
 11
157.01637676588641
 21
93.425542347996469
 31
0.0
  0
LINE
  5
9481
  8
3
 10
158.89237676588641
 20
114.9255423480403
 30
0.0
 11
160.51637676588641
 21
112.11269183654851
 31
0.0
  0
LINE
  5
9482
  8
3
 10
138.1403767658864
 20
114.9255423480403
 30
0.0
 11
136.51637676588641
 21
112.11269183654851
 31
0.0
  0
LINE
  5
9483
  8
0
 10
160.51637676588641
 20
114.9255423480403
 30
0.0
 11
136.51637676588641
 21
114.9255423480403
 31
0.0
  0
LINE
  5
9484
  8
0
 10
136.51637676588641
 20
304.92554234804089
 30
0.0
 11
160.51637676588641
 21
304.92554234804038
 31
0.0
  0
LINE
  5
9485
  8
0
 10
157.51637676588641
 20
307.92554234804038
 30
0.0
 11
160.51637676588641
 21
304.92554234804038
 31
0.0
  0
LINE
  5
9486
  8
0
 10
136.51637676588641
 20
304.92554234804089
 30
0.0
 11
139.51637676588641
 21
307.92554234804061
 31
0.0
  0
LINE
  5
9487
  8
0
 10
136.5163767659046
 20
109.6368672134372
 30
0.0
 11
136.51637676588641
 21
133.9255423480399
 31
0.0
  0
LINE
  5
9488
  8
3
 10
138.1403767658864
 20
114.9255423480403
 30
0.0
 11
138.1403767658864
 21
133.9255423480401
 31
0.0
  0
LINE
  5
9489
  8
3
 10
158.89237676588641
 20
114.9255423480403
 30
0.0
 11
158.89237676588641
 21
133.9255423480399
 31
0.0
  0
LINE
  5
948A
  8
0
 10
160.51637676593461
 20
109.6368672134372
 30
0.0
 11
160.51637676588641
 21
133.9255423480399
 31
0.0
  0
LINE
  5
948B
  8
0
 10
139.51637676588641
 20
307.92554234804061
 30
0.0
 11
157.51637676588641
 21
307.92554234804038
 31
0.0
  0
LINE
  5
948C
  8
0
 10
157.01637676588641
 20
99.925542347983068
 30
0.0
 11
157.01637676588641
 21
93.425542347968985
 31
0.0
  0
LINE
  5
948D
  8
0
 10
140.01637676588641
 20
99.925542347983068
 30
0.0
 11
140.01637676588641
 21
93.425542347997194
 31
0.0
  0
LINE
  5
948E
  8
0
 10
160.0163767659196
 20
99.925542347963784
 30
0.0
 11
137.01637676585321
 21
99.925542348002182
 31
0.0
  0
LINE
  5
948F
  8
0
 10
137.01637676585321
 20
109.9255423480022
 30
0.0
 11
160.0163767659196
 21
109.92554234804059
 31
0.0
  0
ARC
  5
9490
  8
0
 10
142.5163767659196
 20
92.306740196103405
 30
0.0
 40
17.330127017333279
 50
69.743841997633055
 51
110.2561580023669
  0
LINE
  5
9491
  8
0
 10
136.5163767659046
 20
109.6368672134372
 30
0.0
 11
137.0163767659196
 21
109.92554234804059
 31
0.0
  0
LINE
  5
9492
  8
0
 10
136.5163767659046
 20
100.21421748256709
 30
0.0
 11
137.0163767659196
 21
99.925542347963784
 31
0.0
  0
ARC
  5
9493
  8
0
 10
142.5163767659196
 20
117.5443444999005
 30
0.0
 40
17.330127017333279
 50
249.7438419976331
 51
290.25615800236699
  0
LINE
  5
9494
  8
0
 10
136.5163767659046
 20
109.6368672134372
 30
0.0
 11
136.5163767659196
 21
100.2142174825585
 31
0.0
  0
LINE
  5
9495
  8
0
 10
148.5163767659196
 20
101.2860142523964
 30
0.0
 11
148.5163767659196
 21
108.56507044360789
 31
0.0
  0
LINE
  5
9496
  8
0
 10
160.51637676593461
 20
109.6368672134372
 30
0.0
 11
160.5163767659196
 21
100.2142174825585
 31
0.0
  0
ARC
  5
9497
  8
0
 10
154.5163767659196
 20
117.5443444999005
 30
0.0
 40
17.330127017333279
 50
249.7438419976331
 51
290.25615800236699
  0
LINE
  5
9498
  8
0
 10
160.51637676593461
 20
100.21421748256709
 30
0.0
 11
160.0163767659196
 21
99.925542347963784
 31
0.0
  0
LINE
  5
9499
  8
0
 10
160.51637676593461
 20
109.6368672134372
 30
0.0
 11
160.0163767659196
 21
109.92554234804059
 31
0.0
  0
ARC
  5
949A
  8
0
 10
154.5163767659196
 20
92.306740196103405
 30
0.0
 40
17.330127017333279
 50
69.743841997633055
 51
110.2561580023669
  0
ARC
  5
949B
  8
0
 10
148.51637676588641
 20
84.604402965780537
 30
0.0
 40
12.25
 50
133.9378398855568
 51
148.93491910364301
  0
LINE
  5
949C
  8
0
 10
169.30098643978539
 20
150.7404969340366
 30
0.0
 11
169.30098643978539
 21
136.11058776204359
 31
0.0
  0
LINE
  5
949D
  8
0
 10
165.51637676588641
 20
152.9255423480399
 30
0.0
 11
169.30098643978539
 21
150.7404969340366
 31
0.0
  0
ARC
  5
949E
  8
0
 10
164.10483402131061
 20
143.1472302004554
 30
0.0
 40
9.2009618868538041
 50
64.384247467929242
 51
124.38424746793839
  0
ARC
  5
949F
  8
0
 10
164.10483402131061
 20
143.70385449562491
 30
0.0
 40
9.2009618868538041
 50
235.61575253206149
 51
295.6157525320707
  0
LINE
  5
94A0
  8
0
 10
165.51637676588641
 20
133.9255423480401
 30
0.0
 11
169.30098643978539
 21
136.11058776204359
 31
0.0
  0
LINE
  5
94A1
  8
0
 10
131.51637676588641
 20
133.9255423480401
 30
0.0
 11
127.73176709198719
 21
136.11058776204359
 31
0.0
  0
ARC
  5
94A2
  8
0
 10
132.92791951046229
 20
143.70385449562491
 30
0.0
 40
9.2009618868538041
 50
244.38424746792921
 51
304.38424746793839
  0
ARC
  5
94A3
  8
0
 10
148.5163767658882
 20
168.89519742628789
 30
0.0
 40
34.392304817516766
 50
252.41204622606631
 51
287.58795377393369
  0
ARC
  5
94A4
  8
0
 10
132.92791951046229
 20
143.1472302004554
 30
0.0
 40
9.2009618868538041
 50
55.615752532061599
 51
115.6157525320707
  0
ARC
  5
94A5
  8
0
 10
148.5163767658882
 20
117.9558872697921
 30
0.0
 40
34.392304817516766
 50
72.412046226066266
 51
107.58795377393371
  0
LINE
  5
94A6
  8
0
 10
158.90868160283941
 20
150.7404969340366
 30
0.0
 11
158.90868160283941
 21
136.11058776204359
 31
0.0
  0
LINE
  5
94A7
  8
0
 10
138.12407192893741
 20
150.7404969340366
 30
0.0
 11
138.12407192893741
 21
136.11058776204359
 31
0.0
  0
LINE
  5
94A8
  8
0
 10
131.51637676588641
 20
152.9255423480399
 30
0.0
 11
127.73176709198719
 21
150.7404969340366
 31
0.0
  0
LINE
  5
94A9
  8
0
 10
127.73176709198719
 20
150.7404969340366
 30
0.0
 11
127.73176709198719
 21
136.11058776204359
 31
0.0
  0
LINE
  5
94AA
  8
0
 10
131.51637676588641
 20
133.9255423480401
 30
0.0
 11
165.51637676588641
 21
133.9255423480401
 31
0.0
  0
LINE
  5
94AB
  8
0
 10
131.51637676588641
 20
152.9255423480399
 30
0.0
 11
165.51637676588641
 21
152.9255423480399
 31
0.0
  0
LINE
  5
94AC
  8
0
 10
160.51637676588641
 20
152.9255423480399
 30
0.0
 11
160.51637676588641
 21
304.92554234804038
 31
0.0
  0
LINE
  5
94AD
  8
3
 10
158.89237676588641
 20
152.9255423480399
 30
0.0
 11
158.89237676588641
 21
306.5495423480404
 31
0.0
  0
LINE
  5
94AE
  8
3
 10
138.1403767658864
 20
152.9255423480399
 30
0.0
 11
138.1403767658864
 21
306.54954234804069
 31
0.0
  0
LINE
  5
94AF
  8
0
 10
136.51637676588641
 20
152.9255423480397
 30
0.0
 11
136.51637676588641
 21
304.92554234804089
 31
0.0
  0
LINE
  5
94BF
  8
0
 10
198.51637676588641
 20
66.925542348040381
 30
0.0
 11
98.516376765886434
 21
66.925542348040381
 31
0.0
  0
LINE
  5
94C0
  8
0
 10
198.51637676588641
 20
66.925542348040381
 30
0.0
 11
198.51637676588641
 21
76.105738445321776
 31
0.0
  0
LINE
  5
94C1
  8
0
 10
192.01637676588641
 20
66.925542348040381
 30
0.0
 11
192.01637676588641
 21
63.925542348040381
 31
0.0
  0
LINE
  5
94C2
  8
0
 10
165.01637676588641
 20
90.925542348040395
 30
0.0
 11
132.01637676588641
 21
90.925542348040395
 31
0.0
  0
LINE
  5
94C3
  8
0
 10
192.01637676588641
 20
63.925542348040381
 30
0.0
 11
105.01637676588641
 21
63.925542348040381
 31
0.0
  0
LINE
  5
94C4
  8
DEFPOINTS
 10
166.01637676588641
 20
89.925542348040352
 30
0.0
 11
166.01637676588641
 21
89.925542348040352
 31
0.0
  0
LINE
  5
94C5
  8
DEFPOINTS
 10
172.51637676588641
 20
87.186967693522206
 30
0.0
 11
172.51637676588641
 21
86.925542348040366
 31
0.0
  0
LINE
  5
94C6
  8
DEFPOINTS
 10
178.51637676588641
 20
84.204783127984214
 30
0.0
 11
178.51637676588641
 21
83.925542348040366
 31
0.0
  0
LINE
  5
94C7
  8
DEFPOINTS
 10
185.51637676588641
 20
81.17124093528605
 30
0.0
 11
185.51637676588641
 21
80.925542348040366
 31
0.0
  0
LINE
  5
94C8
  8
DEFPOINTS
 10
193.51637676588641
 20
78.14476594163591
 30
0.0
 11
193.51637676588641
 21
77.925542348040366
 31
0.0
  0
LINE
  5
94C9
  8
DEFPOINTS
 10
166.01637676588641
 20
89.925542348040352
 30
0.0
 11
171.81046261472389
 21
88.142746702244153
 31
0.0
  0
LINE
  5
94CA
  8
DEFPOINTS
 10
172.51637676588641
 20
86.925542348040366
 30
0.0
 11
177.83260453190309
 21
85.153466426034683
 31
0.0
  0
LINE
  5
94CB
  8
DEFPOINTS
 10
178.51637676588641
 20
83.925542348040366
 30
0.0
 11
184.7910978937839
 21
82.132764882926722
 31
0.0
  0
LINE
  5
94CC
  8
DEFPOINTS
 10
185.51637676588641
 20
80.925542348040366
 30
0.0
 11
192.75891239092289
 21
79.114908441781267
 31
0.0
  0
ARC
  5
94CD
  8
DEFPOINTS
 10
192.51637676588641
 20
78.14476594163591
 30
0.0
 40
1.0
 50
0.0
 51
75.963756532073333
  0
ARC
  5
94CE
  8
DEFPOINTS
 10
184.51637676588641
 20
81.17124093528605
 30
0.0
 40
1.0
 50
0.0
 51
74.054604099077153
  0
ARC
  5
94CF
  8
DEFPOINTS
 10
177.51637676588641
 20
84.204783127984214
 30
0.0
 40
1.0
 50
0.0
 51
71.565051177077734
  0
ARC
  5
94D0
  8
DEFPOINTS
 10
171.51637676588641
 20
87.186967693522206
 30
0.0
 40
1.0
 50
0.0
 51
72.897271030947451
  0
ARC
  5
94D1
  8
DEFPOINTS
 10
165.01637676588641
 20
89.925542348040352
 30
0.0
 40
1.0
 50
0.0
 51
89.999999999999986
  0
LINE
  5
94D2
  8
DEFPOINTS
 10
193.51637676588641
 20
77.925542348040366
 30
0.0
 11
197.71249290102469
 21
77.086319121012707
 31
0.0
  0
ARC
  5
94D3
  8
DEFPOINTS
 10
197.51637676588641
 20
76.105738445321776
 30
0.0
 40
1.0
 50
359.99999999999972
 51
78.690067525979913
  0
ARC
  5
94D4
  8
DEFPOINTS
 10
99.516376765886434
 20
76.105738445321776
 30
0.0
 40
1.0
 50
101.3099324740201
 51
180.00000000000031
  0
LINE
  5
94D5
  8
DEFPOINTS
 10
103.51637676588641
 20
77.925542348040366
 30
0.0
 11
99.320260630748194
 21
77.086319121012707
 31
0.0
  0
ARC
  5
94D6
  8
DEFPOINTS
 10
132.01637676588641
 20
89.925542348040352
 30
0.0
 40
1.0
 50
90.000000000000057
 51
180.0
  0
ARC
  5
94D7
  8
DEFPOINTS
 10
125.51637676588641
 20
87.186967693522206
 30
0.0
 40
1.0
 50
107.10272896905251
 51
180.0
  0
ARC
  5
94D8
  8
DEFPOINTS
 10
119.51637676588641
 20
84.204783127984214
 30
0.0
 40
1.0
 50
108.43494882292219
 51
180.0
  0
ARC
  5
94D9
  8
DEFPOINTS
 10
112.51637676588641
 20
81.17124093528605
 30
0.0
 40
1.0
 50
105.9453959009228
 51
180.0
  0
ARC
  5
94DA
  8
DEFPOINTS
 10
104.51637676588641
 20
78.14476594163591
 30
0.0
 40
1.0
 50
104.0362434679266
 51
180.0
  0
LINE
  5
94DB
  8
DEFPOINTS
 10
111.51637676588641
 20
80.925542348040366
 30
0.0
 11
104.27384114085
 21
79.114908441781267
 31
0.0
  0
LINE
  5
94DC
  8
DEFPOINTS
 10
118.51637676588641
 20
83.925542348040366
 30
0.0
 11
112.241655637989
 21
82.132764882926722
 31
0.0
  0
LINE
  5
94DD
  8
DEFPOINTS
 10
124.51637676588641
 20
86.925542348040366
 30
0.0
 11
119.2001489998697
 21
85.153466426034683
 31
0.0
  0
LINE
  5
94DE
  8
DEFPOINTS
 10
131.01637676588641
 20
89.925542348040352
 30
0.0
 11
125.22229091704889
 21
88.142746702244153
 31
0.0
  0
LINE
  5
94DF
  8
DEFPOINTS
 10
103.51637676588641
 20
78.14476594163591
 30
0.0
 11
103.51637676588641
 21
77.925542348040366
 31
0.0
  0
LINE
  5
94E0
  8
DEFPOINTS
 10
111.51637676588641
 20
81.17124093528605
 30
0.0
 11
111.51637676588641
 21
80.925542348040366
 31
0.0
  0
LINE
  5
94E1
  8
DEFPOINTS
 10
118.51637676588641
 20
84.204783127984214
 30
0.0
 11
118.51637676588641
 21
83.925542348040366
 31
0.0
  0
LINE
  5
94E2
  8
DEFPOINTS
 10
124.51637676588641
 20
87.186967693522206
 30
0.0
 11
124.51637676588641
 21
86.925542348040366
 31
0.0
  0
LINE
  5
94E3
  8
DEFPOINTS
 10
131.01637676588641
 20
89.925542348040352
 30
0.0
 11
131.01637676588641
 21
89.925542348040352
 31
0.0
  0
LINE
  5
94E4
  8
0
 10
105.01637676588641
 20
66.925542348040381
 30
0.0
 11
105.01637676588641
 21
63.925542348040381
 31
0.0
  0
LINE
  5
94E5
  8
0
 10
98.516376765886434
 20
66.925542348040381
 30
0.0
 11
98.516376765886434
 21
76.105738445321776
 31
0.0
  0
LINE
  5
94E6
  8
DEFPOINTS
 10
103.51637676588641
 20
77.925542348040366
 30
0.0
 11
193.51637676588641
 21
77.925542348040366
 31
0.0
  0
LINE
  5
94E7
  8
DEFPOINTS
 10
111.51637676588641
 20
80.925542348040366
 30
0.0
 11
185.51637676588641
 21
80.925542348040366
 31
0.0
  0
LINE
  5
94E8
  8
DEFPOINTS
 10
118.51637676588641
 20
83.925542348040366
 30
0.0
 11
178.51637676588641
 21
83.925542348040366
 31
0.0
  0
LINE
  5
94E9
  8
DEFPOINTS
 10
172.51637676588641
 20
86.925542348040366
 30
0.0
 11
124.51637676588641
 21
86.925542348040366
 31
0.0
  0
LINE
  5
94EA
  8
DEFPOINTS
 10
131.01637676588641
 20
89.925542348040352
 30
0.0
 11
166.01637676588641
 21
89.925542348040352
 31
0.0
  0
CIRCLE
  5
94EB
  8
DEFPOINTS
 10
148.51637676588641
 20
412.30960306181743
 30
0.0
 40
50.0
  0
CIRCLE
  5
94EC
  8
DEFPOINTS
 10
148.51637676588641
 20
412.30960306181743
 30
0.0
 40
45.0
  0
CIRCLE
  5
94ED
  8
DEFPOINTS
 10
148.51637676588641
 20
412.30960306181743
 30
0.0
 40
37.0
  0
CIRCLE
  5
94EE
  8
DEFPOINTS
 10
148.51637676588641
 20
412.30960306181743
 30
0.0
 40
30.0
  0
CIRCLE
  5
94EF
  8
DEFPOINTS
 10
148.51637676588641
 20
412.30960306181743
 30
0.0
 40
23.999999999999989
  0
LINE
  5
94F0
  8
0
 10
157.01637676588641
 20
99.925542348002409
 30
0.0
 11
157.01637676588641
 21
93.425542347988284
 31
0.0
  0
LINE
  5
94F1
  8
0
 10
140.01637676588641
 20
99.925542348002409
 30
0.0
 11
140.01637676588641
 21
93.425542348016492
 31
0.0
  0
LINE
  5
94F2
  8
1
 10
148.51637676588641
 20
472.3096030618172
 30
0.0
 11
148.51637676588641
 21
352.30960306181748
 31
0.0
  0
LINE
  5
94F3
  8
1
 10
208.51637676588649
 20
412.30960306181743
 30
0.0
 11
88.516376765886434
 21
412.30960306181743
 31
0.0
  0
TEXT
  5
9920
  8
0
 62
     3
 10
0.0
 20
0.0
 30
0.0
 40
10.0
  1
LVAR100L24C-SUS
  7
STANDARD1
  0
ENDSEC
  0
EOF
