  0
SECTION
  2
HEADER
  9
$ACADVER
  1
AC1009
  9
$INSBASE
 10
0.0
 20
0.0
 30
0.0
  9
$EXTMIN
 10
0.0
 20
-2.960436562073669
 30
0.0
  9
$EXTMAX
 10
454.1337624397384
 20
486.26482255475457
 30
0.0
  9
$LIMMIN
 10
0.0
 20
0.0
  9
$LIMMAX
 10
375.0
 20
270.0
  9
$ORTHOMODE
 70
     1
  9
$REGENMODE
 70
     1
  9
$FILLMODE
 70
     1
  9
$QTEXTMODE
 70
     0
  9
$MIRRTEXT
 70
     0
  9
$DRAGMODE
 70
     2
  9
$LTSCALE
 40
6.0
  9
$OSMODE
 70
  3071
  9
$ATTMODE
 70
     1
  9
$TEXTSIZE
 40
0.2
  9
$TRACEWID
 40
0.05
  9
$TEXTSTYLE
  7
STANDARD
  9
$CLAYER
  8
0
  9
$CELTYPE
  6
BYLAYER
  9
$CECOLOR
 62
   256
  9
$DIMSCALE
 40
1.0
  9
$DIMASZ
 40
3.0
  9
$DIMEXO
 40
1.0
  9
$DIMDLI
 40
6.0
  9
$DIMRND
 40
0.0
  9
$DIMDLE
 40
0.0
  9
$DIMEXE
 40
1.0
  9
$DIMTP
 40
495.0
  9
$DIMTM
 40
0.0
  9
$DIMTXT
 40
3.0
  9
$DIMCEN
 40
0.0
  9
$DIMTSZ
 40
0.0
  9
$DIMTOL
 70
     0
  9
$DIMLIM
 70
     0
  9
$DIMTIH
 70
     0
  9
$DIMTOH
 70
     0
  9
$DIMSE1
 70
     0
  9
$DIMSE2
 70
     0
  9
$DIMTAD
 70
     1
  9
$DIMZIN
 70
     0
  9
$DIMBLK
  1

  9
$DIMASO
 70
     0
  9
$DIMSHO
 70
     0
  9
$DIMPOST
  1

  9
$DIMAPOST
  1

  9
$DIMALT
 70
     0
  9
$DIMALTD
 70
     2
  9
$DIMALTF
 40
25.399999999999999
  9
$DIMLFAC
 40
1.0
  9
$DIMTOFL
 70
     1
  9
$DIMTVP
 40
0.0
  9
$DIMTIX
 70
     1
  9
$DIMSOXD
 70
     0
  9
$DIMSAH
 70
     0
  9
$DIMBLK1
  1

  9
$DIMBLK2
  1

  9
$DIMSTYLE
  2
STANDARD
  9
$DIMCLRD
 70
     0
  9
$DIMCLRE
 70
     0
  9
$DIMCLRT
 70
     4
  9
$DIMTFAC
 40
1.0
  9
$DIMGAP
 40
1.0
  9
$LUNITS
 70
     2
  9
$LUPREC
 70
     4
  9
$SKETCHINC
 40
0.1
  9
$FILLETRAD
 40
2.0
  9
$AUNITS
 70
     0
  9
$AUPREC
 70
     0
  9
$MENU
  1
C:\R13\WIN\SUPPORT\ACAD-I
  9
$ELEVATION
 40
0.0
  9
$PELEVATION
 40
0.0
  9
$THICKNESS
 40
0.0
  9
$LIMCHECK
 70
     0
  9
$BLIPMODE
 70
     0
  9
$CHAMFERA
 40
0.0
  9
$CHAMFERB
 40
0.0
  9
$SKPOLY
 70
     0
  9
$TDCREATE
 40
2451963.4632901731
  9
$TDUPDATE
 40
2456597.613733843
  9
$TDINDWG
 40
0.0227820718
  9
$TDUSRTIMER
 40
2456555.2731380439
  9
$USRTIMER
 70
     1
  9
$ANGBASE
 50
0.0
  9
$ANGDIR
 70
     0
  9
$PDMODE
 70
     0
  9
$PDSIZE
 40
0.0
  9
$PLINEWID
 40
0.0
  9
$COORDS
 70
     1
  9
$SPLFRAME
 70
     0
  9
$SPLINETYPE
 70
     6
  9
$SPLINESEGS
 70
     8
  9
$ATTDIA
 70
     0
  9
$ATTREQ
 70
     1
  9
$HANDLING
 70
     1
  9
$HANDSEED
  5
AB89
  9
$SURFTAB1
 70
     6
  9
$SURFTAB2
 70
     6
  9
$SURFTYPE
 70
     6
  9
$SURFU
 70
     6
  9
$SURFV
 70
     6
  9
$UCSNAME
  2

  9
$UCSORG
 10
0.0
 20
0.0
 30
0.0
  9
$UCSXDIR
 10
1.0
 20
0.0
 30
0.0
  9
$UCSYDIR
 10
0.0
 20
1.0
 30
0.0
  9
$PUCSNAME
  2

  9
$PUCSORG
 10
0.0
 20
0.0
 30
0.0
  9
$PUCSXDIR
 10
1.0
 20
0.0
 30
0.0
  9
$PUCSYDIR
 10
0.0
 20
1.0
 30
0.0
  9
$USERI1
 70
     4
  9
$USERI2
 70
     1
  9
$USERI3
 70
     0
  9
$USERI4
 70
     0
  9
$USERI5
 70
     0
  9
$USERR1
 40
1.0
  9
$USERR2
 40
3.0
  9
$USERR3
 40
3.0
  9
$USERR4
 40
3.0
  9
$USERR5
 40
10.0
  9
$WORLDVIEW
 70
     1
  9
$SHADEDGE
 70
     3
  9
$SHADEDIF
 70
    70
  9
$TILEMODE
 70
     1
  9
$MAXACTVP
 70
    16
  9
$PLIMCHECK
 70
     0
  9
$PEXTMIN
 10
1.0000000000000000E+020
 20
1.0000000000000000E+020
 30
1.0000000000000000E+020
  9
$PEXTMAX
 10
-1.0000000000000000E+020
 20
-1.0000000000000000E+020
 30
-1.0000000000000000E+020
  9
$PLIMMIN
 10
0.0
 20
0.0
  9
$PLIMMAX
 10
12.0
 20
9.0
  9
$UNITMODE
 70
     0
  9
$VISRETAIN
 70
     0
  9
$PLINEGEN
 70
     0
  9
$PSLTSCALE
 70
     0
  0
ENDSEC
  0
SECTION
  2
TABLES
  0
TABLE
  2
VPORT
 70
     1
  0
VPORT
  2
*ACTIVE
 70
     0
 10
0.0
 20
0.0
 11
1.0
 21
1.0
 12
227.0668822772318
 22
242.70760791857671
 13
0.0
 23
0.0
 14
10.0
 24
10.0
 15
10.0
 25
10.0
 16
0.0
 26
0.0
 36
1.0
 17
0.0
 27
0.0
 37
0.0
 40
497.00444876847422
 41
2.304913294797688
 42
50.0
 43
0.0
 44
0.0
 50
0.0
 51
0.0
 71
    16
 72
   100
 73
     1
 74
     0
 75
     0
 76
     0
 77
     0
 78
     0
  0
ENDTAB
  0
TABLE
  2
LTYPE
 70
     3
  0
LTYPE
  2
CONTINUOUS
 70
     0
  3
Solid Line
 72
    65
 73
     0
 40
0.0
  0
LTYPE
  2
PHANTOM2
 70
     0
  3
___ _ _ ___ _ _ ___ _ _ ___ _ _
 72
    65
 73
     6
 40
1.25
 49
0.625
 49
-0.125
 49
0.125
 49
-0.125
 49
0.125
 49
-0.125
  0
LTYPE
  2
CENTER
 70
     0
  3
____ _ ____ _ ____ _ ____ _ ____ _ ____ _ ____
 72
    65
 73
     4
 40
2.0
 49
1.25
 49
-0.25
 49
0.25
 49
-0.25
  0
ENDTAB
  0
TABLE
  2
LAYER
 70
     4
  0
LAYER
  2
0
 70
     0
 62
     7
  6
CONTINUOUS
  0
LAYER
  2
1
 70
     0
 62
     1
  6
CENTER
  0
LAYER
  2
3
 70
     0
 62
     3
  6
CONTINUOUS
  0
LAYER
  2
DEFPOINTS
 70
     0
 62
     7
  6
CONTINUOUS
  0
ENDTAB
  0
TABLE
  2
STYLE
 70
     3
  0
STYLE
  2
STANDARD
 70
     0
 40
0.0
 41
1.0
 50
0.0
 71
     0
 42
0.2
  3
SIMPLEX
  4
BIGFONT
  0
STYLE
  2
ANNOTATIVE
 70
     0
 40
0.0
 41
1.0
 50
0.0
 71
     0
 42
0.2
  3
txt
  4

  0
STYLE
  2
STANDARD1
 70
     0
 40
0.0
 41
1.0
 50
0.0
 71
     0
 42
3.0
  3
txt
  4

  0
ENDTAB
  0
TABLE
  2
VIEW
 70
     0
  0
ENDTAB
  0
TABLE
  2
UCS
 70
     0
  0
ENDTAB
  0
TABLE
  2
APPID
 70
    29
  0
APPID
  2
ACAD
 70
     0
  0
APPID
  2
ACADANNOTATIVE
 70
     0
  0
APPID
  2
GENIUS_GENOREF_13
 70
     0
  0
APPID
  2
GENIUS_GENOENT_13
 70
     0
  0
APPID
  2
GENIUS_GENBH_13
 70
     0
  0
APPID
  2
GENIUS_GENOBJ_13
 70
     0
  0
APPID
  2
GENIUS_GENODEF_13
 70
     0
  0
APPID
  2
GENIUS_GENOLIS_13
 70
     0
  0
APPID
  2
GENIUS_GENOBJ-NBEHI-BHF_13
 70
     0
  0
APPID
  2
GENIUS_GENOBJ-NBEHI-BHB_13
 70
     0
  0
APPID
  2
GENIUS_GENOBJ-F-PART_13
 70
     0
  0
APPID
  2
GENIUS_GEFSTDP_13
 70
     0
  0
APPID
  2
GENIUS_GENOBJ-N-RSSYM_13
 70
     0
  0
APPID
  2
GENIUS_GENSYMENT_13
 70
     0
  0
APPID
  2
GENIUS_GENOBJ-N-TIT_13
 70
     0
  0
APPID
  2
GENIUS_GENTITLE_13
 70
     0
  0
APPID
  2
GENIUS_GENZVEED_13
 70
     0
  0
APPID
  2
GENIUS_GENOBJ-N-LEADER_13
 70
     0
  0
APPID
  2
GENIUS_GENOBJ-N-FIL_13
 70
     0
  0
APPID
  2
GENIUS_GENOBJ-N-SEC_13
 70
     0
  0
APPID
  2
GENIUS_GENOBJ-N-CRS_13
 70
     0
  0
APPID
  2
GENIUS_GENOBJ-N-ZOO_13
 70
     0
  0
APPID
  2
GENIUS_GENZOO_13
 70
     0
  0
APPID
  2
GENIUS_GENOBJ-F-TOL_13
 70
     0
  0
APPID
  2
GENIUS_GENFIL_13
 70
     0
  0
APPID
  2
GENIUS_GENOBJ-N-CHA_13
 70
     0
  0
APPID
  2
ACAD_EXEMPT_FROM_CAD_STANDARDS
 70
     0
  0
APPID
  2
ACAD_MLEADERVER
 70
     0
  0
APPID
  2
ACAD_NAV_VCDISPLAY
 70
     0
  0
ENDTAB
  0
TABLE
  2
DIMSTYLE
 70
     2
  0
DIMSTYLE
  2
STANDARD
 70
     0
  3

  4

  5

  6

  7

 40
1.0
 41
0.18
 42
0.0625
 43
0.38
 44
0.18
 45
0.0
 46
0.0
 47
0.0
 48
0.0
140
0.18
141
0.09
142
0.0
143
25.399999999999999
144
1.0
145
0.0
146
1.0
147
0.09
 71
     0
 72
     0
 73
     1
 74
     1
 75
     0
 76
     0
 77
     0
 78
     0
170
     0
171
     2
172
     0
173
     0
174
     0
175
     0
176
     0
177
     0
178
     0
  0
DIMSTYLE
  2
ANNOTATIVE
 70
     0
  3

  4

  5

  6

  7

 40
1.0
 41
0.18
 42
0.0625
 43
0.38
 44
0.18
 45
0.0
 46
0.0
 47
0.0
 48
0.0
140
0.18
141
0.09
142
0.0
143
25.399999999999999
144
1.0
145
0.0
146
1.0
147
0.09
 71
     0
 72
     0
 73
     1
 74
     1
 75
     0
 76
     0
 77
     0
 78
     0
170
     0
171
     2
172
     0
173
     0
174
     0
175
     0
176
     0
177
     0
178
     0
  0
ENDTAB
  0
ENDSEC
  0
SECTION
  2
BLOCKS
  0
BLOCK
  8
0
  2
$MODEL_SPACE
 70
     0
 10
0.0
 20
0.0
 30
0.0
  3
$MODEL_SPACE
  1

  0
ENDBLK
  5
AAAB
  8
0
  0
BLOCK
 67
     1
  8
0
  2
$PAPER_SPACE
 70
     0
 10
0.0
 20
0.0
 30
0.0
  3
$PAPER_SPACE
  1

  0
ENDBLK
  5
AAA7
 67
     1
  8
0
  0
ENDSEC
  0
SECTION
  2
ENTITIES
  0
LINE
  5
A6DB
  8
0
 10
284.16379562297971
 20
94.744815800429137
 30
0.0
 11
159.1637956229799
 21
94.744815800429208
 31
0.0
  0
LINE
  5
A6DC
  8
0
 10
284.16379562297971
 20
94.744815800429137
 30
0.0
 11
284.16379562297988
 21
110.8640218894742
 31
0.0
  0
LINE
  5
A6DD
  8
0
 10
276.66379562297971
 20
94.744815800429137
 30
0.0
 11
276.66379562297971
 21
91.744815800429123
 31
0.0
  0
LINE
  5
A6DF
  8
0
 10
242.6637956229799
 20
140.74481580042911
 30
0.0
 11
200.6637956229799
 21
140.74481580042919
 31
0.0
  0
LINE
  5
A6E0
  8
DEFPOINTS
 10
242.6637956229799
 20
140.74481580042911
 30
0.0
 11
256.66379562297971
 21
118.74481580042909
 31
0.0
  0
LINE
  5
A6E1
  8
DEFPOINTS
 10
256.66379562297971
 20
118.74481580042909
 30
0.0
 11
262.4104749036145
 21
117.28202471081291
 31
0.0
  0
LINE
  5
A6E2
  8
DEFPOINTS
 10
277.16379562297971
 20
112.6357248913382
 30
0.0
 11
277.16379562297971
 21
112.6458400712925
 31
0.0
  0
LINE
  5
A6E3
  8
DEFPOINTS
 10
270.16379562297971
 20
114.41754307315639
 30
0.0
 11
270.16379562297971
 21
114.42765825311059
 31
0.0
  0
LINE
  5
A6E4
  8
DEFPOINTS
 10
263.16379562297971
 20
116.1993612549746
 30
0.0
 11
263.16379562297971
 21
116.31292753689
 31
0.0
  0
LINE
  5
A6E5
  8
DEFPOINTS
 10
283.29004990265389
 20
111.8560198011979
 30
0.0
 11
277.16379562297971
 21
112.6357248913382
 31
0.0
  0
LINE
  5
A6E6
  8
DEFPOINTS
 10
276.29004990265372
 20
113.637837983016
 30
0.0
 11
270.16379562297971
 21
114.41754307315639
 31
0.0
  0
LINE
  5
A6E7
  8
DEFPOINTS
 10
269.29004990265372
 20
115.41965616483429
 30
0.0
 11
263.16379562297971
 21
116.1993612549746
 31
0.0
  0
ARC
  5
A6E8
  8
DEFPOINTS
 10
262.16379562297971
 20
116.31292753689
 30
0.0
 40
1.0
 50
0.0
 51
75.718904264028865
  0
ARC
  5
A6E9
  8
DEFPOINTS
 10
269.16379562297971
 20
114.42765825311059
 30
0.0
 40
1.0
 50
0.0
 51
82.746805387274634
  0
ARC
  5
A6EA
  8
DEFPOINTS
 10
276.16379562297971
 20
112.6458400712925
 30
0.0
 40
1.0
 50
0.0000000000016284
 51
82.746805387274634
  0
ARC
  5
A6EB
  8
DEFPOINTS
 10
283.16379562297988
 20
110.8640218894742
 30
0.0
 40
1.0
 50
359.9999999999996
 51
82.746805387274634
  0
LINE
  5
A6EC
  8
DEFPOINTS
 10
277.16379562297971
 20
112.6357248913382
 30
0.0
 11
166.16379562298081
 21
112.6357248913383
 31
0.0
  0
LINE
  5
A6ED
  8
DEFPOINTS
 10
270.16379562297971
 20
114.41754307315639
 30
0.0
 11
173.1637956229807
 21
114.41754307315649
 31
0.0
  0
LINE
  5
A6EE
  8
DEFPOINTS
 10
263.16379562297971
 20
116.1993612549746
 30
0.0
 11
180.16379562298059
 21
116.1993612549747
 31
0.0
  0
LINE
  5
A6EF
  8
DEFPOINTS
 10
256.66379562297971
 20
118.74481580042909
 30
0.0
 11
186.66379562297999
 21
118.74481580042919
 31
0.0
  0
ARC
  5
A6F0
  8
DEFPOINTS
 10
160.16379562297979
 20
110.8640218894742
 30
0.0
 40
1.0
 50
97.253194612725309
 51
180.0000000000004
  0
ARC
  5
A6F1
  8
DEFPOINTS
 10
167.1637956229799
 20
112.6458400712925
 30
0.0
 40
1.0
 50
97.253194612725309
 51
179.9999999999979
  0
ARC
  5
A6F2
  8
DEFPOINTS
 10
174.1637956229799
 20
114.42765825311059
 30
0.0
 40
1.0
 50
97.253194612725309
 51
180.0
  0
ARC
  5
A6F3
  8
DEFPOINTS
 10
181.16379562297979
 20
116.31292753689
 30
0.0
 40
1.0
 50
104.28109573597111
 51
180.0
  0
LINE
  5
A6F4
  8
DEFPOINTS
 10
174.037541343306
 20
115.41965616483429
 30
0.0
 11
180.1637956229799
 21
116.1993612549746
 31
0.0
  0
LINE
  5
A6F5
  8
DEFPOINTS
 10
167.0375413433058
 20
113.637837983016
 30
0.0
 11
173.16379562297979
 21
114.41754307315639
 31
0.0
  0
LINE
  5
A6F6
  8
DEFPOINTS
 10
160.0375413433058
 20
111.8560198011979
 30
0.0
 11
166.1637956229799
 21
112.6357248913382
 31
0.0
  0
LINE
  5
A6F7
  8
DEFPOINTS
 10
180.1637956229799
 20
116.1993612549746
 30
0.0
 11
180.1637956229799
 21
116.31292753689
 31
0.0
  0
LINE
  5
A6F8
  8
DEFPOINTS
 10
173.16379562297979
 20
114.41754307315639
 30
0.0
 11
173.16379562297979
 21
114.42765825311059
 31
0.0
  0
LINE
  5
A6F9
  8
DEFPOINTS
 10
166.1637956229799
 20
112.6357248913382
 30
0.0
 11
166.1637956229799
 21
112.6458400712925
 31
0.0
  0
LINE
  5
A6FA
  8
DEFPOINTS
 10
186.6637956229799
 20
118.74481580042909
 30
0.0
 11
180.917116342345
 21
117.28202471081291
 31
0.0
  0
LINE
  5
A6FB
  8
DEFPOINTS
 10
200.6637956229799
 20
140.74481580042911
 30
0.0
 11
186.6637956229799
 21
118.74481580042909
 31
0.0
  0
LINE
  5
A6FC
  8
0
 10
166.6637956229799
 20
94.744815800429137
 30
0.0
 11
166.6637956229799
 21
91.744815800429123
 31
0.0
  0
LINE
  5
A6FD
  8
0
 10
159.1637956229799
 20
94.744815800429137
 30
0.0
 11
159.16379562297979
 21
110.8640218894742
 31
0.0
  0
LINE
  5
A6FE
  8
3
 10
213.01679562298
 20
203.74481580045219
 30
0.0
 11
213.01679562298
 21
298.59781580042932
 31
0.0
  0
LINE
  5
A6FF
  8
0
 10
211.6637956229799
 20
203.74481580045219
 30
0.0
 11
211.6637956229799
 21
297.24481580042931
 31
0.0
  0
LINE
  5
A700
  8
0
 10
231.6637956229799
 20
203.7448158004519
 30
0.0
 11
231.6637956229799
 21
297.24481580042908
 31
0.0
  0
LINE
  5
A701
  8
3
 10
230.3107956229799
 20
203.74481580045219
 30
0.0
 11
230.3107956229799
 21
298.59781580042909
 31
0.0
  0
LINE
  5
A702
  8
0
 10
207.1637956229801
 20
203.74481580045239
 30
0.0
 11
204.3432875472916
 21
202.11639470370201
 31
0.0
  0
ARC
  5
A703
  8
0
 10
208.67341456621401
 20
195.78867242058109
 30
0.0
 40
7.6674682452751766
 50
55.615752531994062
 51
115.6157525295408
  0
ARC
  5
A704
  8
0
 10
208.67341456621401
 20
195.78867242058109
 30
0.0
 40
7.6674682452751766
 50
124.3842474680059
 51
124.3842474680059
  0
ARC
  5
A705
  8
0
 10
221.6637956230536
 20
174.79588662846359
 30
0.0
 40
28.660254037392811
 50
72.412046225870625
 51
107.58795377443001
  0
ARC
  5
A706
  8
0
 10
208.67341456621401
 20
195.70095918032311
 30
0.0
 40
7.6674682452751766
 50
235.61575253199419
 51
235.61575253199419
  0
ARC
  5
A707
  8
0
 10
208.67341456621401
 20
195.70095918032311
 30
0.0
 40
7.6674682452751766
 50
244.3842474704592
 51
304.38424746800581
  0
LINE
  5
A708
  8
0
 10
207.1637956229801
 20
187.7448158004517
 30
0.0
 11
204.3432875472916
 21
189.3732368972021
 31
0.0
  0
LINE
  5
A709
  8
0
 10
204.34328754729179
 20
202.11639470370201
 30
0.0
 11
204.34328754700809
 21
189.3732368973657
 31
0.0
  0
LINE
  5
A70A
  8
0
 10
213.00354158513591
 20
189.37323689722561
 30
0.0
 11
213.0035415852899
 21
202.11639470370201
 31
0.0
  0
ARC
  5
A70B
  8
0
 10
221.6637956230536
 20
216.69374497244041
 30
0.0
 40
28.660254037392811
 50
252.41204622557001
 51
287.5879537741294
  0
LINE
  5
A70C
  8
0
 10
230.32404966082439
 20
189.37323689722561
 30
0.0
 11
230.3240496606704
 21
202.11639470370201
 31
0.0
  0
LINE
  5
A70D
  8
0
 10
238.98430369866861
 20
202.11639470370201
 30
0.0
 11
238.98430369895229
 21
189.3732368973657
 31
0.0
  0
LINE
  5
A70E
  8
0
 10
236.1637956229801
 20
187.7448158004517
 30
0.0
 11
238.98430369866881
 21
189.3732368972021
 31
0.0
  0
ARC
  5
A70F
  8
0
 10
234.65417667974631
 20
195.70095918032311
 30
0.0
 40
7.6674682452751766
 50
235.61575253199419
 51
295.61575252954083
  0
ARC
  5
A710
  8
0
 10
234.65417667974631
 20
195.70095918032311
 30
0.0
 40
7.6674682452751766
 50
304.38424746800581
 51
304.38424746800581
  0
ARC
  5
A711
  8
0
 10
234.65417667974631
 20
195.78867242058109
 30
0.0
 40
7.6674682452751766
 50
55.615752531994062
 51
55.615752531994062
  0
ARC
  5
A712
  8
0
 10
234.65417667974631
 20
195.78867242058109
 30
0.0
 40
7.6674682452751766
 50
64.384247470459201
 51
124.3842474680059
  0
LINE
  5
A713
  8
0
 10
236.1637956229801
 20
203.74481580045239
 30
0.0
 11
238.98430369866881
 21
202.11639470370201
 31
0.0
  0
LINE
  5
A714
  8
0
 10
207.1637956229801
 20
203.74481580045239
 30
0.0
 11
236.1637956229809
 21
203.7448158004519
 31
0.0
  0
LINE
  5
A715
  8
0
 10
236.16379562298059
 20
187.74481580045199
 30
0.0
 11
207.1637956229801
 21
187.7448158004517
 31
0.0
  0
ARC
  5
A716
  8
0
 10
221.66379562297701
 20
136.41508198162691
 30
0.0
 40
12.25
 50
133.87987710304779
 51
159.30166507346181
  0
LINE
  5
A717
  8
0
 10
230.1637956229799
 20
145.24481580037701
 30
0.0
 11
213.1637956229799
 21
145.24481580040521
 31
0.0
  0
LINE
  5
A718
  8
0
 10
230.1637956229799
 20
151.74481580039111
 30
0.0
 11
230.1637956229799
 21
145.24481580037701
 31
0.0
  0
LINE
  5
A719
  8
0
 10
213.1637956229799
 20
151.74481580039111
 30
0.0
 11
213.1637956229799
 21
145.24481580040541
 31
0.0
  0
LINE
  5
A71A
  8
0
 10
233.1637956230131
 20
151.74481580037181
 30
0.0
 11
210.16379562294671
 21
151.74481580041021
 31
0.0
  0
LINE
  5
A71B
  8
0
 10
210.16379562294671
 20
161.74481580041021
 30
0.0
 11
233.1637956230131
 21
161.74481580044849
 31
0.0
  0
ARC
  5
A71C
  8
0
 10
215.6637956230131
 20
144.1260136485119
 30
0.0
 40
17.330127017333279
 50
69.743841997635613
 51
110.2561580023644
  0
LINE
  5
A71D
  8
0
 10
209.66379562299809
 20
161.4561406658452
 30
0.0
 11
210.1637956230131
 21
161.74481580044849
 31
0.0
  0
LINE
  5
A71E
  8
0
 10
209.66379562299809
 20
152.03349093497519
 30
0.0
 11
210.1637956230131
 21
151.74481580037181
 31
0.0
  0
ARC
  5
A71F
  8
0
 10
215.6637956230131
 20
169.3636179523084
 30
0.0
 40
17.330127017333279
 50
249.7438419976356
 51
290.25615800236437
  0
LINE
  5
A720
  8
0
 10
209.66379562299809
 20
161.4561406658452
 30
0.0
 11
209.6637956230131
 21
152.03349093496641
 31
0.0
  0
LINE
  5
A721
  8
0
 10
221.6637956230131
 20
153.1052877048044
 30
0.0
 11
221.6637956230131
 21
160.38434389601599
 31
0.0
  0
LINE
  5
A722
  8
0
 10
233.66379562302811
 20
161.4561406658452
 30
0.0
 11
233.6637956230131
 21
152.03349093496641
 31
0.0
  0
ARC
  5
A723
  8
0
 10
227.6637956230131
 20
169.3636179523084
 30
0.0
 40
17.330127017333279
 50
249.7438419976356
 51
290.25615800236437
  0
LINE
  5
A724
  8
0
 10
233.66379562302811
 20
152.03349093497519
 30
0.0
 11
233.1637956230131
 21
151.74481580037181
 31
0.0
  0
LINE
  5
A725
  8
0
 10
233.66379562302811
 20
161.4561406658452
 30
0.0
 11
233.1637956230131
 21
161.74481580044849
 31
0.0
  0
ARC
  5
A726
  8
0
 10
227.6637956230131
 20
144.1260136485119
 30
0.0
 40
17.330127017333279
 50
69.743841997635613
 51
110.2561580023644
  0
LINE
  5
A727
  8
0
 10
214.16379562297999
 20
299.74481580042931
 30
0.0
 11
229.1637956229799
 21
299.74481580042908
 31
0.0
  0
LINE
  5
A728
  8
0
 10
231.6637956229799
 20
161.74481580042931
 30
0.0
 11
231.6637956229799
 21
187.7448158004517
 31
0.0
  0
LINE
  5
A729
  8
3
 10
230.3107956229799
 20
165.744815800434
 30
0.0
 11
230.3107956229799
 21
187.7448158004517
 31
0.0
  0
LINE
  5
A72A
  8
3
 10
213.01679562298
 20
165.744815800434
 30
0.0
 11
213.01679562298
 21
187.74481580045159
 31
0.0
  0
LINE
  5
A72B
  8
0
 10
211.6637956229799
 20
161.74481580042931
 30
0.0
 11
211.6637956229799
 21
187.7448158004517
 31
0.0
  0
LINE
  5
A72C
  8
0
 10
211.6637956229799
 20
297.24481580042931
 30
0.0
 11
214.16379562297999
 21
299.74481580042931
 31
0.0
  0
LINE
  5
A72D
  8
0
 10
229.1637956229799
 20
299.74481580042908
 30
0.0
 11
231.6637956229799
 21
297.24481580042908
 31
0.0
  0
LINE
  5
A72E
  8
0
 10
211.6637956229799
 20
297.24481580042931
 30
0.0
 11
231.6637956229799
 21
297.24481580042908
 31
0.0
  0
LINE
  5
A72F
  8
0
 10
231.6637956229799
 20
165.744815800434
 30
0.0
 11
211.6637956229799
 21
165.744815800434
 31
0.0
  0
LINE
  5
A730
  8
3
 10
213.01679562298
 20
165.744815800434
 30
0.0
 11
211.6637956229799
 21
163.40135105779311
 31
0.0
  0
LINE
  5
A731
  8
3
 10
230.3107956229799
 20
165.744815800434
 30
0.0
 11
231.6637956229799
 21
163.40135105779311
 31
0.0
  0
ARC
  5
A732
  8
0
 10
221.66379562297701
 20
136.41508198162691
 30
0.0
 40
12.25
 50
20.698334926538081
 51
46.120122896763171
  0
LINE
  5
A733
  8
0
 10
166.6637956229799
 20
91.744815800429123
 30
0.0
 11
276.66379562297971
 21
91.744815800429123
 31
0.0
  0
LINE
  5
A734
  8
1
 10
221.6637956229799
 20
81.744815800429123
 30
0.0
 11
221.6637956229799
 21
309.74481580042931
 31
0.0
  0
LINE
  5
A735
  8
1
 10
391.63376243973852
 20
81.744815800429123
 30
0.0
 11
391.63376243973852
 21
309.74481580042931
 31
0.0
  0
LINE
  5
A736
  8
0
 10
336.63376243973858
 20
91.744815800429123
 30
0.0
 11
446.63376243973818
 21
91.744815800429123
 31
0.0
  0
LINE
  5
A737
  8
0
 10
329.13376243973858
 20
94.744815800429137
 30
0.0
 11
329.13376243973818
 21
110.8640218894742
 31
0.0
  0
LINE
  5
A738
  8
0
 10
336.63376243973858
 20
94.744815800429137
 30
0.0
 11
336.63376243973858
 21
91.744815800429123
 31
0.0
  0
LINE
  5
A739
  8
DEFPOINTS
 10
370.63376243973852
 20
140.74481580042911
 30
0.0
 11
356.63376243973852
 21
118.74481580042909
 31
0.0
  0
LINE
  5
A73A
  8
DEFPOINTS
 10
356.63376243973852
 20
118.74481580042909
 30
0.0
 11
350.88708315910372
 21
117.28202471081291
 31
0.0
  0
LINE
  5
A73B
  8
DEFPOINTS
 10
336.13376243973858
 20
112.6357248913382
 30
0.0
 11
336.13376243973858
 21
112.6458400712925
 31
0.0
  0
LINE
  5
A73C
  8
DEFPOINTS
 10
343.13376243973858
 20
114.41754307315639
 30
0.0
 11
343.13376243973858
 21
114.42765825311059
 31
0.0
  0
LINE
  5
A73D
  8
DEFPOINTS
 10
350.13376243973852
 20
116.1993612549746
 30
0.0
 11
350.13376243973852
 21
116.31292753689
 31
0.0
  0
LINE
  5
A73E
  8
DEFPOINTS
 10
330.00750816006439
 20
111.8560198011979
 30
0.0
 11
336.13376243973858
 21
112.6357248913382
 31
0.0
  0
LINE
  5
A73F
  8
DEFPOINTS
 10
337.00750816006462
 20
113.637837983016
 30
0.0
 11
343.13376243973858
 21
114.41754307315639
 31
0.0
  0
LINE
  5
A740
  8
DEFPOINTS
 10
344.00750816006462
 20
115.41965616483429
 30
0.0
 11
350.13376243973852
 21
116.1993612549746
 31
0.0
  0
ARC
  5
A741
  8
DEFPOINTS
 10
351.13376243973852
 20
116.31292753689
 30
0.0
 40
1.0
 50
104.28109573597111
 51
180.0
  0
ARC
  5
A742
  8
DEFPOINTS
 10
344.13376243973852
 20
114.42765825311059
 30
0.0
 40
1.0
 50
97.253194612725309
 51
180.0
  0
ARC
  5
A743
  8
DEFPOINTS
 10
337.13376243973858
 20
112.6458400712925
 30
0.0
 40
1.0
 50
97.253194612725309
 51
179.9999999999979
  0
ARC
  5
A744
  8
DEFPOINTS
 10
330.1337624397384
 20
110.8640218894742
 30
0.0
 40
1.0
 50
97.253194612725309
 51
180.0000000000004
  0
LINE
  5
A745
  8
DEFPOINTS
 10
426.6337624397384
 20
118.74481580042909
 30
0.0
 11
356.63376243973892
 21
118.74481580042919
 31
0.0
  0
LINE
  5
A746
  8
DEFPOINTS
 10
433.1337624397384
 20
116.1993612549746
 30
0.0
 11
350.1337624397392
 21
116.1993612549747
 31
0.0
  0
LINE
  5
A747
  8
DEFPOINTS
 10
440.13376243973829
 20
114.41754307315639
 30
0.0
 11
343.1337624397392
 21
114.41754307315649
 31
0.0
  0
LINE
  5
A748
  8
DEFPOINTS
 10
447.13376243973818
 20
112.6357248913382
 30
0.0
 11
336.13376243973948
 21
112.6357248913383
 31
0.0
  0
ARC
  5
A749
  8
DEFPOINTS
 10
453.13376243973852
 20
110.8640218894742
 30
0.0
 40
1.0
 50
359.9999999999996
 51
82.746805387274634
  0
ARC
  5
A74A
  8
DEFPOINTS
 10
446.1337624397384
 20
112.6458400712925
 30
0.0
 40
1.0
 50
0.0000000000016284
 51
82.746805387274634
  0
ARC
  5
A74B
  8
DEFPOINTS
 10
439.13376243973852
 20
114.42765825311059
 30
0.0
 40
1.0
 50
0.0
 51
82.746805387274634
  0
ARC
  5
A74C
  8
DEFPOINTS
 10
432.13376243973829
 20
116.31292753689
 30
0.0
 40
1.0
 50
0.0
 51
75.718904264028865
  0
LINE
  5
A74D
  8
DEFPOINTS
 10
439.26001671941231
 20
115.41965616483429
 30
0.0
 11
433.1337624397384
 21
116.1993612549746
 31
0.0
  0
LINE
  5
A74E
  8
DEFPOINTS
 10
446.26001671941231
 20
113.637837983016
 30
0.0
 11
440.13376243973829
 21
114.41754307315639
 31
0.0
  0
LINE
  5
A74F
  8
DEFPOINTS
 10
453.26001671941248
 20
111.8560198011979
 30
0.0
 11
447.13376243973818
 21
112.6357248913382
 31
0.0
  0
LINE
  5
A750
  8
DEFPOINTS
 10
433.1337624397384
 20
116.1993612549746
 30
0.0
 11
433.1337624397384
 21
116.31292753689
 31
0.0
  0
LINE
  5
A751
  8
DEFPOINTS
 10
440.13376243973852
 20
114.41754307315639
 30
0.0
 11
440.13376243973852
 21
114.42765825311059
 31
0.0
  0
LINE
  5
A752
  8
DEFPOINTS
 10
447.13376243973818
 20
112.6357248913382
 30
0.0
 11
447.1337624397384
 21
112.6458400712925
 31
0.0
  0
LINE
  5
A753
  8
DEFPOINTS
 10
426.6337624397384
 20
118.74481580042909
 30
0.0
 11
432.38044172037308
 21
117.28202471081291
 31
0.0
  0
LINE
  5
A754
  8
DEFPOINTS
 10
412.6337624397384
 20
140.74481580042911
 30
0.0
 11
426.6337624397384
 21
118.74481580042909
 31
0.0
  0
LINE
  5
A755
  8
0
 10
412.6337624397384
 20
140.74481580042911
 30
0.0
 11
370.63376243973852
 21
140.74481580042919
 31
0.0
  0
LINE
  5
A756
  8
0
 10
446.63376243973818
 20
94.744815800429137
 30
0.0
 11
446.63376243973818
 21
91.744815800429123
 31
0.0
  0
LINE
  5
A757
  8
0
 10
454.13376243973829
 20
94.744815800429137
 30
0.0
 11
454.1337624397384
 21
110.8640218894742
 31
0.0
  0
LINE
  5
A758
  8
0
 10
454.13376243973829
 20
94.744815800429137
 30
0.0
 11
329.13376243973858
 21
94.744815800429208
 31
0.0
  0
LINE
  5
A759
  8
0
 10
403.13376243968452
 20
151.74481580051039
 30
0.0
 11
380.13376243990018
 21
151.74481580051039
 31
0.0
  0
LINE
  5
A75A
  8
0
 10
380.13376243979252
 20
161.74481580051031
 30
0.0
 11
403.13376243968452
 21
161.74481580051031
 31
0.0
  0
ARC
  5
A75B
  8
0
 10
402.02606728520578
 20
155.32216607022471
 30
0.0
 40
6.1339745957208196
 50
64.384247469845079
 51
124.38424747120639
  0
LINE
  5
A75C
  8
0
 10
405.49016890036552
 20
160.38434389611609
 30
0.0
 11
403.13376243968452
 21
161.74481580051031
 31
0.0
  0
LINE
  5
A75D
  8
0
 10
405.49016890036552
 20
153.10528770490461
 30
0.0
 11
403.13376243968452
 21
151.74481580051039
 31
0.0
  0
ARC
  5
A75E
  8
0
 10
402.02606728520578
 20
158.16746553079599
 30
0.0
 40
6.1339745957208196
 50
235.61575252879359
 51
295.61575253015491
  0
LINE
  5
A75F
  8
0
 10
405.49016890034358
 20
160.38434389611609
 30
0.0
 11
405.49016890034358
 21
153.10528770489179
 31
0.0
  0
LINE
  5
A760
  8
0
 10
398.56196567006782
 20
160.38434389611609
 30
0.0
 11
398.56196567006782
 21
153.10528770490461
 31
0.0
  0
LINE
  5
A761
  8
0
 10
384.70555920951722
 20
160.38434389611609
 30
0.0
 11
384.70555920951722
 21
153.10528770490461
 31
0.0
  0
LINE
  5
A762
  8
0
 10
377.77735597924118
 20
160.38434389611609
 30
0.0
 11
377.77735597924118
 21
153.10528770489179
 31
0.0
  0
ARC
  5
A763
  8
0
 10
391.63376243979252
 20
174.96169416321459
 30
0.0
 40
22.928203228139491
 50
252.41204622431439
 51
287.58795377568561
  0
ARC
  5
A764
  8
0
 10
381.24145759437903
 20
158.16746553079599
 30
0.0
 40
6.1339745957208196
 50
244.38424746984509
 51
304.38424747120638
  0
LINE
  5
A765
  8
0
 10
377.77735597921952
 20
153.10528770490461
 30
0.0
 11
380.13376243990018
 21
151.74481580051039
 31
0.0
  0
LINE
  5
A766
  8
0
 10
377.77735597921952
 20
160.38434389611609
 30
0.0
 11
380.13376243990018
 21
161.74481580051031
 31
0.0
  0
ARC
  5
A767
  8
0
 10
381.24145759437903
 20
155.32216607022471
 30
0.0
 40
6.1339745957208196
 50
55.615752528793557
 51
115.61575253015489
  0
ARC
  5
A768
  8
0
 10
391.63376243979252
 20
138.527937437806
 30
0.0
 40
22.928203228139491
 50
72.412046224314381
 51
107.58795377568561
  0
LINE
  5
A769
  8
3
 10
400.2807624397384
 20
165.74481580043391
 30
0.0
 11
401.6337624397384
 21
163.40135105779299
 31
0.0
  0
LINE
  5
A76A
  8
3
 10
382.98676243973853
 20
165.74481580043391
 30
0.0
 11
381.63376243973852
 21
163.40135105779299
 31
0.0
  0
LINE
  5
A76B
  8
0
 10
401.6337624397384
 20
165.74481580043391
 30
0.0
 11
381.63376243973852
 21
165.74481580043391
 31
0.0
  0
LINE
  5
A76C
  8
0
 10
381.63376243973852
 20
297.24481580042931
 30
0.0
 11
401.6337624397384
 21
297.24481580042908
 31
0.0
  0
LINE
  5
A76D
  8
0
 10
399.13376243973852
 20
299.74481580042908
 30
0.0
 11
401.6337624397384
 21
297.24481580042908
 31
0.0
  0
LINE
  5
A76E
  8
0
 10
381.63376243973852
 20
297.24481580042931
 30
0.0
 11
384.13376243973852
 21
299.74481580042931
 31
0.0
  0
LINE
  5
A76F
  8
0
 10
381.63376243973852
 20
161.74481580042919
 30
0.0
 11
381.63376243973852
 21
187.7448158004517
 31
0.0
  0
LINE
  5
A770
  8
3
 10
382.98676243973853
 20
165.74481580043391
 30
0.0
 11
382.98676243973853
 21
187.74481580045151
 31
0.0
  0
LINE
  5
A771
  8
3
 10
400.2807624397384
 20
165.74481580043391
 30
0.0
 11
400.2807624397384
 21
187.7448158004517
 31
0.0
  0
LINE
  5
A772
  8
0
 10
401.6337624397384
 20
161.74481580042919
 30
0.0
 11
401.6337624397384
 21
187.7448158004517
 31
0.0
  0
LINE
  5
A773
  8
0
 10
384.13376243973852
 20
299.74481580042931
 30
0.0
 11
399.13376243973852
 21
299.74481580042908
 31
0.0
  0
LINE
  5
A774
  8
0
 10
383.13376243973852
 20
151.744815800391
 30
0.0
 11
383.13376243973852
 21
145.24481580040521
 31
0.0
  0
LINE
  5
A775
  8
0
 10
400.1337624397384
 20
151.744815800391
 30
0.0
 11
400.1337624397384
 21
145.2448158003769
 31
0.0
  0
LINE
  5
A776
  8
0
 10
400.1337624397384
 20
145.2448158003769
 30
0.0
 11
383.13376243973852
 21
145.24481580040509
 31
0.0
  0
ARC
  5
A777
  8
0
 10
391.63376243973562
 20
136.41508198162671
 30
0.0
 40
12.25
 50
133.87987710304901
 51
159.30166507346101
  0
LINE
  5
A778
  8
3
 10
400.2807624397384
 20
203.74481580045199
 30
0.0
 11
400.2807624397384
 21
298.59781580042909
 31
0.0
  0
LINE
  5
A779
  8
0
 10
401.6337624397384
 20
203.7448158004517
 30
0.0
 11
401.6337624397384
 21
297.24481580042908
 31
0.0
  0
LINE
  5
A77A
  8
0
 10
381.63376243973852
 20
203.74481580045199
 30
0.0
 11
381.63376243973852
 21
297.24481580042931
 31
0.0
  0
LINE
  5
A77B
  8
3
 10
382.98676243973853
 20
203.74481580045199
 30
0.0
 11
382.98676243973853
 21
298.59781580042932
 31
0.0
  0
ARC
  5
A77C
  8
0
 10
399.1337624397392
 20
181.79348189218811
 30
0.0
 40
21.662658773668529
 50
69.743841999600548
 51
110.2561580003994
  0
LINE
  5
A77D
  8
0
 10
406.13376243973732
 20
203.74481580045199
 30
0.0
 11
406.63376243973858
 21
203.45614066585651
 31
0.0
  0
LINE
  5
A77E
  8
0
 10
406.13376243973732
 20
187.74481580045239
 30
0.0
 11
406.63376243973858
 21
188.03349093504781
 31
0.0
  0
ARC
  5
A77F
  8
0
 10
399.1337624397392
 20
209.69614970871609
 30
0.0
 40
21.662658773668529
 50
249.74384199960051
 51
290.25615800039952
  0
LINE
  5
A780
  8
0
 10
406.63376243973909
 20
203.45614066585651
 30
0.0
 11
406.63376243973858
 21
188.03349093504781
 31
0.0
  0
LINE
  5
A781
  8
0
 10
376.6337624397392
 20
203.45614066585651
 30
0.0
 11
376.6337624397392
 21
188.03349093504781
 31
0.0
  0
ARC
  5
A782
  8
0
 10
384.1337624397392
 20
209.69614970871609
 30
0.0
 40
21.662658773668529
 50
249.74384199960051
 51
290.25615800039952
  0
LINE
  5
A783
  8
0
 10
377.13376243974062
 20
187.74481580045239
 30
0.0
 11
376.6337624397392
 21
188.03349093504781
 31
0.0
  0
LINE
  5
A784
  8
0
 10
377.13376243974062
 20
203.74481580045199
 30
0.0
 11
376.6337624397392
 21
203.45614066585651
 31
0.0
  0
ARC
  5
A785
  8
0
 10
384.1337624397392
 20
181.79348189218811
 30
0.0
 40
21.662658773668529
 50
69.743841999600548
 51
110.2561580003994
  0
LINE
  5
A786
  8
0
 10
377.13376243974062
 20
203.74481580045199
 30
0.0
 11
406.13376243973732
 21
203.74481580045199
 31
0.0
  0
LINE
  5
A787
  8
0
 10
406.13376243973909
 20
187.74481580045239
 30
0.0
 11
377.13376243974062
 21
187.74481580045239
 31
0.0
  0
LINE
  5
A788
  8
0
 10
391.6337624397392
 20
202.1163947037019
 30
0.0
 11
391.6337624397392
 21
189.3732368971975
 31
0.0
  0
ARC
  5
A789
  8
0
 10
391.63376243973562
 20
136.41508198162671
 30
0.0
 40
12.25
 50
20.698334926538941
 51
46.120122896762268
  0
CIRCLE
  5
A78A
  8
0
 10
221.6637956229799
 20
413.7648225547548
 30
0.0
 40
62.499999999999929
  0
CIRCLE
  5
A78B
  8
0
 10
221.6637956229799
 20
413.7648225547548
 30
0.0
 40
55.499999999999503
  0
CIRCLE
  5
A78C
  8
0
 10
221.6637956229799
 20
413.7648225547548
 30
0.0
 40
48.499999999999901
  0
CIRCLE
  5
A78D
  8
0
 10
221.6637956229799
 20
413.7648225547548
 30
0.0
 40
41.499999999999901
  0
CIRCLE
  5
A78E
  8
0
 10
221.6637956229799
 20
413.7648225547548
 30
0.0
 40
34.999999999999829
  0
CIRCLE
  5
A78F
  8
0
 10
221.6637956229799
 20
413.7648225547548
 30
0.0
 40
20.999999999999879
  0
LINE
  5
A790
  8
1
 10
221.6637956229799
 20
486.26482255475457
 30
0.0
 11
221.6637956229799
 21
341.2648225547548
 31
0.0
  0
LINE
  5
A791
  8
1
 10
294.16379562297971
 20
413.7648225547548
 30
0.0
 11
149.1637956229799
 21
413.7648225547548
 31
0.0
  0
CIRCLE
  5
A792
  8
0
 10
221.6637956229799
 20
413.7648225547548
 30
0.0
 40
14.5
  0
LINE
  5
A793
  8
0
 10
204.34328754729131
 20
413.76482255475491
 30
0.0
 11
213.00354158513571
 21
398.7648225547548
 31
0.0
  0
LINE
  5
A794
  8
0
 10
213.00354158513571
 20
428.7648225547548
 30
0.0
 11
204.34328754729131
 21
413.76482255475491
 31
0.0
  0
LINE
  5
A795
  8
0
 10
230.3240496608241
 20
428.7648225547548
 30
0.0
 11
213.00354158513571
 21
428.7648225547548
 31
0.0
  0
LINE
  5
A796
  8
0
 10
238.98430369866861
 20
413.7648225547548
 30
0.0
 11
230.3240496608241
 21
428.7648225547548
 31
0.0
  0
LINE
  5
A797
  8
0
 10
230.32404966082439
 20
398.7648225547548
 30
0.0
 11
238.98430369866861
 21
413.7648225547548
 31
0.0
  0
LINE
  5
A798
  8
0
 10
213.00354158513571
 20
398.7648225547548
 30
0.0
 11
230.32404966082439
 21
398.7648225547548
 31
0.0
  0
CIRCLE
  5
A799
  8
3
 10
221.6637956229799
 20
413.7648225547548
 30
0.0
 40
8.6470000000000002
  0
CIRCLE
  5
A79A
  8
0
 10
221.6637956229799
 20
413.7648225547548
 30
0.0
 40
10.0
  0
TEXT
  5
AB2C
  8
0
 62
     3
 10
0.0
 20
0.0
 30
0.0
 40
10.0
  1
LVAR125L20B
  7
STANDARD1
  0
ENDSEC
  0
EOF
