  0
SECTION
  2
HEADER
  9
$ACADVER
  1
AC1009
  9
$INSBASE
 10
0.0
 20
0.0
 30
0.0
  9
$EXTMIN
 10
0.0
 20
-2.960436562073669
 30
0.0
  9
$EXTMAX
 10
422.04001516390292
 20
471.56970744787702
 30
0.0
  9
$LIMMIN
 10
0.0
 20
0.0
  9
$LIMMAX
 10
375.0
 20
270.0
  9
$ORTHOMODE
 70
     0
  9
$REGENMODE
 70
     1
  9
$FILLMODE
 70
     1
  9
$QTEXTMODE
 70
     0
  9
$MIRRTEXT
 70
     0
  9
$DRAGMODE
 70
     2
  9
$LTSCALE
 40
6.0
  9
$OSMODE
 70
  3071
  9
$ATTMODE
 70
     1
  9
$TEXTSIZE
 40
0.2
  9
$TRACEWID
 40
0.05
  9
$TEXTSTYLE
  7
STANDARD
  9
$CLAYER
  8
0
  9
$CELTYPE
  6
BYLAYER
  9
$CECOLOR
 62
   256
  9
$DIMSCALE
 40
1.0
  9
$DIMASZ
 40
3.0
  9
$DIMEXO
 40
1.0
  9
$DIMDLI
 40
6.0
  9
$DIMRND
 40
0.0
  9
$DIMDLE
 40
0.0
  9
$DIMEXE
 40
1.0
  9
$DIMTP
 40
495.0
  9
$DIMTM
 40
0.0
  9
$DIMTXT
 40
3.0
  9
$DIMCEN
 40
0.0
  9
$DIMTSZ
 40
0.0
  9
$DIMTOL
 70
     0
  9
$DIMLIM
 70
     0
  9
$DIMTIH
 70
     0
  9
$DIMTOH
 70
     0
  9
$DIMSE1
 70
     0
  9
$DIMSE2
 70
     0
  9
$DIMTAD
 70
     1
  9
$DIMZIN
 70
     0
  9
$DIMBLK
  1

  9
$DIMASO
 70
     0
  9
$DIMSHO
 70
     0
  9
$DIMPOST
  1

  9
$DIMAPOST
  1

  9
$DIMALT
 70
     0
  9
$DIMALTD
 70
     2
  9
$DIMALTF
 40
25.399999999999999
  9
$DIMLFAC
 40
1.0
  9
$DIMTOFL
 70
     1
  9
$DIMTVP
 40
0.0
  9
$DIMTIX
 70
     1
  9
$DIMSOXD
 70
     0
  9
$DIMSAH
 70
     0
  9
$DIMBLK1
  1

  9
$DIMBLK2
  1

  9
$DIMSTYLE
  2
STANDARD
  9
$DIMCLRD
 70
     0
  9
$DIMCLRE
 70
     0
  9
$DIMCLRT
 70
     4
  9
$DIMTFAC
 40
1.0
  9
$DIMGAP
 40
1.0
  9
$LUNITS
 70
     2
  9
$LUPREC
 70
     4
  9
$SKETCHINC
 40
0.1
  9
$FILLETRAD
 40
2.0
  9
$AUNITS
 70
     0
  9
$AUPREC
 70
     0
  9
$MENU
  1
C:\R13\WIN\SUPPORT\ACAD-I
  9
$ELEVATION
 40
0.0
  9
$PELEVATION
 40
0.0
  9
$THICKNESS
 40
0.0
  9
$LIMCHECK
 70
     0
  9
$BLIPMODE
 70
     0
  9
$CHAMFERA
 40
0.0
  9
$CHAMFERB
 40
0.0
  9
$SKPOLY
 70
     0
  9
$TDCREATE
 40
2451963.4637674768
  9
$TDUPDATE
 40
2456597.6137517132
  9
$TDINDWG
 40
0.034133912
  9
$TDUSRTIMER
 40
2456555.274503923
  9
$USRTIMER
 70
     1
  9
$ANGBASE
 50
0.0
  9
$ANGDIR
 70
     0
  9
$PDMODE
 70
     0
  9
$PDSIZE
 40
0.0
  9
$PLINEWID
 40
0.0
  9
$COORDS
 70
     1
  9
$SPLFRAME
 70
     0
  9
$SPLINETYPE
 70
     6
  9
$SPLINESEGS
 70
     8
  9
$ATTDIA
 70
     0
  9
$ATTREQ
 70
     1
  9
$HANDLING
 70
     1
  9
$HANDSEED
  5
AD2E
  9
$SURFTAB1
 70
     6
  9
$SURFTAB2
 70
     6
  9
$SURFTYPE
 70
     6
  9
$SURFU
 70
     6
  9
$SURFV
 70
     6
  9
$UCSNAME
  2

  9
$UCSORG
 10
0.0
 20
0.0
 30
0.0
  9
$UCSXDIR
 10
1.0
 20
0.0
 30
0.0
  9
$UCSYDIR
 10
0.0
 20
1.0
 30
0.0
  9
$PUCSNAME
  2

  9
$PUCSORG
 10
0.0
 20
0.0
 30
0.0
  9
$PUCSXDIR
 10
1.0
 20
0.0
 30
0.0
  9
$PUCSYDIR
 10
0.0
 20
1.0
 30
0.0
  9
$USERI1
 70
     4
  9
$USERI2
 70
     1
  9
$USERI3
 70
     0
  9
$USERI4
 70
     0
  9
$USERI5
 70
     0
  9
$USERR1
 40
1.0
  9
$USERR2
 40
3.0
  9
$USERR3
 40
3.0
  9
$USERR4
 40
3.0
  9
$USERR5
 40
10.0
  9
$WORLDVIEW
 70
     1
  9
$SHADEDGE
 70
     3
  9
$SHADEDIF
 70
    70
  9
$TILEMODE
 70
     1
  9
$MAXACTVP
 70
    16
  9
$PLIMCHECK
 70
     0
  9
$PEXTMIN
 10
1.0000000000000000E+020
 20
1.0000000000000000E+020
 30
1.0000000000000000E+020
  9
$PEXTMAX
 10
-1.0000000000000000E+020
 20
-1.0000000000000000E+020
 30
-1.0000000000000000E+020
  9
$PLIMMIN
 10
0.0
 20
0.0
  9
$PLIMMAX
 10
12.0
 20
9.0
  9
$UNITMODE
 70
     0
  9
$VISRETAIN
 70
     0
  9
$PLINEGEN
 70
     0
  9
$PSLTSCALE
 70
     0
  0
ENDSEC
  0
SECTION
  2
TABLES
  0
TABLE
  2
VPORT
 70
     1
  0
VPORT
  2
*ACTIVE
 70
     0
 10
0.0
 20
0.0
 11
1.0
 21
1.0
 12
211.02000856459
 22
235.3370659473766
 13
0.0
 23
0.0
 14
10.0
 24
10.0
 15
10.0
 25
10.0
 16
0.0
 26
0.0
 36
1.0
 17
0.0
 27
0.0
 37
0.0
 40
482.05787235940937
 41
2.304913294797688
 42
50.0
 43
0.0
 44
0.0
 50
0.0
 51
0.0
 71
    16
 72
   100
 73
     1
 74
     0
 75
     0
 76
     0
 77
     0
 78
     0
  0
ENDTAB
  0
TABLE
  2
LTYPE
 70
     3
  0
LTYPE
  2
CONTINUOUS
 70
     0
  3
Solid Line
 72
    65
 73
     0
 40
0.0
  0
LTYPE
  2
PHANTOM2
 70
     0
  3
___ _ _ ___ _ _ ___ _ _ ___ _ _
 72
    65
 73
     6
 40
1.25
 49
0.625
 49
-0.125
 49
0.125
 49
-0.125
 49
0.125
 49
-0.125
  0
LTYPE
  2
CENTER
 70
     0
  3
____ _ ____ _ ____ _ ____ _ ____ _ ____ _ ____
 72
    65
 73
     4
 40
2.0
 49
1.25
 49
-0.25
 49
0.25
 49
-0.25
  0
ENDTAB
  0
TABLE
  2
LAYER
 70
     4
  0
LAYER
  2
0
 70
     0
 62
     7
  6
CONTINUOUS
  0
LAYER
  2
1
 70
     0
 62
     1
  6
CENTER
  0
LAYER
  2
3
 70
     0
 62
     3
  6
CONTINUOUS
  0
LAYER
  2
DEFPOINTS
 70
     0
 62
     7
  6
CONTINUOUS
  0
ENDTAB
  0
TABLE
  2
STYLE
 70
     3
  0
STYLE
  2
STANDARD
 70
     0
 40
0.0
 41
1.0
 50
0.0
 71
     0
 42
0.2
  3
SIMPLEX
  4
BIGFONT
  0
STYLE
  2
ANNOTATIVE
 70
     0
 40
0.0
 41
1.0
 50
0.0
 71
     0
 42
0.2
  3
txt
  4

  0
STYLE
  2
STANDARD1
 70
     0
 40
0.0
 41
1.0
 50
0.0
 71
     0
 42
3.0
  3
txt
  4

  0
ENDTAB
  0
TABLE
  2
VIEW
 70
     0
  0
ENDTAB
  0
TABLE
  2
UCS
 70
     0
  0
ENDTAB
  0
TABLE
  2
APPID
 70
    29
  0
APPID
  2
ACAD
 70
     0
  0
APPID
  2
ACADANNOTATIVE
 70
     0
  0
APPID
  2
GENIUS_GENOREF_13
 70
     0
  0
APPID
  2
GENIUS_GENOENT_13
 70
     0
  0
APPID
  2
GENIUS_GENBH_13
 70
     0
  0
APPID
  2
GENIUS_GENOBJ_13
 70
     0
  0
APPID
  2
GENIUS_GENODEF_13
 70
     0
  0
APPID
  2
GENIUS_GENOLIS_13
 70
     0
  0
APPID
  2
GENIUS_GENOBJ-NBEHI-BHF_13
 70
     0
  0
APPID
  2
GENIUS_GENOBJ-NBEHI-BHB_13
 70
     0
  0
APPID
  2
GENIUS_GENOBJ-F-PART_13
 70
     0
  0
APPID
  2
GENIUS_GEFSTDP_13
 70
     0
  0
APPID
  2
GENIUS_GENOBJ-N-RSSYM_13
 70
     0
  0
APPID
  2
GENIUS_GENSYMENT_13
 70
     0
  0
APPID
  2
GENIUS_GENOBJ-N-TIT_13
 70
     0
  0
APPID
  2
GENIUS_GENTITLE_13
 70
     0
  0
APPID
  2
GENIUS_GENZVEED_13
 70
     0
  0
APPID
  2
GENIUS_GENOBJ-N-LEADER_13
 70
     0
  0
APPID
  2
GENIUS_GENOBJ-N-FIL_13
 70
     0
  0
APPID
  2
GENIUS_GENOBJ-N-SEC_13
 70
     0
  0
APPID
  2
GENIUS_GENOBJ-N-CRS_13
 70
     0
  0
APPID
  2
GENIUS_GENOBJ-N-ZOO_13
 70
     0
  0
APPID
  2
GENIUS_GENZOO_13
 70
     0
  0
APPID
  2
GENIUS_GENOBJ-F-TOL_13
 70
     0
  0
APPID
  2
GENIUS_GENFIL_13
 70
     0
  0
APPID
  2
GENIUS_GENOBJ-N-CHA_13
 70
     0
  0
APPID
  2
ACAD_EXEMPT_FROM_CAD_STANDARDS
 70
     0
  0
APPID
  2
ACAD_MLEADERVER
 70
     0
  0
APPID
  2
ACAD_NAV_VCDISPLAY
 70
     0
  0
ENDTAB
  0
TABLE
  2
DIMSTYLE
 70
     2
  0
DIMSTYLE
  2
STANDARD
 70
     0
  3

  4

  5

  6

  7

 40
1.0
 41
0.18
 42
0.0625
 43
0.38
 44
0.18
 45
0.0
 46
0.0
 47
0.0
 48
0.0
140
0.18
141
0.09
142
0.0
143
25.399999999999999
144
1.0
145
0.0
146
1.0
147
0.09
 71
     0
 72
     0
 73
     1
 74
     1
 75
     0
 76
     0
 77
     0
 78
     0
170
     0
171
     2
172
     0
173
     0
174
     0
175
     0
176
     0
177
     0
178
     0
  0
DIMSTYLE
  2
ANNOTATIVE
 70
     0
  3

  4

  5

  6

  7

 40
1.0
 41
0.18
 42
0.0625
 43
0.38
 44
0.18
 45
0.0
 46
0.0
 47
0.0
 48
0.0
140
0.18
141
0.09
142
0.0
143
25.399999999999999
144
1.0
145
0.0
146
1.0
147
0.09
 71
     0
 72
     0
 73
     1
 74
     1
 75
     0
 76
     0
 77
     0
 78
     0
170
     0
171
     2
172
     0
173
     0
174
     0
175
     0
176
     0
177
     0
178
     0
  0
ENDTAB
  0
ENDSEC
  0
SECTION
  2
BLOCKS
  0
BLOCK
  8
0
  2
$MODEL_SPACE
 70
     0
 10
0.0
 20
0.0
 30
0.0
  3
$MODEL_SPACE
  1

  0
ENDBLK
  5
AC50
  8
0
  0
BLOCK
 67
     1
  8
0
  2
$PAPER_SPACE
 70
     0
 10
0.0
 20
0.0
 30
0.0
  3
$PAPER_SPACE
  1

  0
ENDBLK
  5
AC4C
 67
     1
  8
0
  0
ENDSEC
  0
SECTION
  2
ENTITIES
  0
CIRCLE
  5
A873
  8
0
 10
189.57004834714451
 20
399.06970744787719
 30
0.0
 40
10.0
  0
CIRCLE
  5
A874
  8
3
 10
189.57004834714451
 20
399.06970744787719
 30
0.0
 40
8.6470000000000002
  0
LINE
  5
A875
  8
0
 10
180.90979430930039
 20
384.06970744787719
 30
0.0
 11
198.23030238498899
 21
384.06970744787719
 31
0.0
  0
LINE
  5
A876
  8
0
 10
198.23030238498899
 20
384.06970744787719
 30
0.0
 11
206.89055642283321
 21
399.06970744787719
 31
0.0
  0
LINE
  5
A877
  8
0
 10
206.89055642283321
 20
399.06970744787719
 30
0.0
 11
198.23030238498879
 21
414.06970744787708
 31
0.0
  0
LINE
  5
A878
  8
0
 10
198.23030238498879
 20
414.06970744787708
 30
0.0
 11
180.90979430930039
 21
414.06970744787708
 31
0.0
  0
LINE
  5
A879
  8
0
 10
180.90979430930039
 20
414.06970744787708
 30
0.0
 11
172.249540271456
 21
399.06970744787748
 31
0.0
  0
LINE
  5
A87A
  8
0
 10
172.249540271456
 20
399.06970744787748
 30
0.0
 11
180.90979430930039
 21
384.06970744787719
 31
0.0
  0
CIRCLE
  5
A87B
  8
0
 10
189.57004834714451
 20
399.06970744787719
 30
0.0
 40
14.5
  0
LINE
  5
A87C
  8
1
 10
262.07004834714439
 20
399.06970744787719
 30
0.0
 11
117.07004834714461
 21
399.06970744787719
 31
0.0
  0
LINE
  5
A87D
  8
1
 10
189.57004834714451
 20
471.56970744787702
 30
0.0
 11
189.57004834714451
 21
326.56970744787731
 31
0.0
  0
CIRCLE
  5
A87E
  8
0
 10
189.57004834714451
 20
399.06970744787719
 30
0.0
 40
20.999999999999879
  0
CIRCLE
  5
A87F
  8
0
 10
189.57004834714451
 20
399.06970744787719
 30
0.0
 40
34.999999999999829
  0
CIRCLE
  5
A880
  8
0
 10
189.57004834714451
 20
399.06970744787719
 30
0.0
 40
41.499999999999901
  0
CIRCLE
  5
A881
  8
0
 10
189.57004834714451
 20
399.06970744787719
 30
0.0
 40
48.499999999999901
  0
CIRCLE
  5
A882
  8
0
 10
189.57004834714451
 20
399.06970744787719
 30
0.0
 40
55.499999999999503
  0
CIRCLE
  5
A883
  8
0
 10
189.57004834714451
 20
399.06970744787719
 30
0.0
 40
62.499999999999929
  0
ARC
  5
A884
  8
0
 10
359.54001516390031
 20
101.7199668747492
 30
0.0
 40
12.25
 50
20.698334926538951
 51
46.120122896761991
  0
LINE
  5
A885
  8
0
 10
359.54001516390412
 20
167.42127959682449
 30
0.0
 11
359.54001516390412
 21
154.67812179031989
 31
0.0
  0
LINE
  5
A886
  8
0
 10
374.04001516390412
 20
153.04970069357481
 30
0.0
 11
345.04001516390531
 21
153.04970069357481
 31
0.0
  0
LINE
  5
A887
  8
0
 10
345.04001516390531
 20
169.04970069357469
 30
0.0
 11
374.04001516390213
 21
169.04970069357469
 31
0.0
  0
ARC
  5
A888
  8
0
 10
352.04001516390389
 20
147.09836678531079
 30
0.0
 40
21.662658773668529
 50
69.743841999600491
 51
110.2561580003994
  0
LINE
  5
A889
  8
0
 10
345.04001516390531
 20
169.04970069357469
 30
0.0
 11
344.54001516390389
 21
168.76102555897921
 31
0.0
  0
LINE
  5
A88A
  8
0
 10
345.04001516390531
 20
153.04970069357481
 30
0.0
 11
344.54001516390389
 21
153.33837582817031
 31
0.0
  0
ARC
  5
A88B
  8
0
 10
352.04001516390389
 20
175.00103460183851
 30
0.0
 40
21.662658773668529
 50
249.74384199960051
 51
290.25615800039952
  0
LINE
  5
A88C
  8
0
 10
344.54001516390389
 20
168.76102555897921
 30
0.0
 11
344.54001516390389
 21
153.33837582817031
 31
0.0
  0
LINE
  5
A88D
  8
0
 10
374.540015163904
 20
168.76102555897921
 30
0.0
 11
374.54001516390338
 21
153.33837582817031
 31
0.0
  0
ARC
  5
A88E
  8
0
 10
367.04001516390389
 20
175.00103460183851
 30
0.0
 40
21.662658773668529
 50
249.74384199960051
 51
290.25615800039952
  0
LINE
  5
A88F
  8
0
 10
374.04001516390213
 20
153.04970069357481
 30
0.0
 11
374.54001516390338
 21
153.33837582817031
 31
0.0
  0
LINE
  5
A890
  8
0
 10
374.04001516390213
 20
169.04970069357469
 30
0.0
 11
374.54001516390338
 21
168.76102555897921
 31
0.0
  0
ARC
  5
A891
  8
0
 10
367.04001516390389
 20
147.09836678531079
 30
0.0
 40
21.662658773668529
 50
69.743841999600491
 51
110.2561580003994
  0
LINE
  5
A892
  8
3
 10
350.89301516390333
 20
169.04970069357469
 30
0.0
 11
350.89301516390333
 21
283.90270069355182
 31
0.0
  0
LINE
  5
A893
  8
0
 10
349.54001516390321
 20
169.04970069357469
 30
0.0
 11
349.54001516390321
 21
282.5497006935517
 31
0.0
  0
LINE
  5
A894
  8
0
 10
369.54001516390332
 20
169.04970069357449
 30
0.0
 11
369.54001516390332
 21
282.54970069355147
 31
0.0
  0
LINE
  5
A895
  8
3
 10
368.1870151639032
 20
169.04970069357469
 30
0.0
 11
368.1870151639032
 21
283.90270069355148
 31
0.0
  0
ARC
  5
A896
  8
0
 10
359.54001516390031
 20
101.7199668747492
 30
0.0
 40
12.25
 50
133.87987710304901
 51
159.30166507346101
  0
LINE
  5
A897
  8
0
 10
368.04001516390332
 20
110.5497006934993
 30
0.0
 11
351.04001516390332
 21
110.5497006935275
 31
0.0
  0
LINE
  5
A898
  8
0
 10
368.04001516390332
 20
117.0497006935134
 30
0.0
 11
368.04001516390332
 21
110.5497006934993
 31
0.0
  0
LINE
  5
A899
  8
0
 10
351.04001516390332
 20
117.0497006935134
 30
0.0
 11
351.04001516390332
 21
110.5497006935277
 31
0.0
  0
LINE
  5
A89A
  8
0
 10
352.04001516390332
 20
285.0497006935517
 30
0.0
 11
367.04001516390332
 21
285.04970069355147
 31
0.0
  0
LINE
  5
A89B
  8
0
 10
369.54001516390332
 20
127.0497006935516
 30
0.0
 11
369.54001516390332
 21
153.0497006935741
 31
0.0
  0
LINE
  5
A89C
  8
3
 10
368.1870151639032
 20
131.0497006935702
 30
0.0
 11
368.1870151639032
 21
153.0497006935741
 31
0.0
  0
LINE
  5
A89D
  8
3
 10
350.89301516390333
 20
131.0497006935702
 30
0.0
 11
350.89301516390333
 21
153.0497006935739
 31
0.0
  0
LINE
  5
A89E
  8
0
 10
349.54001516390321
 20
127.0497006935516
 30
0.0
 11
349.54001516390321
 21
153.0497006935741
 31
0.0
  0
LINE
  5
A89F
  8
0
 10
349.54001516390321
 20
282.5497006935517
 30
0.0
 11
352.04001516390332
 21
285.0497006935517
 31
0.0
  0
LINE
  5
A8A0
  8
0
 10
367.04001516390332
 20
285.04970069355147
 30
0.0
 11
369.54001516390332
 21
282.54970069355147
 31
0.0
  0
LINE
  5
A8A1
  8
0
 10
349.54001516390321
 20
282.5497006935517
 30
0.0
 11
369.54001516390332
 21
282.54970069355147
 31
0.0
  0
LINE
  5
A8A2
  8
0
 10
369.54001516390332
 20
131.0497006935702
 30
0.0
 11
349.54001516390321
 21
131.0497006935702
 31
0.0
  0
LINE
  5
A8A3
  8
3
 10
350.89301516390333
 20
131.0497006935702
 30
0.0
 11
349.54001516390321
 21
128.70623595092931
 31
0.0
  0
LINE
  5
A8A4
  8
3
 10
368.1870151639032
 20
131.0497006935702
 30
0.0
 11
369.54001516390332
 21
128.70623595092931
 31
0.0
  0
ARC
  5
A8A5
  8
0
 10
359.54001516395721
 20
103.83282233092839
 30
0.0
 40
22.928203228139491
 50
72.412046224314381
 51
107.58795377568561
  0
ARC
  5
A8A6
  8
0
 10
349.14771031854372
 20
120.6270509633471
 30
0.0
 40
6.1339745957208196
 50
55.6157525287935
 51
115.61575253015479
  0
LINE
  5
A8A7
  8
0
 10
345.6836087033841
 20
125.6892287892386
 30
0.0
 11
348.04001516406493
 21
127.0497006936328
 31
0.0
  0
LINE
  5
A8A8
  8
0
 10
345.6836087033841
 20
118.410172598027
 30
0.0
 11
348.04001516406493
 21
117.0497006936328
 31
0.0
  0
ARC
  5
A8A9
  8
0
 10
349.14771031854372
 20
123.4723504239185
 30
0.0
 40
6.1339745957208196
 50
244.38424746984521
 51
304.38424747120638
  0
ARC
  5
A8AA
  8
0
 10
359.54001516395721
 20
140.26657905633721
 30
0.0
 40
22.928203228139491
 50
252.41204622431439
 51
287.58795377568561
  0
LINE
  5
A8AB
  8
0
 10
345.68360870340598
 20
125.6892287892386
 30
0.0
 11
345.68360870340598
 21
118.4101725980143
 31
0.0
  0
LINE
  5
A8AC
  8
0
 10
352.61181193368179
 20
125.6892287892386
 30
0.0
 11
352.61181193368179
 21
118.410172598027
 31
0.0
  0
LINE
  5
A8AD
  8
0
 10
366.46821839423251
 20
125.6892287892386
 30
0.0
 11
366.46821839423251
 21
118.410172598027
 31
0.0
  0
LINE
  5
A8AE
  8
0
 10
373.39642162450832
 20
125.6892287892386
 30
0.0
 11
373.39642162450832
 21
118.4101725980143
 31
0.0
  0
ARC
  5
A8AF
  8
0
 10
369.9323200093707
 20
123.4723504239185
 30
0.0
 40
6.1339745957208196
 50
235.61575252879359
 51
295.61575253015491
  0
LINE
  5
A8B0
  8
0
 10
373.39642162453009
 20
118.410172598027
 30
0.0
 11
371.04001516384949
 21
117.0497006936328
 31
0.0
  0
LINE
  5
A8B1
  8
0
 10
373.39642162453009
 20
125.6892287892386
 30
0.0
 11
371.04001516384949
 21
127.0497006936328
 31
0.0
  0
ARC
  5
A8B2
  8
0
 10
369.9323200093707
 20
120.6270509633471
 30
0.0
 40
6.1339745957208196
 50
64.384247469845135
 51
124.38424747120629
  0
LINE
  5
A8B3
  8
0
 10
348.04001516395709
 20
127.0497006936328
 30
0.0
 11
371.04001516384949
 21
127.0497006936328
 31
0.0
  0
LINE
  5
A8B4
  8
0
 10
371.04001516384949
 20
117.0497006936328
 30
0.0
 11
348.04001516406493
 21
117.0497006936328
 31
0.0
  0
LINE
  5
A8B5
  8
0
 10
422.04001516390292
 20
60.049700693551593
 30
0.0
 11
297.04001516390332
 21
60.049700693551642
 31
0.0
  0
LINE
  5
A8B6
  8
0
 10
422.04001516390292
 20
60.049700693551593
 30
0.0
 11
422.04001516390292
 21
76.168906782596707
 31
0.0
  0
LINE
  5
A8B7
  8
0
 10
414.54001516390292
 20
60.049700693551593
 30
0.0
 11
414.54001516390292
 21
57.0497006935516
 31
0.0
  0
LINE
  5
A8B8
  8
0
 10
380.54001516390298
 20
106.0497006935516
 30
0.0
 11
338.54001516390332
 21
106.0497006935516
 31
0.0
  0
LINE
  5
A8B9
  8
DEFPOINTS
 10
380.54001516390298
 20
106.0497006935516
 30
0.0
 11
394.54001516390298
 21
84.049700693551586
 31
0.0
  0
LINE
  5
A8BA
  8
DEFPOINTS
 10
394.54001516390298
 20
84.049700693551586
 30
0.0
 11
400.28669444453772
 21
82.586909603935396
 31
0.0
  0
LINE
  5
A8BB
  8
DEFPOINTS
 10
415.04001516390292
 20
77.940609784460662
 30
0.0
 11
415.04001516390292
 21
77.950724964414903
 31
0.0
  0
LINE
  5
A8BC
  8
DEFPOINTS
 10
408.04001516390298
 20
79.722427966278843
 30
0.0
 11
408.04001516390298
 21
79.73254314623307
 31
0.0
  0
LINE
  5
A8BD
  8
DEFPOINTS
 10
401.04001516390292
 20
81.504246148097025
 30
0.0
 11
401.04001516390292
 21
81.617812430012449
 31
0.0
  0
LINE
  5
A8BE
  8
DEFPOINTS
 10
421.16626944357682
 20
77.160904694320323
 30
0.0
 11
415.04001516390292
 21
77.940609784460662
 31
0.0
  0
LINE
  5
A8BF
  8
DEFPOINTS
 10
414.16626944357699
 20
78.942722876138532
 30
0.0
 11
408.04001516390298
 21
79.722427966278843
 31
0.0
  0
LINE
  5
A8C0
  8
DEFPOINTS
 10
407.16626944357699
 20
80.724541057956728
 30
0.0
 11
401.04001516390292
 21
81.504246148097025
 31
0.0
  0
ARC
  5
A8C1
  8
DEFPOINTS
 10
400.04001516390298
 20
81.617812430012449
 30
0.0
 40
1.0
 50
0.0
 51
75.718904264028865
  0
ARC
  5
A8C2
  8
DEFPOINTS
 10
407.04001516390292
 20
79.73254314623307
 30
0.0
 40
1.0
 50
0.0
 51
82.746805387274634
  0
ARC
  5
A8C3
  8
DEFPOINTS
 10
414.04001516390292
 20
77.950724964414903
 30
0.0
 40
1.0
 50
0.0000000000016284
 51
82.746805387274634
  0
ARC
  5
A8C4
  8
DEFPOINTS
 10
421.04001516390298
 20
76.168906782596707
 30
0.0
 40
1.0
 50
359.9999999999996
 51
82.746805387274634
  0
LINE
  5
A8C5
  8
DEFPOINTS
 10
415.04001516390292
 20
77.940609784460662
 30
0.0
 11
304.04001516390417
 21
77.940609784460761
 31
0.0
  0
LINE
  5
A8C6
  8
DEFPOINTS
 10
408.04001516390298
 20
79.722427966278843
 30
0.0
 11
311.04001516390389
 21
79.722427966278929
 31
0.0
  0
LINE
  5
A8C7
  8
DEFPOINTS
 10
401.04001516390292
 20
81.504246148097025
 30
0.0
 11
318.040015163904
 21
81.504246148097124
 31
0.0
  0
LINE
  5
A8C8
  8
DEFPOINTS
 10
394.54001516390298
 20
84.049700693551586
 30
0.0
 11
324.54001516390349
 21
84.049700693551628
 31
0.0
  0
ARC
  5
A8C9
  8
DEFPOINTS
 10
298.04001516390309
 20
76.168906782596707
 30
0.0
 40
1.0
 50
97.253194612725352
 51
180.0000000000004
  0
ARC
  5
A8CA
  8
DEFPOINTS
 10
305.04001516390332
 20
77.950724964414903
 30
0.0
 40
1.0
 50
97.253194612725352
 51
179.9999999999979
  0
ARC
  5
A8CB
  8
DEFPOINTS
 10
312.04001516390321
 20
79.73254314623307
 30
0.0
 40
1.0
 50
97.253194612725352
 51
180.0
  0
ARC
  5
A8CC
  8
DEFPOINTS
 10
319.04001516390332
 20
81.617812430012449
 30
0.0
 40
1.0
 50
104.28109573597111
 51
180.0
  0
LINE
  5
A8CD
  8
DEFPOINTS
 10
311.9137608842293
 20
80.724541057956728
 30
0.0
 11
318.04001516390332
 21
81.504246148097025
 31
0.0
  0
LINE
  5
A8CE
  8
DEFPOINTS
 10
304.9137608842293
 20
78.942722876138532
 30
0.0
 11
311.04001516390332
 21
79.722427966278843
 31
0.0
  0
LINE
  5
A8CF
  8
DEFPOINTS
 10
297.91376088422908
 20
77.160904694320323
 30
0.0
 11
304.04001516390332
 21
77.940609784460662
 31
0.0
  0
LINE
  5
A8D0
  8
DEFPOINTS
 10
318.04001516390332
 20
81.504246148097025
 30
0.0
 11
318.04001516390332
 21
81.617812430012449
 31
0.0
  0
LINE
  5
A8D1
  8
DEFPOINTS
 10
311.04001516390332
 20
79.722427966278843
 30
0.0
 11
311.04001516390332
 21
79.73254314623307
 31
0.0
  0
LINE
  5
A8D2
  8
DEFPOINTS
 10
304.04001516390332
 20
77.940609784460662
 30
0.0
 11
304.04001516390332
 21
77.950724964414903
 31
0.0
  0
LINE
  5
A8D3
  8
DEFPOINTS
 10
324.54001516390321
 20
84.049700693551586
 30
0.0
 11
318.79333588326841
 21
82.586909603935396
 31
0.0
  0
LINE
  5
A8D4
  8
DEFPOINTS
 10
338.54001516390332
 20
106.0497006935516
 30
0.0
 11
324.54001516390321
 21
84.049700693551586
 31
0.0
  0
LINE
  5
A8D5
  8
0
 10
304.54001516390332
 20
60.049700693551593
 30
0.0
 11
304.54001516390332
 21
57.0497006935516
 31
0.0
  0
LINE
  5
A8D6
  8
0
 10
297.04001516390332
 20
60.049700693551593
 30
0.0
 11
297.04001516390292
 21
76.168906782596707
 31
0.0
  0
LINE
  5
A8D7
  8
0
 10
304.54001516390332
 20
57.0497006935516
 30
0.0
 11
414.54001516390292
 21
57.0497006935516
 31
0.0
  0
LINE
  5
A8D8
  8
1
 10
359.54001516390332
 20
47.049700693551578
 30
0.0
 11
359.54001516390332
 21
295.0497006935517
 31
0.0
  0
LINE
  5
A8D9
  8
1
 10
189.57004834714451
 20
47.049700693551578
 30
0.0
 11
189.57004834714451
 21
295.0497006935517
 31
0.0
  0
LINE
  5
A8DA
  8
0
 10
134.57004834714459
 20
57.0497006935516
 30
0.0
 11
244.57004834714439
 21
57.0497006935516
 31
0.0
  0
ARC
  5
A8DB
  8
0
 10
189.57004834714161
 20
101.7199668747493
 30
0.0
 40
12.25
 50
20.69833492653807
 51
46.120122896763142
  0
LINE
  5
A8DC
  8
3
 10
198.2170483471445
 20
131.04970069357029
 30
0.0
 11
199.57004834714451
 21
128.7062359509294
 31
0.0
  0
LINE
  5
A8DD
  8
3
 10
180.92304834714469
 20
131.04970069357029
 30
0.0
 11
179.57004834714459
 21
128.7062359509294
 31
0.0
  0
LINE
  5
A8DE
  8
0
 10
199.57004834714451
 20
131.04970069357029
 30
0.0
 11
179.57004834714459
 21
131.04970069357029
 31
0.0
  0
LINE
  5
A8DF
  8
0
 10
179.57004834714459
 20
282.5497006935517
 30
0.0
 11
199.57004834714451
 21
282.54970069355147
 31
0.0
  0
LINE
  5
A8E0
  8
0
 10
197.07004834714451
 20
285.04970069355147
 30
0.0
 11
199.57004834714451
 21
282.54970069355147
 31
0.0
  0
LINE
  5
A8E1
  8
0
 10
179.57004834714459
 20
282.5497006935517
 30
0.0
 11
182.07004834714451
 21
285.0497006935517
 31
0.0
  0
LINE
  5
A8E2
  8
0
 10
179.57004834714459
 20
127.0497006935517
 30
0.0
 11
179.57004834714459
 21
153.04970069357421
 31
0.0
  0
LINE
  5
A8E3
  8
3
 10
180.92304834714469
 20
131.04970069357029
 30
0.0
 11
180.92304834714469
 21
153.04970069357401
 31
0.0
  0
LINE
  5
A8E4
  8
3
 10
198.2170483471445
 20
131.04970069357029
 30
0.0
 11
198.2170483471445
 21
153.04970069357421
 31
0.0
  0
LINE
  5
A8E5
  8
0
 10
199.57004834714451
 20
127.0497006935517
 30
0.0
 11
199.57004834714451
 21
153.04970069357421
 31
0.0
  0
LINE
  5
A8E6
  8
0
 10
182.07004834714451
 20
285.0497006935517
 30
0.0
 11
197.07004834714451
 21
285.04970069355147
 31
0.0
  0
ARC
  5
A8E7
  8
0
 10
195.5700483471777
 20
109.43089854163431
 30
0.0
 40
17.330127017333279
 50
69.74384199763557
 51
110.2561580023644
  0
LINE
  5
A8E8
  8
0
 10
201.5700483471928
 20
126.7610255589676
 30
0.0
 11
201.0700483471777
 21
127.0497006935711
 31
0.0
  0
LINE
  5
A8E9
  8
0
 10
201.5700483471928
 20
117.3383758280976
 30
0.0
 11
201.0700483471777
 21
117.0497006934942
 31
0.0
  0
ARC
  5
A8EA
  8
0
 10
195.5700483471777
 20
134.66850284543091
 30
0.0
 40
17.330127017333279
 50
249.7438419976356
 51
290.25615800236437
  0
LINE
  5
A8EB
  8
0
 10
201.5700483471928
 20
126.7610255589676
 30
0.0
 11
201.5700483471777
 21
117.338375828089
 31
0.0
  0
LINE
  5
A8EC
  8
0
 10
189.5700483471777
 20
118.4101725979268
 30
0.0
 11
189.5700483471777
 21
125.6892287891384
 31
0.0
  0
LINE
  5
A8ED
  8
0
 10
177.57004834716281
 20
126.7610255589676
 30
0.0
 11
177.57004834717779
 21
117.338375828089
 31
0.0
  0
ARC
  5
A8EE
  8
0
 10
183.5700483471777
 20
134.66850284543091
 30
0.0
 40
17.330127017333279
 50
249.7438419976356
 51
290.25615800236437
  0
LINE
  5
A8EF
  8
0
 10
177.57004834716281
 20
117.3383758280976
 30
0.0
 11
178.07004834717779
 21
117.0497006934942
 31
0.0
  0
LINE
  5
A8F0
  8
0
 10
177.57004834716281
 20
126.7610255589676
 30
0.0
 11
178.07004834717779
 21
127.0497006935711
 31
0.0
  0
ARC
  5
A8F1
  8
0
 10
183.5700483471777
 20
109.43089854163431
 30
0.0
 40
17.330127017333279
 50
69.74384199763557
 51
110.2561580023644
  0
LINE
  5
A8F2
  8
0
 10
178.0700483471114
 20
127.0497006935326
 30
0.0
 11
201.0700483471777
 21
127.0497006935711
 31
0.0
  0
LINE
  5
A8F3
  8
0
 10
201.0700483471777
 20
117.0497006934942
 30
0.0
 11
178.0700483471114
 21
117.0497006935326
 31
0.0
  0
LINE
  5
A8F4
  8
0
 10
181.07004834714451
 20
117.0497006935135
 30
0.0
 11
181.07004834714451
 21
110.5497006935278
 31
0.0
  0
LINE
  5
A8F5
  8
0
 10
198.07004834714451
 20
117.0497006935135
 30
0.0
 11
198.07004834714451
 21
110.5497006934994
 31
0.0
  0
LINE
  5
A8F6
  8
0
 10
198.07004834714451
 20
110.5497006934994
 30
0.0
 11
181.07004834714451
 21
110.5497006935276
 31
0.0
  0
ARC
  5
A8F7
  8
0
 10
189.57004834714161
 20
101.7199668747493
 30
0.0
 40
12.25
 50
133.8798771030479
 51
159.30166507346181
  0
LINE
  5
A8F8
  8
0
 10
204.0700483471453
 20
153.04970069357441
 30
0.0
 11
175.07004834714479
 21
153.04970069357421
 31
0.0
  0
LINE
  5
A8F9
  8
0
 10
175.07004834714479
 20
169.04970069357501
 30
0.0
 11
204.0700483471455
 21
169.04970069357461
 31
0.0
  0
LINE
  5
A8FA
  8
0
 10
204.07004834714479
 20
169.04970069357501
 30
0.0
 11
206.8905564228335
 21
167.42127959682469
 31
0.0
  0
ARC
  5
A8FB
  8
0
 10
202.560429403911
 20
161.0935573137038
 30
0.0
 40
7.6674682452751766
 50
64.384247470459144
 51
124.3842474680057
  0
ARC
  5
A8FC
  8
0
 10
202.560429403911
 20
161.0935573137038
 30
0.0
 40
7.6674682452751766
 50
55.615752531994211
 51
55.615752531994211
  0
ARC
  5
A8FD
  8
0
 10
202.560429403911
 20
161.0058440734455
 30
0.0
 40
7.6674682452751766
 50
304.3842474680057
 51
304.3842474680057
  0
ARC
  5
A8FE
  8
0
 10
202.560429403911
 20
161.0058440734455
 30
0.0
 40
7.6674682452751766
 50
235.6157525319943
 51
295.61575252954088
  0
LINE
  5
A8FF
  8
0
 10
204.07004834714479
 20
153.04970069357421
 30
0.0
 11
206.8905564228335
 21
154.67812179032461
 31
0.0
  0
LINE
  5
A900
  8
0
 10
206.89055642283321
 20
167.42127959682469
 30
0.0
 11
206.890556423117
 21
154.67812179048829
 31
0.0
  0
LINE
  5
A901
  8
0
 10
198.23030238498899
 20
154.678121790348
 30
0.0
 11
198.23030238483511
 21
167.42127959682469
 31
0.0
  0
ARC
  5
A902
  8
0
 10
189.57004834721829
 20
181.9986298655628
 30
0.0
 40
28.660254037392811
 50
252.41204622557001
 51
287.5879537741294
  0
LINE
  5
A903
  8
0
 10
180.90979430930051
 20
154.678121790348
 30
0.0
 11
180.90979430945461
 21
167.42127959682469
 31
0.0
  0
LINE
  5
A904
  8
0
 10
172.2495402714564
 20
167.42127959682469
 30
0.0
 11
172.24954027117261
 21
154.67812179048829
 31
0.0
  0
LINE
  5
A905
  8
0
 10
175.07004834714479
 20
153.04970069357421
 30
0.0
 11
172.2495402714562
 21
154.67812179032461
 31
0.0
  0
ARC
  5
A906
  8
0
 10
176.57966729037861
 20
161.0058440734455
 30
0.0
 40
7.6674682452751766
 50
244.3842474704592
 51
304.3842474680057
  0
ARC
  5
A907
  8
0
 10
176.57966729037861
 20
161.0058440734455
 30
0.0
 40
7.6674682452751766
 50
235.6157525319943
 51
235.6157525319943
  0
ARC
  5
A908
  8
0
 10
189.57004834721829
 20
140.1007715215863
 30
0.0
 40
28.660254037392811
 50
72.41204622587064
 51
107.58795377443001
  0
ARC
  5
A909
  8
0
 10
176.57966729037861
 20
161.0935573137038
 30
0.0
 40
7.6674682452751766
 50
124.3842474680057
 51
124.3842474680057
  0
ARC
  5
A90A
  8
0
 10
176.57966729037861
 20
161.0935573137038
 30
0.0
 40
7.6674682452751766
 50
55.615752531994211
 51
115.6157525295408
  0
LINE
  5
A90B
  8
0
 10
175.07004834714479
 20
169.04970069357501
 30
0.0
 11
172.2495402714562
 21
167.42127959682469
 31
0.0
  0
LINE
  5
A90C
  8
3
 10
198.2170483471445
 20
169.04970069357481
 30
0.0
 11
198.2170483471445
 21
283.90270069355148
 31
0.0
  0
LINE
  5
A90D
  8
0
 10
199.57004834714451
 20
169.04970069357461
 30
0.0
 11
199.57004834714451
 21
282.54970069355147
 31
0.0
  0
LINE
  5
A90E
  8
0
 10
179.57004834714459
 20
169.04970069357481
 30
0.0
 11
179.57004834714459
 21
282.5497006935517
 31
0.0
  0
LINE
  5
A90F
  8
3
 10
180.92304834714469
 20
169.04970069357481
 30
0.0
 11
180.92304834714469
 21
283.90270069355182
 31
0.0
  0
LINE
  5
A910
  8
0
 10
127.07004834714451
 20
60.049700693551593
 30
0.0
 11
127.07004834714439
 21
76.168906782596707
 31
0.0
  0
LINE
  5
A911
  8
0
 10
134.57004834714459
 20
60.049700693551593
 30
0.0
 11
134.57004834714459
 21
57.0497006935516
 31
0.0
  0
LINE
  5
A912
  8
DEFPOINTS
 10
168.57004834714459
 20
106.0497006935516
 30
0.0
 11
154.57004834714459
 21
84.049700693551586
 31
0.0
  0
LINE
  5
A913
  8
DEFPOINTS
 10
154.57004834714459
 20
84.049700693551586
 30
0.0
 11
148.82336906650971
 21
82.586909603935396
 31
0.0
  0
LINE
  5
A914
  8
DEFPOINTS
 10
134.07004834714459
 20
77.940609784460662
 30
0.0
 11
134.07004834714459
 21
77.950724964414974
 31
0.0
  0
LINE
  5
A915
  8
DEFPOINTS
 10
141.07004834714459
 20
79.722427966278843
 30
0.0
 11
141.07004834714459
 21
79.73254314623307
 31
0.0
  0
LINE
  5
A916
  8
DEFPOINTS
 10
148.07004834714459
 20
81.504246148097025
 30
0.0
 11
148.07004834714459
 21
81.617812430012449
 31
0.0
  0
LINE
  5
A917
  8
DEFPOINTS
 10
127.94379406747041
 20
77.160904694320323
 30
0.0
 11
134.07004834714459
 21
77.940609784460662
 31
0.0
  0
LINE
  5
A918
  8
DEFPOINTS
 10
134.94379406747061
 20
78.942722876138532
 30
0.0
 11
141.07004834714459
 21
79.722427966278843
 31
0.0
  0
LINE
  5
A919
  8
DEFPOINTS
 10
141.94379406747049
 20
80.724541057956728
 30
0.0
 11
148.07004834714459
 21
81.504246148097025
 31
0.0
  0
ARC
  5
A91A
  8
DEFPOINTS
 10
149.07004834714459
 20
81.617812430012449
 30
0.0
 40
1.0
 50
104.28109573597111
 51
180.0
  0
ARC
  5
A91B
  8
DEFPOINTS
 10
142.07004834714459
 20
79.73254314623307
 30
0.0
 40
1.0
 50
97.253194612725352
 51
180.0
  0
ARC
  5
A91C
  8
DEFPOINTS
 10
135.07004834714459
 20
77.950724964414903
 30
0.0
 40
1.0
 50
97.253194612725352
 51
179.9999999999979
  0
ARC
  5
A91D
  8
DEFPOINTS
 10
128.07004834714439
 20
76.168906782596707
 30
0.0
 40
1.0
 50
97.253194612725352
 51
180.0000000000004
  0
LINE
  5
A91E
  8
DEFPOINTS
 10
224.57004834714439
 20
84.049700693551586
 30
0.0
 11
154.57004834714479
 21
84.049700693551628
 31
0.0
  0
LINE
  5
A91F
  8
DEFPOINTS
 10
231.07004834714439
 20
81.504246148097025
 30
0.0
 11
148.0700483471453
 21
81.504246148097124
 31
0.0
  0
LINE
  5
A920
  8
DEFPOINTS
 10
238.07004834714439
 20
79.722427966278843
 30
0.0
 11
141.0700483471453
 21
79.722427966278929
 31
0.0
  0
LINE
  5
A921
  8
DEFPOINTS
 10
245.07004834714439
 20
77.940609784460662
 30
0.0
 11
134.0700483471455
 21
77.940609784460761
 31
0.0
  0
ARC
  5
A922
  8
DEFPOINTS
 10
251.07004834714451
 20
76.168906782596707
 30
0.0
 40
1.0
 50
359.9999999999996
 51
82.746805387274634
  0
ARC
  5
A923
  8
DEFPOINTS
 10
244.07004834714439
 20
77.950724964414903
 30
0.0
 40
1.0
 50
0.0000000000016284
 51
82.746805387274634
  0
ARC
  5
A924
  8
DEFPOINTS
 10
237.07004834714439
 20
79.73254314623307
 30
0.0
 40
1.0
 50
0.0
 51
82.746805387274634
  0
ARC
  5
A925
  8
DEFPOINTS
 10
230.07004834714439
 20
81.617812430012449
 30
0.0
 40
1.0
 50
0.0
 51
75.718904264028865
  0
LINE
  5
A926
  8
DEFPOINTS
 10
237.19630262681841
 20
80.724541057956728
 30
0.0
 11
231.07004834714439
 21
81.504246148097025
 31
0.0
  0
LINE
  5
A927
  8
DEFPOINTS
 10
244.19630262681829
 20
78.942722876138532
 30
0.0
 11
238.07004834714439
 21
79.722427966278843
 31
0.0
  0
LINE
  5
A928
  8
DEFPOINTS
 10
251.19630262681861
 20
77.160904694320323
 30
0.0
 11
245.07004834714439
 21
77.940609784460662
 31
0.0
  0
LINE
  5
A929
  8
DEFPOINTS
 10
231.07004834714439
 20
81.504246148097025
 30
0.0
 11
231.07004834714439
 21
81.617812430012449
 31
0.0
  0
LINE
  5
A92A
  8
DEFPOINTS
 10
238.07004834714439
 20
79.722427966278843
 30
0.0
 11
238.07004834714439
 21
79.73254314623307
 31
0.0
  0
LINE
  5
A92B
  8
DEFPOINTS
 10
245.07004834714439
 20
77.940609784460662
 30
0.0
 11
245.07004834714439
 21
77.950724964414974
 31
0.0
  0
LINE
  5
A92C
  8
DEFPOINTS
 10
224.57004834714439
 20
84.049700693551586
 30
0.0
 11
230.3167276277793
 21
82.586909603935396
 31
0.0
  0
LINE
  5
A92D
  8
DEFPOINTS
 10
210.57004834714451
 20
106.0497006935516
 30
0.0
 11
224.57004834714439
 21
84.049700693551586
 31
0.0
  0
LINE
  5
A92E
  8
0
 10
210.57004834714451
 20
106.0497006935516
 30
0.0
 11
168.57004834714459
 21
106.0497006935516
 31
0.0
  0
LINE
  5
A930
  8
0
 10
244.57004834714439
 20
60.049700693551593
 30
0.0
 11
244.57004834714439
 21
57.0497006935516
 31
0.0
  0
LINE
  5
A931
  8
0
 10
252.07004834714439
 20
60.049700693551593
 30
0.0
 11
252.07004834714451
 21
76.168906782596707
 31
0.0
  0
LINE
  5
A932
  8
0
 10
252.07004834714439
 20
60.049700693551593
 30
0.0
 11
127.07004834714451
 21
60.049700693551642
 31
0.0
  0
TEXT
  5
ACD1
  8
0
 62
     3
 10
0.0
 20
0.0
 30
0.0
 40
10.0
  1
LVAR125L20C
  7
STANDARD1
  0
ENDSEC
  0
EOF
