  0
SECTION
  2
HEADER
  9
$ACADVER
  1
AC1009
  9
$INSBASE
 10
0.0
 20
0.0
 30
0.0
  9
$EXTMIN
 10
0.0
 20
-2.960436562073669
 30
0.0
  9
$EXTMAX
 10
165.6631695715455
 20
354.34228790867149
 30
0.0
  9
$LIMMIN
 10
0.0
 20
0.0
  9
$LIMMAX
 10
375.0
 20
270.0
  9
$ORTHOMODE
 70
     1
  9
$REGENMODE
 70
     1
  9
$FILLMODE
 70
     1
  9
$QTEXTMODE
 70
     0
  9
$MIRRTEXT
 70
     0
  9
$DRAGMODE
 70
     2
  9
$LTSCALE
 40
6.0
  9
$OSMODE
 70
    37
  9
$ATTMODE
 70
     1
  9
$TEXTSIZE
 40
0.2
  9
$TRACEWID
 40
0.05
  9
$TEXTSTYLE
  7
STANDARD
  9
$CLAYER
  8
0
  9
$CELTYPE
  6
BYLAYER
  9
$CECOLOR
 62
   256
  9
$DIMSCALE
 40
1.0
  9
$DIMASZ
 40
3.0
  9
$DIMEXO
 40
1.0
  9
$DIMDLI
 40
6.0
  9
$DIMRND
 40
0.0
  9
$DIMDLE
 40
0.0
  9
$DIMEXE
 40
1.0
  9
$DIMTP
 40
495.0
  9
$DIMTM
 40
0.0
  9
$DIMTXT
 40
3.0
  9
$DIMCEN
 40
0.0
  9
$DIMTSZ
 40
0.0
  9
$DIMTOL
 70
     0
  9
$DIMLIM
 70
     0
  9
$DIMTIH
 70
     0
  9
$DIMTOH
 70
     0
  9
$DIMSE1
 70
     0
  9
$DIMSE2
 70
     0
  9
$DIMTAD
 70
     1
  9
$DIMZIN
 70
     0
  9
$DIMBLK
  1

  9
$DIMASO
 70
     0
  9
$DIMSHO
 70
     0
  9
$DIMPOST
  1

  9
$DIMAPOST
  1

  9
$DIMALT
 70
     0
  9
$DIMALTD
 70
     2
  9
$DIMALTF
 40
25.399999999999999
  9
$DIMLFAC
 40
1.0
  9
$DIMTOFL
 70
     1
  9
$DIMTVP
 40
0.0
  9
$DIMTIX
 70
     1
  9
$DIMSOXD
 70
     0
  9
$DIMSAH
 70
     0
  9
$DIMBLK1
  1

  9
$DIMBLK2
  1

  9
$DIMSTYLE
  2
STANDARD
  9
$DIMCLRD
 70
     0
  9
$DIMCLRE
 70
     0
  9
$DIMCLRT
 70
     4
  9
$DIMTFAC
 40
1.0
  9
$DIMGAP
 40
1.0
  9
$LUNITS
 70
     2
  9
$LUPREC
 70
     4
  9
$SKETCHINC
 40
0.1
  9
$FILLETRAD
 40
2.0
  9
$AUNITS
 70
     0
  9
$AUPREC
 70
     0
  9
$MENU
  1
C:\R13\WIN\SUPPORT\ACAD-I
  9
$ELEVATION
 40
0.0
  9
$PELEVATION
 40
0.0
  9
$THICKNESS
 40
0.0
  9
$LIMCHECK
 70
     0
  9
$BLIPMODE
 70
     0
  9
$CHAMFERA
 40
0.0
  9
$CHAMFERB
 40
0.0
  9
$SKPOLY
 70
     0
  9
$TDCREATE
 40
2451962.4237531479
  9
$TDUPDATE
 40
2456598.7199712852
  9
$TDINDWG
 40
0.1675018171
  9
$TDUSRTIMER
 40
2456598.0485902661
  9
$USRTIMER
 70
     1
  9
$ANGBASE
 50
0.0
  9
$ANGDIR
 70
     0
  9
$PDMODE
 70
     0
  9
$PDSIZE
 40
0.0
  9
$PLINEWID
 40
0.0
  9
$COORDS
 70
     1
  9
$SPLFRAME
 70
     0
  9
$SPLINETYPE
 70
     6
  9
$SPLINESEGS
 70
     8
  9
$ATTDIA
 70
     0
  9
$ATTREQ
 70
     1
  9
$HANDLING
 70
     1
  9
$HANDSEED
  5
4FEC
  9
$SURFTAB1
 70
     6
  9
$SURFTAB2
 70
     6
  9
$SURFTYPE
 70
     6
  9
$SURFU
 70
     6
  9
$SURFV
 70
     6
  9
$UCSNAME
  2

  9
$UCSORG
 10
0.0
 20
0.0
 30
0.0
  9
$UCSXDIR
 10
1.0
 20
0.0
 30
0.0
  9
$UCSYDIR
 10
0.0
 20
1.0
 30
0.0
  9
$PUCSNAME
  2

  9
$PUCSORG
 10
0.0
 20
0.0
 30
0.0
  9
$PUCSXDIR
 10
1.0
 20
0.0
 30
0.0
  9
$PUCSYDIR
 10
0.0
 20
1.0
 30
0.0
  9
$USERI1
 70
     4
  9
$USERI2
 70
     1
  9
$USERI3
 70
     0
  9
$USERI4
 70
     0
  9
$USERI5
 70
     0
  9
$USERR1
 40
1.0
  9
$USERR2
 40
3.0
  9
$USERR3
 40
3.0
  9
$USERR4
 40
3.0
  9
$USERR5
 40
10.0
  9
$WORLDVIEW
 70
     1
  9
$SHADEDGE
 70
     3
  9
$SHADEDIF
 70
    70
  9
$TILEMODE
 70
     1
  9
$MAXACTVP
 70
    16
  9
$PLIMCHECK
 70
     0
  9
$PEXTMIN
 10
1.0000000000000000E+020
 20
1.0000000000000000E+020
 30
1.0000000000000000E+020
  9
$PEXTMAX
 10
-1.0000000000000000E+020
 20
-1.0000000000000000E+020
 30
-1.0000000000000000E+020
  9
$PLIMMIN
 10
0.0
 20
0.0
  9
$PLIMMAX
 10
12.0
 20
9.0
  9
$UNITMODE
 70
     0
  9
$VISRETAIN
 70
     0
  9
$PLINEGEN
 70
     0
  9
$PSLTSCALE
 70
     0
  0
ENDSEC
  0
SECTION
  2
TABLES
  0
TABLE
  2
VPORT
 70
     1
  0
VPORT
  2
*ACTIVE
 70
     0
 10
0.0
 20
0.0
 11
1.0
 21
1.0
 12
187.4942783906524
 22
226.68415546085069
 13
0.0
 23
0.0
 14
10.0
 24
10.0
 15
10.0
 25
10.0
 16
0.0
 26
0.0
 36
1.0
 17
0.0
 27
0.0
 37
0.0
 40
463.31894598199381
 41
1.755244755244755
 42
50.0
 43
0.0
 44
0.0
 50
0.0
 51
0.0
 71
    16
 72
   100
 73
     1
 74
     0
 75
     0
 76
     0
 77
     0
 78
     0
  0
ENDTAB
  0
TABLE
  2
LTYPE
 70
     3
  0
LTYPE
  2
CONTINUOUS
 70
     0
  3
Solid Line
 72
    65
 73
     0
 40
0.0
  0
LTYPE
  2
PHANTOM2
 70
     0
  3
___ _ _ ___ _ _ ___ _ _ ___ _ _
 72
    65
 73
     6
 40
1.25
 49
0.625
 49
-0.125
 49
0.125
 49
-0.125
 49
0.125
 49
-0.125
  0
LTYPE
  2
CENTER
 70
     0
  3
____ _ ____ _ ____ _ ____ _ ____ _ ____ _ ____
 72
    65
 73
     4
 40
2.0
 49
1.25
 49
-0.25
 49
0.25
 49
-0.25
  0
ENDTAB
  0
TABLE
  2
LAYER
 70
     3
  0
LAYER
  2
0
 70
     0
 62
     7
  6
CONTINUOUS
  0
LAYER
  2
1
 70
     0
 62
     1
  6
CENTER
  0
LAYER
  2
3
 70
     0
 62
     3
  6
CONTINUOUS
  0
ENDTAB
  0
TABLE
  2
STYLE
 70
     3
  0
STYLE
  2
STANDARD
 70
     0
 40
0.0
 41
1.0
 50
0.0
 71
     0
 42
0.2
  3
SIMPLEX
  4
BIGFONT
  0
STYLE
  2
ANNOTATIVE
 70
     0
 40
0.0
 41
1.0
 50
0.0
 71
     0
 42
0.2
  3
txt
  4

  0
STYLE
  2
STANDARD1
 70
     0
 40
0.0
 41
1.0
 50
0.0
 71
     0
 42
3.0
  3
txt
  4

  0
ENDTAB
  0
TABLE
  2
VIEW
 70
     0
  0
ENDTAB
  0
TABLE
  2
UCS
 70
     0
  0
ENDTAB
  0
TABLE
  2
APPID
 70
    29
  0
APPID
  2
ACAD
 70
     0
  0
APPID
  2
ACADANNOTATIVE
 70
     0
  0
APPID
  2
GENIUS_GENOREF_13
 70
     0
  0
APPID
  2
GENIUS_GENOENT_13
 70
     0
  0
APPID
  2
GENIUS_GENBH_13
 70
     0
  0
APPID
  2
GENIUS_GENOBJ_13
 70
     0
  0
APPID
  2
GENIUS_GENODEF_13
 70
     0
  0
APPID
  2
GENIUS_GENOLIS_13
 70
     0
  0
APPID
  2
GENIUS_GENOBJ-NBEHI-BHF_13
 70
     0
  0
APPID
  2
GENIUS_GENOBJ-NBEHI-BHB_13
 70
     0
  0
APPID
  2
GENIUS_GENOBJ-F-PART_13
 70
     0
  0
APPID
  2
GENIUS_GEFSTDP_13
 70
     0
  0
APPID
  2
GENIUS_GENOBJ-N-RSSYM_13
 70
     0
  0
APPID
  2
GENIUS_GENSYMENT_13
 70
     0
  0
APPID
  2
GENIUS_GENOBJ-N-TIT_13
 70
     0
  0
APPID
  2
GENIUS_GENTITLE_13
 70
     0
  0
APPID
  2
GENIUS_GENZVEED_13
 70
     0
  0
APPID
  2
GENIUS_GENOBJ-N-LEADER_13
 70
     0
  0
APPID
  2
GENIUS_GENOBJ-N-FIL_13
 70
     0
  0
APPID
  2
GENIUS_GENOBJ-N-SEC_13
 70
     0
  0
APPID
  2
GENIUS_GENOBJ-N-CRS_13
 70
     0
  0
APPID
  2
GENIUS_GENOBJ-N-ZOO_13
 70
     0
  0
APPID
  2
GENIUS_GENZOO_13
 70
     0
  0
APPID
  2
GENIUS_GENOBJ-F-TOL_13
 70
     0
  0
APPID
  2
GENIUS_GENFIL_13
 70
     0
  0
APPID
  2
GENIUS_GENOBJ-N-CHA_13
 70
     0
  0
APPID
  2
ACAD_EXEMPT_FROM_CAD_STANDARDS
 70
     0
  0
APPID
  2
ACAD_MLEADERVER
 70
     0
  0
APPID
  2
ACAD_NAV_VCDISPLAY
 70
     0
  0
ENDTAB
  0
TABLE
  2
DIMSTYLE
 70
     2
  0
DIMSTYLE
  2
STANDARD
 70
     0
  3

  4

  5

  6

  7

 40
1.0
 41
0.18
 42
0.0625
 43
0.38
 44
0.18
 45
0.0
 46
0.0
 47
0.0
 48
0.0
140
0.18
141
0.09
142
0.0
143
25.399999999999999
144
1.0
145
0.0
146
1.0
147
0.09
 71
     0
 72
     0
 73
     1
 74
     1
 75
     0
 76
     0
 77
     0
 78
     0
170
     0
171
     2
172
     0
173
     0
174
     0
175
     0
176
     0
177
     0
178
     0
  0
DIMSTYLE
  2
ANNOTATIVE
 70
     0
  3

  4

  5

  6

  7

 40
1.0
 41
0.18
 42
0.0625
 43
0.38
 44
0.18
 45
0.0
 46
0.0
 47
0.0
 48
0.0
140
0.18
141
0.09
142
0.0
143
25.399999999999999
144
1.0
145
0.0
146
1.0
147
0.09
 71
     0
 72
     0
 73
     1
 74
     1
 75
     0
 76
     0
 77
     0
 78
     0
170
     0
171
     2
172
     0
173
     0
174
     0
175
     0
176
     0
177
     0
178
     0
  0
ENDTAB
  0
ENDSEC
  0
SECTION
  2
BLOCKS
  0
BLOCK
  8
0
  2
$MODEL_SPACE
 70
     0
 10
0.0
 20
0.0
 30
0.0
  3
$MODEL_SPACE
  1

  0
ENDBLK
  5
4EB3
  8
0
  0
BLOCK
 67
     1
  8
0
  2
$PAPER_SPACE
 70
     0
 10
0.0
 20
0.0
 30
0.0
  3
$PAPER_SPACE
  1

  0
ENDBLK
  5
4EAF
 67
     1
  8
0
  0
ENDSEC
  0
SECTION
  2
ENTITIES
  0
ARC
  5
4A9F
  8
0
 10
107.6631695715455
 20
36.151899793158293
 30
0.0
 40
2.0
 50
120.9637565320735
 51
180.0000000000004
  0
LINE
  5
4AA0
  8
1
 10
44.479366854230648
 20
273.28428055109828
 30
0.0
 11
44.479366854230648
 21
19.284280551097709
 31
0.0
  0
LINE
  5
4AA1
  8
1
 10
135.6631695715455
 20
273.28428055109828
 30
0.0
 11
135.6631695715455
 21
19.284280551097709
 31
0.0
  0
ARC
  5
4AA2
  8
0
 10
44.479366854231777
 20
319.34228790867161
 30
0.0
 40
20.00000000000006
 50
244.1580671405429
 51
295.84193285945707
  0
ARC
  5
4AA3
  8
0
 10
44.479366854231777
 20
319.34228790867161
 30
0.0
 40
20.00000000000006
 50
304.1580671405311
 51
355.84193285948948
  0
ARC
  5
4AA4
  8
0
 10
44.479366854231777
 20
319.34228790867161
 30
0.0
 40
20.00000000000006
 50
124.1580671405103
 51
175.84193285951039
  0
ARC
  5
4AA5
  8
0
 10
44.479366854231777
 20
319.34228790867161
 30
0.0
 40
20.00000000000006
 50
64.158067140505921
 51
115.84193285949399
  0
ARC
  5
4AA6
  8
0
 10
44.479366854231777
 20
319.34228790867161
 30
0.0
 40
20.00000000000006
 50
184.15806714057121
 51
235.8419328594828
  0
CIRCLE
  5
4AA7
  8
3
 10
44.479366854231777
 20
319.34228790867161
 30
0.0
 40
10.375999999999999
  0
CIRCLE
  5
4AA8
  8
0
 10
44.479366854231777
 20
319.34228790867161
 30
0.0
 40
12.0
  0
CIRCLE
  5
4AA9
  8
0
 10
44.479366854231777
 20
319.34228790867161
 30
0.0
 40
17.0
  0
LINE
  5
4AAA
  8
0
 10
54.87167169119175
 20
301.3422879233226
 30
0.0
 11
34.087062000366601
 21
301.3422879233226
 31
0.0
  0
LINE
  5
4AAB
  8
0
 10
34.087062017274093
 20
301.34228792333721
 30
0.0
 11
23.694757171857869
 21
319.34228792332271
 31
0.0
  0
LINE
  5
4AAC
  8
0
 10
23.694757180330718
 20
319.34228790866882
 30
0.0
 11
34.087062025739669
 21
337.34228790866882
 31
0.0
  0
LINE
  5
4AAD
  8
0
 10
34.087062017285007
 20
337.34228789401487
 30
0.0
 11
54.871671708110171
 21
337.34228789401487
 31
0.0
  0
LINE
  5
4AAE
  8
0
 10
54.871671691189931
 20
337.34228789401487
 30
0.0
 11
65.263976536606151
 21
319.34228789401487
 31
0.0
  0
LINE
  5
4AAF
  8
0
 10
65.263976528133284
 20
319.34228790866882
 30
0.0
 11
54.87167168272434
 21
301.34228790866882
 31
0.0
  0
ARC
  5
4AB1
  8
0
 10
135.66316957154569
 20
44.963141168836799
 30
0.0
 40
12.25
 50
31.065080896358221
 51
46.062160114254198
  0
ARC
  5
4AB2
  8
0
 10
135.66316957154569
 20
44.963141168836799
 30
0.0
 40
12.25
 50
133.9378398857456
 51
148.93491910364179
  0
LINE
  5
4AB3
  8
0
 10
127.16316957154569
 20
60.284280551039338
 30
0.0
 11
127.16316957154569
 21
53.784280551053428
 31
0.0
  0
LINE
  5
4AB4
  8
0
 10
144.16316957154569
 20
60.284280551039338
 30
0.0
 11
144.16316957154569
 21
53.78428055102524
 31
0.0
  0
LINE
  5
4AB5
  8
0
 10
126.6631695715455
 20
268.28428055109862
 30
0.0
 11
144.6631695715455
 21
268.28428055109828
 31
0.0
  0
LINE
  5
4AB6
  8
0
 10
147.6631695715455
 20
69.99560541647233
 30
0.0
 11
147.6631695715455
 21
94.284280551098149
 31
0.0
  0
LINE
  5
4AB7
  8
3
 10
146.03916957154519
 20
75.284280551098149
 30
0.0
 11
146.03916957154519
 21
94.284280551097709
 31
0.0
  0
LINE
  5
4AB8
  8
3
 10
125.28716957154531
 20
75.284280551098149
 30
0.0
 11
125.28716957154531
 21
94.284280551098149
 31
0.0
  0
LINE
  5
4AB9
  8
0
 10
123.6631695715455
 20
69.9956054164101
 30
0.0
 11
123.6631695715455
 21
94.284280551098149
 31
0.0
  0
LINE
  5
4ABA
  8
0
 10
123.6631695715455
 20
265.28428055109862
 30
0.0
 11
126.6631695715455
 21
268.28428055109862
 31
0.0
  0
LINE
  5
4ABB
  8
0
 10
144.6631695715455
 20
268.28428055109828
 30
0.0
 11
147.6631695715455
 21
265.28428055109811
 31
0.0
  0
LINE
  5
4ABC
  8
0
 10
123.6631695715455
 20
265.28428055109862
 30
0.0
 11
147.6631695715455
 21
265.28428055109811
 31
0.0
  0
LINE
  5
4ABD
  8
0
 10
147.6631695715455
 20
75.284280551098149
 30
0.0
 11
123.6631695715455
 21
75.284280551098149
 31
0.0
  0
LINE
  5
4ABE
  8
3
 10
125.28716957154531
 20
75.284280551098149
 30
0.0
 11
123.6631695715455
 21
72.471430039606247
 31
0.0
  0
LINE
  5
4ABF
  8
3
 10
146.03916957154519
 20
75.284280551098149
 30
0.0
 11
147.66316957154521
 21
72.471430039606247
 31
0.0
  0
LINE
  5
4AC0
  8
0
 10
147.16316957149161
 20
60.284280551098249
 30
0.0
 11
124.1631695717071
 21
60.284280551098249
 31
0.0
  0
LINE
  5
4AC1
  8
0
 10
124.1631695715994
 20
70.284280551098249
 30
0.0
 11
147.16316957149161
 21
70.284280551098249
 31
0.0
  0
ARC
  5
4AC2
  8
0
 10
146.0554744170129
 20
63.861630820812572
 30
0.0
 40
6.1339745957208196
 50
64.384247469840346
 51
124.3842474712086
  0
LINE
  5
4AC3
  8
0
 10
149.51957603217241
 20
68.923808646704032
 30
0.0
 11
147.16316957149161
 21
70.284280551098249
 31
0.0
  0
LINE
  5
4AC4
  8
0
 10
149.51957603217241
 20
61.644752455492473
 30
0.0
 11
147.16316957149161
 21
60.284280551098249
 31
0.0
  0
ARC
  5
4AC5
  8
0
 10
146.0554744170129
 20
66.706930281383933
 30
0.0
 40
6.1339745957208196
 50
235.6157525287887
 51
295.61575253015968
  0
LINE
  5
4AC6
  8
0
 10
149.5195760321505
 20
68.923808646704032
 30
0.0
 11
149.5195760321505
 21
61.644752455479718
 31
0.0
  0
LINE
  5
4AC7
  8
0
 10
142.59137280187471
 20
68.923808646704032
 30
0.0
 11
142.59137280187471
 21
61.644752455492473
 31
0.0
  0
LINE
  5
4AC8
  8
0
 10
128.734966341324
 20
68.923808646704032
 30
0.0
 11
128.734966341324
 21
61.644752455492473
 31
0.0
  0
LINE
  5
4AC9
  8
0
 10
121.8067631110482
 20
68.923808646704032
 30
0.0
 11
121.8067631110482
 21
61.644752455479718
 31
0.0
  0
ARC
  5
4ACA
  8
0
 10
135.66316957159941
 20
83.501158913802641
 30
0.0
 40
22.928203228139491
 50
252.412046224314
 51
287.58795377568589
  0
ARC
  5
4ACB
  8
0
 10
125.27086472618591
 20
66.706930281383933
 30
0.0
 40
6.1339745957208196
 50
244.38424746984029
 51
304.38424747121121
  0
LINE
  5
4ACC
  8
0
 10
121.8067631110264
 20
61.644752455492473
 30
0.0
 11
124.1631695717071
 21
60.284280551098249
 31
0.0
  0
LINE
  5
4ACD
  8
0
 10
121.8067631110264
 20
68.923808646704032
 30
0.0
 11
124.1631695717071
 21
70.284280551098249
 31
0.0
  0
ARC
  5
4ACE
  8
0
 10
125.27086472618591
 20
63.861630820812572
 30
0.0
 40
6.1339745957208196
 50
55.615752528791369
 51
115.6157525301595
  0
ARC
  5
4ACF
  8
0
 10
135.66316957159941
 20
47.067402188393842
 30
0.0
 40
22.928203228139491
 50
72.412046224314111
 51
107.5879537756858
  0
LINE
  5
4AD0
  8
0
 10
127.16316957154569
 20
53.78428055102524
 30
0.0
 11
144.16316957154569
 21
53.78428055102524
 31
0.0
  0
LINE
  5
4AD1
  8
0
 10
117.6631695861961
 20
112.7069302903669
 30
0.0
 11
117.6631695861961
 21
94.861630811828917
 31
0.0
  0
LINE
  5
4AD2
  8
0
 10
118.6631695715455
 20
113.28428055109769
 30
0.0
 11
117.6631695861961
 21
112.7069302903669
 31
0.0
  0
ARC
  5
4AD3
  8
0
 10
126.66316957887049
 20
86.711739783054782
 30
0.0
 40
25.995190507312159
 50
69.743841999652673
 51
110.2561580003473
  0
ARC
  5
4AD4
  8
0
 10
126.66316957887049
 20
120.8568213191411
 30
0.0
 40
25.995190507312159
 50
249.74384199965269
 51
290.25615800034728
  0
LINE
  5
4AD5
  8
0
 10
118.6631695715455
 20
94.284280551097709
 30
0.0
 11
117.6631695861961
 21
94.861630811828917
 31
0.0
  0
LINE
  5
4AD6
  8
0
 10
152.6631695715449
 20
94.284280551097709
 30
0.0
 11
153.66316955689439
 21
94.861630811828917
 31
0.0
  0
ARC
  5
4AD7
  8
0
 10
144.66316956421991
 20
120.8568213191411
 30
0.0
 40
25.995190507312159
 50
249.7438419996526
 51
290.25615800034728
  0
ARC
  5
4AD8
  8
0
 10
144.66316956421991
 20
86.711739783054782
 30
0.0
 40
25.995190507312159
 50
69.743841999652673
 51
110.2561580003472
  0
LINE
  5
4AD9
  8
0
 10
152.6631695715449
 20
113.28428055109769
 30
0.0
 11
153.66316955689439
 21
112.7069302903669
 31
0.0
  0
LINE
  5
4ADA
  8
0
 10
118.6631695715455
 20
113.28428055109769
 30
0.0
 11
152.6631695715449
 21
113.28428055109769
 31
0.0
  0
LINE
  5
4ADB
  8
0
 10
153.66316955689439
 20
112.7069302903669
 30
0.0
 11
153.66316955689439
 21
94.861630811828917
 31
0.0
  0
LINE
  5
4ADC
  8
0
 10
118.6631695715455
 20
94.284280551097709
 30
0.0
 11
152.6631695715449
 21
94.284280551097709
 31
0.0
  0
LINE
  5
4ADD
  8
0
 10
135.66316957154521
 20
111.0992351370946
 30
0.0
 11
135.66316957154521
 21
96.469325965101675
 31
0.0
  0
LINE
  5
4ADE
  8
0
 10
147.6631695715455
 20
113.28428055109769
 30
0.0
 11
147.6631695715455
 21
265.28428055109811
 31
0.0
  0
LINE
  5
4ADF
  8
3
 10
146.03916957154519
 20
113.28428055109769
 30
0.0
 11
146.03916957154519
 21
266.90828055109841
 31
0.0
  0
LINE
  5
4AE0
  8
0
 10
123.6631695715455
 20
113.28428055109769
 30
0.0
 11
123.6631695715455
 21
265.28428055109862
 31
0.0
  0
LINE
  5
4AE1
  8
3
 10
125.28716957154531
 20
113.28428055109769
 30
0.0
 11
125.28716957154531
 21
266.90828055109841
 31
0.0
  0
LINE
  5
4AE2
  8
3
 10
54.855366854230851
 20
75.284280551097694
 30
0.0
 11
56.479366854230648
 21
72.471430039605821
 31
0.0
  0
LINE
  5
4AE3
  8
3
 10
34.103366854230892
 20
75.284280551097694
 30
0.0
 11
32.479366854230648
 21
72.471430039605821
 31
0.0
  0
LINE
  5
4AE4
  8
0
 10
56.479366854230648
 20
75.284280551097694
 30
0.0
 11
32.479366854230648
 21
75.284280551097694
 31
0.0
  0
LINE
  5
4AE5
  8
0
 10
32.479366854230648
 20
265.28428055109862
 30
0.0
 11
56.479366854230648
 21
265.28428055109771
 31
0.0
  0
LINE
  5
4AE6
  8
0
 10
53.479366854230641
 20
268.28428055109759
 30
0.0
 11
56.479366854230648
 21
265.28428055109771
 31
0.0
  0
LINE
  5
4AE7
  8
0
 10
32.479366854230648
 20
265.28428055109862
 30
0.0
 11
35.479366854230648
 21
268.28428055109828
 31
0.0
  0
LINE
  5
4AE8
  8
0
 10
32.479366854230648
 20
69.995605416484025
 30
0.0
 11
32.479366854230648
 21
94.284280551097709
 31
0.0
  0
LINE
  5
4AE9
  8
3
 10
34.103366854230892
 20
75.284280551097694
 30
0.0
 11
34.103366854230892
 21
94.284280551097709
 31
0.0
  0
LINE
  5
4AEA
  8
3
 10
54.855366854230851
 20
75.284280551097694
 30
0.0
 11
54.855366854230851
 21
94.284280551097709
 31
0.0
  0
LINE
  5
4AEB
  8
0
 10
56.479366854230648
 20
69.995605416522324
 30
0.0
 11
56.479366854230648
 21
94.284280551097709
 31
0.0
  0
LINE
  5
4AEC
  8
0
 10
35.479366854230648
 20
268.28428055109828
 30
0.0
 11
53.479366854230641
 21
268.28428055109759
 31
0.0
  0
LINE
  5
4AED
  8
0
 10
52.979366854230641
 20
60.284280551040411
 30
0.0
 11
52.979366854230641
 21
53.784280551026747
 31
0.0
  0
LINE
  5
4AEE
  8
0
 10
35.979366854230648
 20
60.284280551040411
 30
0.0
 11
35.979366854230648
 21
53.784280551054962
 31
0.0
  0
LINE
  5
4AEF
  8
0
 10
55.97936685426383
 20
60.284280551021311
 30
0.0
 11
32.979366854197451
 21
60.284280551059503
 31
0.0
  0
LINE
  5
4AF0
  8
0
 10
32.979366854197451
 20
70.28428055105951
 30
0.0
 11
55.97936685426383
 21
70.284280551098163
 31
0.0
  0
ARC
  5
4AF1
  8
0
 10
38.479366854263851
 20
52.665478399161202
 30
0.0
 40
17.330127017333279
 50
69.74384199763081
 51
110.2561580023692
  0
LINE
  5
4AF2
  8
0
 10
32.479366854248838
 20
69.995605416494527
 30
0.0
 11
32.979366854263837
 21
70.284280551098163
 31
0.0
  0
LINE
  5
4AF3
  8
0
 10
32.479366854248838
 20
60.572955685624493
 30
0.0
 11
32.979366854263837
 21
60.284280551021311
 31
0.0
  0
ARC
  5
4AF4
  8
0
 10
38.479366854263851
 20
77.903082702957789
 30
0.0
 40
17.330127017333279
 50
249.74384199763071
 51
290.2561580023692
  0
LINE
  5
4AF5
  8
0
 10
32.479366854248838
 20
69.995605416494527
 30
0.0
 11
32.479366854263851
 21
60.572955685616307
 31
0.0
  0
LINE
  5
4AF6
  8
0
 10
44.47936685426383
 20
61.644752455453713
 30
0.0
 11
44.47936685426383
 21
68.923808646665293
 31
0.0
  0
LINE
  5
4AF7
  8
0
 10
56.479366854278851
 20
69.995605416494527
 30
0.0
 11
56.47936685426383
 21
60.572955685616307
 31
0.0
  0
ARC
  5
4AF8
  8
0
 10
50.479366854263837
 20
77.903082702957789
 30
0.0
 40
17.330127017333279
 50
249.74384199763071
 51
290.2561580023692
  0
LINE
  5
4AF9
  8
0
 10
56.479366854278851
 20
60.572955685624493
 30
0.0
 11
55.97936685426383
 21
60.284280551021311
 31
0.0
  0
LINE
  5
4AFA
  8
0
 10
56.479366854278851
 20
69.995605416494527
 30
0.0
 11
55.97936685426383
 21
70.284280551098163
 31
0.0
  0
ARC
  5
4AFB
  8
0
 10
50.479366854263837
 20
52.665478399161202
 30
0.0
 40
17.330127017333279
 50
69.74384199763081
 51
110.2561580023692
  0
LINE
  5
4AFE
  8
0
 10
65.263976528129774
 20
111.0992351370946
 30
0.0
 11
65.263976528129774
 21
96.469325965101262
 31
0.0
  0
LINE
  5
4AFF
  8
0
 10
61.479366854230527
 20
113.28428055109769
 30
0.0
 11
65.263976528129774
 21
111.0992351370946
 31
0.0
  0
ARC
  5
4B00
  8
0
 10
60.067824109654893
 20
103.50596840351319
 30
0.0
 40
9.2009618868538041
 50
64.384247467930564
 51
124.384247467937
  0
ARC
  5
4B01
  8
0
 10
60.067824109654893
 20
104.06259269868271
 30
0.0
 40
9.2009618868538041
 50
235.61575253206291
 51
295.61575253206951
  0
LINE
  5
4B02
  8
0
 10
61.479366854230527
 20
94.284280551097709
 30
0.0
 11
65.263976528129774
 21
96.469325965101262
 31
0.0
  0
LINE
  5
4B03
  8
0
 10
27.479366854230761
 20
94.284280551097709
 30
0.0
 11
23.694757180331521
 21
96.469325965101262
 31
0.0
  0
ARC
  5
4B04
  8
0
 10
28.890909598806392
 20
104.06259269868271
 30
0.0
 40
9.2009618868538041
 50
244.38424746793069
 51
304.38424746793697
  0
ARC
  5
4B05
  8
0
 10
44.47936685423258
 20
129.25393562934551
 30
0.0
 40
34.392304817516766
 50
252.41204622606821
 51
287.58795377393329
  0
ARC
  5
4B06
  8
0
 10
28.890909598806392
 20
103.50596840351319
 30
0.0
 40
9.2009618868538041
 50
55.615752532062963
 51
115.61575253206939
  0
ARC
  5
4B07
  8
0
 10
44.47936685423258
 20
78.314625472849883
 30
0.0
 40
34.392304817516766
 50
72.41204622606665
 51
107.58795377393329
  0
LINE
  5
4B08
  8
0
 10
54.871671691183892
 20
111.0992351370946
 30
0.0
 11
54.871671691183892
 21
96.469325965101262
 31
0.0
  0
LINE
  5
4B09
  8
0
 10
34.087062017281482
 20
111.0992351370946
 30
0.0
 11
34.087062017281482
 21
96.469325965101262
 31
0.0
  0
LINE
  5
4B0A
  8
0
 10
27.479366854230761
 20
113.28428055109769
 30
0.0
 11
23.694757180331521
 21
111.0992351370946
 31
0.0
  0
LINE
  5
4B0B
  8
0
 10
23.694757180331521
 20
111.0992351370946
 30
0.0
 11
23.694757180331521
 21
96.469325965101262
 31
0.0
  0
LINE
  5
4B0C
  8
0
 10
27.479366854230761
 20
94.284280551097709
 30
0.0
 11
61.479366854230527
 21
94.284280551097709
 31
0.0
  0
LINE
  5
4B0D
  8
0
 10
27.479366854230761
 20
113.28428055109769
 30
0.0
 11
61.479366854230527
 21
113.28428055109769
 31
0.0
  0
LINE
  5
4B0E
  8
0
 10
56.479366854230648
 20
113.28428055109769
 30
0.0
 11
56.479366854230648
 21
265.28428055109771
 31
0.0
  0
LINE
  5
4B0F
  8
3
 10
54.855366854230851
 20
113.28428055109769
 30
0.0
 11
54.855366854230851
 21
266.90828055109802
 31
0.0
  0
LINE
  5
4B10
  8
3
 10
34.103366854230892
 20
113.28428055109769
 30
0.0
 11
34.103366854230892
 21
266.90828055109841
 31
0.0
  0
LINE
  5
4B11
  8
0
 10
32.479366854230648
 20
113.28428055109769
 30
0.0
 11
32.479366854230648
 21
265.28428055109862
 31
0.0
  0
ARC
  5
4B34
  8
0
 10
163.6631695715455
 20
36.151899793158293
 30
0.0
 40
2.0
 50
359.9999999999996
 51
59.036243467926127
  0
ARC
  5
4B35
  8
0
 10
158.66316957154521
 20
41.151899793158293
 30
0.0
 40
2.0
 50
0.0
 51
59.036243467926028
  0
ARC
  5
4B36
  8
0
 10
153.66316957154521
 20
45.930214628242361
 30
0.0
 40
2.0
 50
359.9999999999992
 51
68.198590513648639
  0
ARC
  5
4B37
  8
0
 10
148.6631695715455
 20
49.284280551096629
 30
0.0
 40
2.0
 50
0.0000000000008142
 51
90.0
  0
LINE
  5
4B38
  8
0
 10
160.66316957154521
 20
40.284280551096181
 30
0.0
 11
164.69216108240039
 21
37.866885644583647
 31
0.0
  0
LINE
  5
4B39
  8
0
 10
150.6631695715455
 20
49.284280551096167
 30
0.0
 11
150.6631695715455
 21
49.284280551096629
 31
0.0
  0
LINE
  5
4B3A
  8
0
 10
122.6631695715455
 20
51.284280551096629
 30
0.0
 11
148.6631695715455
 21
51.284280551096629
 31
0.0
  0
LINE
  5
4B3B
  8
0
 10
150.6631695715455
 20
49.284280551096167
 30
0.0
 11
154.4059509242536
 21
47.787168010013211
 31
0.0
  0
LINE
  5
4B3C
  8
0
 10
155.6631695715455
 20
45.284280551096181
 30
0.0
 11
159.69216108240039
 21
42.866885644583647
 31
0.0
  0
LINE
  5
4B3D
  8
0
 10
160.66316957154521
 20
40.284280551096181
 30
0.0
 11
160.66316957154521
 21
41.151899793158293
 31
0.0
  0
LINE
  5
4B3E
  8
0
 10
155.6631695715455
 20
45.284280551096181
 30
0.0
 11
155.6631695715451
 21
45.930214628242361
 31
0.0
  0
LINE
  5
4B3F
  8
0
 10
120.6631695715455
 20
49.284280551096629
 30
0.0
 11
150.66316957154521
 21
49.284280551096629
 31
0.0
  0
LINE
  5
4B40
  8
0
 10
115.6631695715455
 20
45.284280551096629
 30
0.0
 11
155.6631695715455
 21
45.284280551096181
 31
0.0
  0
LINE
  5
4B41
  8
0
 10
110.66316957154569
 20
40.284280551096629
 30
0.0
 11
160.66316957154521
 21
40.284280551096181
 31
0.0
  0
LINE
  5
4B42
  8
0
 10
165.1631695715451
 20
24.28428055109617
 30
0.0
 11
165.1631695715451
 21
27.284280551096629
 31
0.0
  0
LINE
  5
4B43
  8
0
 10
106.1631695715455
 20
24.284280551096629
 30
0.0
 11
165.1631695715451
 21
24.28428055109617
 31
0.0
  0
LINE
  5
4B44
  8
0
 10
106.1631695715455
 20
27.284280551096629
 30
0.0
 11
165.1631695715451
 21
27.284280551096629
 31
0.0
  0
LINE
  5
4B45
  8
0
 10
165.6631695715453
 20
27.784280551096629
 30
0.0
 11
165.6631695715455
 21
36.151899793158293
 31
0.0
  0
LINE
  5
4B46
  8
0
 10
165.6631695715453
 20
27.784280551096629
 30
0.0
 11
165.1631695715451
 21
27.284280551096629
 31
0.0
  0
CIRCLE
  5
4B47
  8
0
 10
44.479366854231777
 20
319.34228790867161
 30
0.0
 40
30.0
  0
CIRCLE
  5
4B48
  8
0
 10
44.479366854231777
 20
319.34228790867161
 30
0.0
 40
25.0
  0
ARC
  5
4B49
  8
0
 10
44.479366854231777
 20
319.34228790867161
 30
0.0
 40
20.00000000000006
 50
4.1580671405607648
 51
55.841932859453458
  0
LINE
  5
4B4A
  8
1
 10
44.479366854231777
 20
354.34228790867149
 30
0.0
 11
44.479366854231777
 21
284.34228790867161
 31
0.0
  0
LINE
  5
4B4B
  8
1
 10
79.47936685423177
 20
319.34228790867161
 30
0.0
 11
9.4793668542317846
 21
319.34228790867161
 31
0.0
  0
LINE
  5
4B59
  8
0
 10
105.66316957154569
 20
27.784280551096629
 30
0.0
 11
106.16316957154569
 21
27.284280551096629
 31
0.0
  0
LINE
  5
4B5A
  8
0
 10
105.66316957154569
 20
27.784280551096629
 30
0.0
 11
105.6631695715455
 21
36.151899793158293
 31
0.0
  0
LINE
  5
4B5B
  8
0
 10
106.16316957154569
 20
24.28428055109617
 30
0.0
 11
106.16316957154569
 21
27.284280551096629
 31
0.0
  0
LINE
  5
4B5C
  8
0
 10
115.6631695715455
 20
45.284280551096181
 30
0.0
 11
115.66316957154569
 21
45.930214628242361
 31
0.0
  0
LINE
  5
4B5D
  8
0
 10
110.66316957154569
 20
40.284280551096181
 30
0.0
 11
110.66316957154569
 21
41.151899793158293
 31
0.0
  0
LINE
  5
4B5E
  8
0
 10
115.6631695715455
 20
45.284280551096181
 30
0.0
 11
111.6341780606906
 21
42.866885644583647
 31
0.0
  0
LINE
  5
4B5F
  8
0
 10
120.6631695715455
 20
49.284280551096167
 30
0.0
 11
116.9203882188374
 21
47.787168010013211
 31
0.0
  0
LINE
  5
4B60
  8
0
 10
120.6631695715455
 20
49.284280551096167
 30
0.0
 11
120.6631695715455
 21
49.284280551096629
 31
0.0
  0
LINE
  5
4B61
  8
0
 10
110.66316957154569
 20
40.284280551096181
 30
0.0
 11
106.6341780606906
 21
37.866885644583647
 31
0.0
  0
ARC
  5
4B62
  8
0
 10
122.6631695715455
 20
49.284280551096629
 30
0.0
 40
2.0
 50
90.0
 51
179.9999999999992
  0
ARC
  5
4B63
  8
0
 10
117.66316957154569
 20
45.930214628242361
 30
0.0
 40
2.0
 50
111.8014094863517
 51
180.0000000000008
  0
ARC
  5
4B64
  8
0
 10
112.66316957154569
 20
41.151899793158293
 30
0.0
 40
2.0
 50
120.963756532074
 51
180.0
  0
ARC
  5
4C53
  8
0
 10
21.479366854176991
 20
41.151899793100441
 30
0.0
 40
2.0
 50
120.9637565320738
 51
180.0
  0
ARC
  5
4C54
  8
0
 10
26.479366854176991
 20
45.93021462818453
 30
0.0
 40
2.0
 50
111.8014094863516
 51
180.0000000000008
  0
ARC
  5
4C55
  8
0
 10
31.47936685417676
 20
49.28428055103879
 30
0.0
 40
2.0
 50
90.0
 51
179.9999999999992
  0
LINE
  5
4C56
  8
0
 10
19.479366854176991
 20
40.284280551038329
 30
0.0
 11
15.450375343321859
 21
37.866885644525809
 31
0.0
  0
LINE
  5
4C57
  8
0
 10
29.47936685417676
 20
49.284280551038329
 30
0.0
 11
29.47936685417676
 21
49.28428055103879
 31
0.0
  0
LINE
  5
4C58
  8
0
 10
29.47936685417676
 20
49.284280551038329
 30
0.0
 11
25.73658550146865
 21
47.787168009955359
 31
0.0
  0
LINE
  5
4C59
  8
0
 10
24.47936685417676
 20
45.284280551038343
 30
0.0
 11
20.45037534332188
 21
42.866885644525809
 31
0.0
  0
LINE
  5
4C5A
  8
0
 10
19.479366854176991
 20
40.284280551038329
 30
0.0
 11
19.479366854176991
 21
41.151899793100441
 31
0.0
  0
LINE
  5
4C5B
  8
0
 10
24.47936685417676
 20
45.284280551038343
 30
0.0
 11
24.479366854176991
 21
45.93021462818453
 31
0.0
  0
LINE
  5
4C5C
  8
0
 10
14.97936685417698
 20
24.284280551038329
 30
0.0
 11
14.97936685417698
 21
27.28428055103879
 31
0.0
  0
LINE
  5
4C5D
  8
0
 10
14.479366854176989
 20
27.78428055103879
 30
0.0
 11
14.47936685417676
 21
36.151899793100448
 31
0.0
  0
LINE
  5
4C5E
  8
0
 10
14.479366854176989
 20
27.78428055103879
 30
0.0
 11
14.97936685417698
 21
27.28428055103879
 31
0.0
  0
LINE
  5
4C5F
  8
0
 10
74.479366854176533
 20
27.78428055103879
 30
0.0
 11
73.979366854176533
 21
27.28428055103879
 31
0.0
  0
LINE
  5
4C60
  8
0
 10
74.479366854176533
 20
27.78428055103879
 30
0.0
 11
74.479366854176774
 21
36.151899793100448
 31
0.0
  0
LINE
  5
4C61
  8
0
 10
14.97936685417676
 20
27.28428055103879
 30
0.0
 11
73.979366854176533
 21
27.28428055103879
 31
0.0
  0
LINE
  5
4C62
  8
0
 10
14.97936685417676
 20
24.28428055103879
 30
0.0
 11
73.979366854176533
 21
24.284280551038329
 31
0.0
  0
LINE
  5
4C63
  8
0
 10
73.979366854176533
 20
24.284280551038329
 30
0.0
 11
73.979366854176533
 21
27.28428055103879
 31
0.0
  0
LINE
  5
4C64
  8
0
 10
19.479366854176991
 20
40.28428055103879
 30
0.0
 11
69.479366854176533
 21
40.284280551038329
 31
0.0
  0
LINE
  5
4C65
  8
0
 10
24.47936685417676
 20
45.28428055103879
 30
0.0
 11
64.47936685417676
 21
45.284280551038343
 31
0.0
  0
LINE
  5
4C66
  8
0
 10
29.47936685417676
 20
49.28428055103879
 30
0.0
 11
59.479366854176533
 21
49.28428055103879
 31
0.0
  0
LINE
  5
4C67
  8
0
 10
64.47936685417676
 20
45.284280551038343
 30
0.0
 11
64.479366854176533
 21
45.93021462818453
 31
0.0
  0
LINE
  5
4C68
  8
0
 10
69.479366854176533
 20
40.284280551038329
 30
0.0
 11
69.479366854176533
 21
41.151899793100441
 31
0.0
  0
LINE
  5
4C69
  8
0
 10
64.47936685417676
 20
45.284280551038343
 30
0.0
 11
68.508358365031654
 21
42.866885644525809
 31
0.0
  0
LINE
  5
4C6A
  8
0
 10
59.47936685417676
 20
49.284280551038329
 30
0.0
 11
63.22214820688486
 21
47.787168009955359
 31
0.0
  0
LINE
  5
4C6B
  8
0
 10
31.47936685417676
 20
51.28428055103879
 30
0.0
 11
57.47936685417676
 21
51.28428055103879
 31
0.0
  0
LINE
  5
4C6C
  8
0
 10
59.47936685417676
 20
49.284280551038329
 30
0.0
 11
59.47936685417676
 21
49.28428055103879
 31
0.0
  0
LINE
  5
4C6D
  8
0
 10
69.479366854176533
 20
40.284280551038329
 30
0.0
 11
73.508358365031654
 21
37.866885644525809
 31
0.0
  0
ARC
  5
4C6E
  8
0
 10
57.47936685417676
 20
49.28428055103879
 30
0.0
 40
2.0
 50
0.0000000000008142
 51
90.0
  0
ARC
  5
4C6F
  8
0
 10
62.479366854176533
 20
45.93021462818453
 30
0.0
 40
2.0
 50
359.9999999999992
 51
68.198590513648256
  0
ARC
  5
4C70
  8
0
 10
67.479366854176533
 20
41.151899793100441
 30
0.0
 40
2.0
 50
0.0
 51
59.036243467926127
  0
ARC
  5
4C71
  8
0
 10
72.479366854176774
 20
36.151899793100448
 30
0.0
 40
2.0
 50
359.9999999999996
 51
59.036243467926582
  0
LINE
  5
4C72
  8
0
 10
35.979366854177002
 20
53.784280550967402
 30
0.0
 11
52.97936685417698
 21
53.784280550967402
 31
0.0
  0
ARC
  5
4C73
  8
0
 10
44.47936685417698
 20
44.963141168778961
 30
0.0
 40
12.25
 50
133.93783988574569
 51
148.93491910364179
  0
ARC
  5
4C74
  8
0
 10
44.47936685417698
 20
44.963141168778961
 30
0.0
 40
12.25
 50
31.0650808963582
 51
46.062160114254247
  0
ARC
  5
4C75
  8
0
 10
16.47936685417676
 20
36.151899793100448
 30
0.0
 40
2.0
 50
120.9637565320734
 51
180.0000000000004
  0
TEXT
  5
4F33
  8
0
 62
     3
 10
0.0
 20
0.0
 30
0.0
 40
10.0
  1
LVAR60L24C
  7
STANDARD1
  0
ENDSEC
  0
EOF
