  0
SECTION
  2
HEADER
  9
$ACADVER
  1
AC1009
  9
$INSBASE
 10
0.0
 20
0.0
 30
0.0
  9
$EXTMIN
 10
0.0
 20
-2.960436562073669
 30
0.0
  9
$EXTMAX
 10
167.30735060230111
 20
218.95048980332101
 30
0.0
  9
$LIMMIN
 10
0.0
 20
0.0
  9
$LIMMAX
 10
375.0
 20
270.0
  9
$ORTHOMODE
 70
     1
  9
$REGENMODE
 70
     1
  9
$FILLMODE
 70
     1
  9
$QTEXTMODE
 70
     0
  9
$MIRRTEXT
 70
     0
  9
$DRAGMODE
 70
     2
  9
$LTSCALE
 40
6.0
  9
$OSMODE
 70
  3071
  9
$ATTMODE
 70
     1
  9
$TEXTSIZE
 40
0.2
  9
$TRACEWID
 40
0.05
  9
$TEXTSTYLE
  7
STANDARD
  9
$CLAYER
  8
0
  9
$CELTYPE
  6
BYLAYER
  9
$CECOLOR
 62
   256
  9
$DIMSCALE
 40
1.0
  9
$DIMASZ
 40
3.0
  9
$DIMEXO
 40
1.0
  9
$DIMDLI
 40
6.0
  9
$DIMRND
 40
0.0
  9
$DIMDLE
 40
0.0
  9
$DIMEXE
 40
1.0
  9
$DIMTP
 40
495.0
  9
$DIMTM
 40
0.0
  9
$DIMTXT
 40
3.0
  9
$DIMCEN
 40
0.0
  9
$DIMTSZ
 40
0.0
  9
$DIMTOL
 70
     0
  9
$DIMLIM
 70
     0
  9
$DIMTIH
 70
     0
  9
$DIMTOH
 70
     0
  9
$DIMSE1
 70
     0
  9
$DIMSE2
 70
     0
  9
$DIMTAD
 70
     1
  9
$DIMZIN
 70
     0
  9
$DIMBLK
  1

  9
$DIMASO
 70
     0
  9
$DIMSHO
 70
     0
  9
$DIMPOST
  1

  9
$DIMAPOST
  1

  9
$DIMALT
 70
     0
  9
$DIMALTD
 70
     2
  9
$DIMALTF
 40
25.399999999999999
  9
$DIMLFAC
 40
1.0
  9
$DIMTOFL
 70
     1
  9
$DIMTVP
 40
0.0
  9
$DIMTIX
 70
     1
  9
$DIMSOXD
 70
     0
  9
$DIMSAH
 70
     0
  9
$DIMBLK1
  1

  9
$DIMBLK2
  1

  9
$DIMSTYLE
  2
STANDARD
  9
$DIMCLRD
 70
     0
  9
$DIMCLRE
 70
     0
  9
$DIMCLRT
 70
     4
  9
$DIMTFAC
 40
1.0
  9
$DIMGAP
 40
1.0
  9
$LUNITS
 70
     2
  9
$LUPREC
 70
     4
  9
$SKETCHINC
 40
0.1
  9
$FILLETRAD
 40
2.0
  9
$AUNITS
 70
     0
  9
$AUPREC
 70
     0
  9
$MENU
  1
C:\R13\WIN\SUPPORT\ACAD-I
  9
$ELEVATION
 40
0.0
  9
$PELEVATION
 40
0.0
  9
$THICKNESS
 40
0.0
  9
$LIMCHECK
 70
     0
  9
$BLIPMODE
 70
     0
  9
$CHAMFERA
 40
0.0
  9
$CHAMFERB
 40
0.0
  9
$SKPOLY
 70
     0
  9
$TDCREATE
 40
2451962.4067921871
  9
$TDUPDATE
 40
2456597.6140299542
  9
$TDINDWG
 40
0.1421330324
  9
$TDUSRTIMER
 40
2456555.1246976042
  9
$USRTIMER
 70
     1
  9
$ANGBASE
 50
0.0
  9
$ANGDIR
 70
     0
  9
$PDMODE
 70
     0
  9
$PDSIZE
 40
0.0
  9
$PLINEWID
 40
0.0
  9
$COORDS
 70
     1
  9
$SPLFRAME
 70
     0
  9
$SPLINETYPE
 70
     6
  9
$SPLINESEGS
 70
     8
  9
$ATTDIA
 70
     0
  9
$ATTREQ
 70
     1
  9
$HANDLING
 70
     1
  9
$HANDSEED
  5
3654
  9
$SURFTAB1
 70
     6
  9
$SURFTAB2
 70
     6
  9
$SURFTYPE
 70
     6
  9
$SURFU
 70
     6
  9
$SURFV
 70
     6
  9
$UCSNAME
  2

  9
$UCSORG
 10
0.0
 20
0.0
 30
0.0
  9
$UCSXDIR
 10
1.0
 20
0.0
 30
0.0
  9
$UCSYDIR
 10
0.0
 20
1.0
 30
0.0
  9
$PUCSNAME
  2

  9
$PUCSORG
 10
0.0
 20
0.0
 30
0.0
  9
$PUCSXDIR
 10
1.0
 20
0.0
 30
0.0
  9
$PUCSYDIR
 10
0.0
 20
1.0
 30
0.0
  9
$USERI1
 70
     4
  9
$USERI2
 70
     1
  9
$USERI3
 70
     0
  9
$USERI4
 70
     0
  9
$USERI5
 70
     0
  9
$USERR1
 40
1.0
  9
$USERR2
 40
3.0
  9
$USERR3
 40
3.0
  9
$USERR4
 40
3.0
  9
$USERR5
 40
10.0
  9
$WORLDVIEW
 70
     1
  9
$SHADEDGE
 70
     3
  9
$SHADEDIF
 70
    70
  9
$TILEMODE
 70
     1
  9
$MAXACTVP
 70
    16
  9
$PLIMCHECK
 70
     0
  9
$PEXTMIN
 10
1.0000000000000000E+020
 20
1.0000000000000000E+020
 30
1.0000000000000000E+020
  9
$PEXTMAX
 10
-1.0000000000000000E+020
 20
-1.0000000000000000E+020
 30
-1.0000000000000000E+020
  9
$PLIMMIN
 10
0.0
 20
0.0
  9
$PLIMMAX
 10
12.0
 20
9.0
  9
$UNITMODE
 70
     0
  9
$VISRETAIN
 70
     0
  9
$PLINEGEN
 70
     0
  9
$PSLTSCALE
 70
     0
  0
ENDSEC
  0
SECTION
  2
TABLES
  0
TABLE
  2
VPORT
 70
     1
  0
VPORT
  2
*ACTIVE
 70
     0
 10
0.0
 20
0.0
 11
1.0
 21
1.0
 12
187.49427839065231
 22
134.10366293909439
 13
0.0
 23
0.0
 14
10.0
 24
10.0
 15
10.0
 25
10.0
 16
0.0
 26
0.0
 36
1.0
 17
0.0
 27
0.0
 37
0.0
 40
277.29405978699532
 41
2.304913294797688
 42
50.0
 43
0.0
 44
0.0
 50
0.0
 51
0.0
 71
    16
 72
   100
 73
     1
 74
     0
 75
     0
 76
     0
 77
     0
 78
     0
  0
ENDTAB
  0
TABLE
  2
LTYPE
 70
     3
  0
LTYPE
  2
CONTINUOUS
 70
     0
  3
Solid Line
 72
    65
 73
     0
 40
0.0
  0
LTYPE
  2
PHANTOM2
 70
     0
  3
___ _ _ ___ _ _ ___ _ _ ___ _ _
 72
    65
 73
     6
 40
1.25
 49
0.625
 49
-0.125
 49
0.125
 49
-0.125
 49
0.125
 49
-0.125
  0
LTYPE
  2
CENTER
 70
     0
  3
____ _ ____ _ ____ _ ____ _ ____ _ ____ _ ____
 72
    65
 73
     4
 40
2.0
 49
1.25
 49
-0.25
 49
0.25
 49
-0.25
  0
ENDTAB
  0
TABLE
  2
LAYER
 70
     3
  0
LAYER
  2
0
 70
     0
 62
     7
  6
CONTINUOUS
  0
LAYER
  2
1
 70
     0
 62
     1
  6
CENTER
  0
LAYER
  2
3
 70
     0
 62
     3
  6
CONTINUOUS
  0
ENDTAB
  0
TABLE
  2
STYLE
 70
     3
  0
STYLE
  2
STANDARD
 70
     0
 40
0.0
 41
1.0
 50
0.0
 71
     0
 42
0.2
  3
SIMPLEX
  4
BIGFONT
  0
STYLE
  2
ANNOTATIVE
 70
     0
 40
0.0
 41
1.0
 50
0.0
 71
     0
 42
0.2
  3
txt
  4

  0
STYLE
  2
STANDARD1
 70
     0
 40
0.0
 41
1.0
 50
0.0
 71
     0
 42
3.0
  3
txt
  4

  0
ENDTAB
  0
TABLE
  2
VIEW
 70
     0
  0
ENDTAB
  0
TABLE
  2
UCS
 70
     0
  0
ENDTAB
  0
TABLE
  2
APPID
 70
    29
  0
APPID
  2
ACAD
 70
     0
  0
APPID
  2
ACADANNOTATIVE
 70
     0
  0
APPID
  2
GENIUS_GENOREF_13
 70
     0
  0
APPID
  2
GENIUS_GENOENT_13
 70
     0
  0
APPID
  2
GENIUS_GENBH_13
 70
     0
  0
APPID
  2
GENIUS_GENOBJ_13
 70
     0
  0
APPID
  2
GENIUS_GENODEF_13
 70
     0
  0
APPID
  2
GENIUS_GENOLIS_13
 70
     0
  0
APPID
  2
GENIUS_GENOBJ-NBEHI-BHF_13
 70
     0
  0
APPID
  2
GENIUS_GENOBJ-NBEHI-BHB_13
 70
     0
  0
APPID
  2
GENIUS_GENOBJ-F-PART_13
 70
     0
  0
APPID
  2
GENIUS_GEFSTDP_13
 70
     0
  0
APPID
  2
GENIUS_GENOBJ-N-RSSYM_13
 70
     0
  0
APPID
  2
GENIUS_GENSYMENT_13
 70
     0
  0
APPID
  2
GENIUS_GENOBJ-N-TIT_13
 70
     0
  0
APPID
  2
GENIUS_GENTITLE_13
 70
     0
  0
APPID
  2
GENIUS_GENZVEED_13
 70
     0
  0
APPID
  2
GENIUS_GENOBJ-N-LEADER_13
 70
     0
  0
APPID
  2
GENIUS_GENOBJ-N-FIL_13
 70
     0
  0
APPID
  2
GENIUS_GENOBJ-N-SEC_13
 70
     0
  0
APPID
  2
GENIUS_GENOBJ-N-CRS_13
 70
     0
  0
APPID
  2
GENIUS_GENOBJ-N-ZOO_13
 70
     0
  0
APPID
  2
GENIUS_GENZOO_13
 70
     0
  0
APPID
  2
GENIUS_GENOBJ-F-TOL_13
 70
     0
  0
APPID
  2
GENIUS_GENFIL_13
 70
     0
  0
APPID
  2
GENIUS_GENOBJ-N-CHA_13
 70
     0
  0
APPID
  2
ACAD_EXEMPT_FROM_CAD_STANDARDS
 70
     0
  0
APPID
  2
ACAD_MLEADERVER
 70
     0
  0
APPID
  2
ACAD_NAV_VCDISPLAY
 70
     0
  0
ENDTAB
  0
TABLE
  2
DIMSTYLE
 70
     2
  0
DIMSTYLE
  2
STANDARD
 70
     0
  3

  4

  5

  6

  7

 40
1.0
 41
0.18
 42
0.0625
 43
0.38
 44
0.18
 45
0.0
 46
0.0
 47
0.0
 48
0.0
140
0.18
141
0.09
142
0.0
143
25.399999999999999
144
1.0
145
0.0
146
1.0
147
0.09
 71
     0
 72
     0
 73
     1
 74
     1
 75
     0
 76
     0
 77
     0
 78
     0
170
     0
171
     2
172
     0
173
     0
174
     0
175
     0
176
     0
177
     0
178
     0
  0
DIMSTYLE
  2
ANNOTATIVE
 70
     0
  3

  4

  5

  6

  7

 40
1.0
 41
0.18
 42
0.0625
 43
0.38
 44
0.18
 45
0.0
 46
0.0
 47
0.0
 48
0.0
140
0.18
141
0.09
142
0.0
143
25.399999999999999
144
1.0
145
0.0
146
1.0
147
0.09
 71
     0
 72
     0
 73
     1
 74
     1
 75
     0
 76
     0
 77
     0
 78
     0
170
     0
171
     2
172
     0
173
     0
174
     0
175
     0
176
     0
177
     0
178
     0
  0
ENDTAB
  0
ENDSEC
  0
SECTION
  2
BLOCKS
  0
BLOCK
  8
0
  2
$MODEL_SPACE
 70
     0
 10
0.0
 20
0.0
 30
0.0
  3
$MODEL_SPACE
  1

  0
ENDBLK
  5
3577
  8
0
  0
BLOCK
 67
     1
  8
0
  2
$PAPER_SPACE
 70
     0
 10
0.0
 20
0.0
 30
0.0
  3
$PAPER_SPACE
  1

  0
ENDBLK
  5
3573
 67
     1
  8
0
  0
ENDSEC
  0
SECTION
  2
ENTITIES
  0
LINE
  5
31B8
  8
1
 10
82.363109136601466
 20
183.95048980332101
 30
0.0
 11
12.36310913660145
 21
183.95048980332101
 31
0.0
  0
LINE
  5
31B9
  8
1
 10
47.363109136601459
 20
218.95048980332101
 30
0.0
 11
47.363109136601459
 21
148.95048980332101
 31
0.0
  0
CIRCLE
  5
31BA
  8
0
 10
47.363109136601459
 20
183.95048980332101
 30
0.0
 40
14.99999999999981
  0
CIRCLE
  5
31BB
  8
0
 10
47.363109136601317
 20
183.95048980332101
 30
0.0
 40
20.00000000000006
  0
CIRCLE
  5
31BC
  8
0
 10
47.363109136601317
 20
183.95048980332101
 30
0.0
 40
25.0
  0
CIRCLE
  5
31BD
  8
0
 10
47.363109136601317
 20
183.95048980332101
 30
0.0
 40
30.0
  0
LINE
  5
31BF
  8
1
 10
47.363109136600997
 20
17.994503485417219
 30
0.0
 11
47.363109136601558
 21
131.9945034854172
 31
0.0
  0
LINE
  5
31C0
  8
0
 10
167.30735060230089
 20
26.49450348541723
 30
0.0
 11
166.807350602301
 21
25.99450348541723
 31
0.0
  0
LINE
  5
31C1
  8
0
 10
167.30735060230089
 20
26.49450348541723
 30
0.0
 11
167.30735060230111
 21
34.862122727479012
 31
0.0
  0
LINE
  5
31C2
  8
0
 10
107.8073506023011
 20
25.99450348541723
 30
0.0
 11
166.8073506023008
 21
25.99450348541723
 31
0.0
  0
LINE
  5
31C3
  8
0
 10
107.8073506023011
 20
22.99450348541723
 30
0.0
 11
166.807350602301
 21
22.994503485417169
 31
0.0
  0
LINE
  5
31C4
  8
0
 10
166.807350602301
 20
22.994503485417109
 30
0.0
 11
166.8073506023008
 21
25.99450348541723
 31
0.0
  0
LINE
  5
31C5
  8
0
 10
112.3073506023011
 20
38.994503485417233
 30
0.0
 11
162.30735060230089
 21
38.994503485417169
 31
0.0
  0
LINE
  5
31C6
  8
0
 10
117.3073506023011
 20
43.994503485417219
 30
0.0
 11
157.30735060230111
 21
43.994503485417177
 31
0.0
  0
LINE
  5
31C7
  8
0
 10
122.3073506023011
 20
47.994503485417219
 30
0.0
 11
152.307350602301
 21
47.994503485417219
 31
0.0
  0
LINE
  5
31C8
  8
0
 10
157.30735060230111
 20
43.994503485417177
 30
0.0
 11
157.30735060230089
 21
44.640437562563292
 31
0.0
  0
LINE
  5
31C9
  8
0
 10
162.30735060230089
 20
38.994503485417169
 30
0.0
 11
162.30735060230089
 21
39.862122727479012
 31
0.0
  0
LINE
  5
31CA
  8
0
 10
157.30735060230111
 20
43.994503485417177
 30
0.0
 11
161.33634211315609
 21
41.577108578904131
 31
0.0
  0
LINE
  5
31CB
  8
0
 10
152.30735060230111
 20
47.994503485417169
 30
0.0
 11
156.05013195500919
 21
46.497390944333922
 31
0.0
  0
LINE
  5
31CC
  8
0
 10
124.3073506023011
 20
49.994503485417219
 30
0.0
 11
150.30735060230111
 21
49.994503485417219
 31
0.0
  0
LINE
  5
31CD
  8
0
 10
152.30735060230111
 20
47.994503485417169
 30
0.0
 11
152.30735060230111
 21
47.994503485417219
 31
0.0
  0
LINE
  5
31CE
  8
0
 10
162.30735060230089
 20
38.994503485417169
 30
0.0
 11
166.33634211315609
 21
36.577108578904131
 31
0.0
  0
ARC
  5
31CF
  8
0
 10
150.30735060230111
 20
47.994503485417219
 30
0.0
 40
2.0
 50
0.0000000000008142
 51
89.999999999999943
  0
ARC
  5
31D0
  8
0
 10
155.30735060230089
 20
44.640437562563363
 30
0.0
 40
2.0
 50
359.9999999999992
 51
68.198590513648284
  0
ARC
  5
31D1
  8
0
 10
160.30735060230089
 20
39.862122727479012
 30
0.0
 40
2.0
 50
0.0
 51
59.036243467926177
  0
ARC
  5
31D2
  8
0
 10
165.30735060230111
 20
34.862122727479012
 30
0.0
 40
2.0
 50
359.9999999999996
 51
59.036243467926461
  0
ARC
  5
31D3
  8
0
 10
109.3073506023011
 20
34.862122727479012
 30
0.0
 40
2.0
 50
120.9637565320735
 51
180.0000000000004
  0
ARC
  5
31D4
  8
0
 10
114.3073506023011
 20
39.862122727479012
 30
0.0
 40
2.0
 50
120.9637565320738
 51
180.0
  0
ARC
  5
31D5
  8
0
 10
119.3073506023011
 20
44.640437562563363
 30
0.0
 40
2.0
 50
111.8014094863517
 51
180.0000000000008
  0
ARC
  5
31D6
  8
0
 10
124.3073506023011
 20
47.994503485417219
 30
0.0
 40
2.0
 50
90.000000000000057
 51
179.9999999999992
  0
LINE
  5
31D7
  8
0
 10
112.3073506023011
 20
38.994503485417169
 30
0.0
 11
108.27835909144591
 21
36.577108578904131
 31
0.0
  0
LINE
  5
31D8
  8
0
 10
122.3073506023011
 20
47.994503485417169
 30
0.0
 11
122.3073506023011
 21
47.994503485417219
 31
0.0
  0
LINE
  5
31D9
  8
0
 10
122.3073506023011
 20
47.994503485417169
 30
0.0
 11
118.56456924959279
 21
46.497390944333922
 31
0.0
  0
LINE
  5
31DA
  8
0
 10
117.3073506023009
 20
43.994503485417177
 30
0.0
 11
113.27835909144591
 21
41.577108578904131
 31
0.0
  0
LINE
  5
31DB
  8
0
 10
112.3073506023011
 20
38.994503485417169
 30
0.0
 11
112.3073506023011
 21
39.862122727479012
 31
0.0
  0
LINE
  5
31DC
  8
0
 10
117.3073506023011
 20
43.994503485417177
 30
0.0
 11
117.3073506023011
 21
44.640437562563292
 31
0.0
  0
LINE
  5
31DD
  8
0
 10
107.8073506023011
 20
22.994503485417109
 30
0.0
 11
107.8073506023012
 21
25.99450348541723
 31
0.0
  0
LINE
  5
31DE
  8
0
 10
107.307350602301
 20
26.49450348541723
 30
0.0
 11
107.307350602301
 21
34.862122727479012
 31
0.0
  0
LINE
  5
31DF
  8
0
 10
107.307350602301
 20
26.49450348541723
 30
0.0
 11
107.8073506023011
 21
25.99450348541723
 31
0.0
  0
LINE
  5
31E0
  8
0
 10
17.363109136601231
 20
26.49450348541723
 30
0.0
 11
17.863109136601231
 21
25.99450348541723
 31
0.0
  0
LINE
  5
31E1
  8
0
 10
17.363109136601231
 20
26.49450348541723
 30
0.0
 11
17.363109136601171
 21
34.862122727479012
 31
0.0
  0
LINE
  5
31E2
  8
0
 10
17.863109136601231
 20
22.994503485417109
 30
0.0
 11
17.863109136601341
 21
25.99450348541723
 31
0.0
  0
LINE
  5
31E3
  8
0
 10
27.363109136601189
 20
43.994503485417177
 30
0.0
 11
27.363109136601231
 21
44.640437562563292
 31
0.0
  0
LINE
  5
31E4
  8
0
 10
22.363109136601238
 20
38.994503485417169
 30
0.0
 11
22.363109136601238
 21
39.862122727479012
 31
0.0
  0
LINE
  5
31E5
  8
0
 10
27.363109136601121
 20
43.994503485417177
 30
0.0
 11
23.33411762574611
 21
41.577108578904131
 31
0.0
  0
LINE
  5
31E6
  8
0
 10
32.363109136601189
 20
47.994503485417169
 30
0.0
 11
28.620327783893021
 21
46.497390944333922
 31
0.0
  0
LINE
  5
31E7
  8
0
 10
32.363109136601189
 20
47.994503485417169
 30
0.0
 11
32.363109136601189
 21
47.994503485417219
 31
0.0
  0
LINE
  5
31E8
  8
0
 10
22.363109136601238
 20
38.994503485417169
 30
0.0
 11
18.33411762574611
 21
36.577108578904131
 31
0.0
  0
ARC
  5
31E9
  8
0
 10
34.363109136601167
 20
47.994503485417219
 30
0.0
 40
2.0
 50
90.000000000000057
 51
179.9999999999992
  0
ARC
  5
31EA
  8
0
 10
29.363109136601231
 20
44.640437562563363
 30
0.0
 40
2.0
 50
111.8014094863517
 51
180.0000000000008
  0
ARC
  5
31EB
  8
0
 10
24.363109136601231
 20
39.862122727479012
 30
0.0
 40
2.0
 50
120.9637565320738
 51
180.0
  0
ARC
  5
31EC
  8
0
 10
19.363109136601171
 20
34.862122727479012
 30
0.0
 40
2.0
 50
120.9637565320735
 51
180.0000000000004
  0
ARC
  5
31ED
  8
0
 10
75.363109136601224
 20
34.862122727479012
 30
0.0
 40
2.0
 50
359.9999999999996
 51
59.036243467926461
  0
ARC
  5
31EE
  8
0
 10
70.363109136601111
 20
39.862122727479012
 30
0.0
 40
2.0
 50
0.0
 51
59.036243467926177
  0
ARC
  5
31EF
  8
0
 10
65.363109136601111
 20
44.640437562563363
 30
0.0
 40
2.0
 50
359.9999999999992
 51
68.198590513648284
  0
ARC
  5
31F0
  8
0
 10
60.363109136601231
 20
47.994503485417219
 30
0.0
 40
2.0
 50
0.0000000000008142
 51
89.999999999999943
  0
LINE
  5
31F1
  8
0
 10
72.363109136601096
 20
38.994503485417169
 30
0.0
 11
76.392100647456218
 21
36.577108578904131
 31
0.0
  0
LINE
  5
31F2
  8
0
 10
62.363109136601231
 20
47.994503485417169
 30
0.0
 11
62.363109136601231
 21
47.994503485417219
 31
0.0
  0
LINE
  5
31F3
  8
0
 10
34.363109136601167
 20
49.994503485417219
 30
0.0
 11
60.363109136601231
 21
49.994503485417219
 31
0.0
  0
LINE
  5
31F4
  8
0
 10
62.363109136601231
 20
47.994503485417169
 30
0.0
 11
66.105890489309331
 21
46.497390944333922
 31
0.0
  0
LINE
  5
31F5
  8
0
 10
67.363109136601224
 20
43.994503485417177
 30
0.0
 11
71.392100647456232
 21
41.577108578904131
 31
0.0
  0
LINE
  5
31F6
  8
0
 10
72.363109136601096
 20
38.994503485417169
 30
0.0
 11
72.363109136601096
 21
39.862122727479012
 31
0.0
  0
LINE
  5
31F7
  8
0
 10
67.363109136601224
 20
43.994503485417177
 30
0.0
 11
67.363109136601111
 21
44.640437562563292
 31
0.0
  0
LINE
  5
31F8
  8
0
 10
32.363109136601189
 20
47.994503485417219
 30
0.0
 11
62.363109136601118
 21
47.994503485417219
 31
0.0
  0
LINE
  5
31F9
  8
0
 10
27.363109136601231
 20
43.994503485417219
 30
0.0
 11
67.363109136601224
 21
43.994503485417177
 31
0.0
  0
LINE
  5
31FA
  8
0
 10
22.363109136601238
 20
38.994503485417233
 30
0.0
 11
72.363109136601096
 21
38.994503485417169
 31
0.0
  0
LINE
  5
31FC
  8
0
 10
76.863109136601096
 20
22.994503485417109
 30
0.0
 11
76.863109136600983
 21
25.99450348541723
 31
0.0
  0
LINE
  5
31FD
  8
0
 10
17.863109136601231
 20
22.99450348541723
 30
0.0
 11
76.863109136601096
 21
22.994503485417169
 31
0.0
  0
LINE
  5
31FE
  8
0
 10
17.863109136601231
 20
25.99450348541723
 30
0.0
 11
76.863109136600983
 21
25.99450348541723
 31
0.0
  0
LINE
  5
31FF
  8
0
 10
77.363109136601096
 20
26.49450348541723
 30
0.0
 11
77.363109136601224
 21
34.862122727479012
 31
0.0
  0
LINE
  5
3200
  8
0
 10
77.363109136601096
 20
26.49450348541723
 30
0.0
 11
76.863109136601096
 21
25.99450348541723
 31
0.0
  0
ARC
  5
320F
  8
0
 10
50.863109136601103
 20
64.25918470354469
 30
0.0
 40
10.10924076103746
 50
249.74384199958311
 51
290.25615800041692
  0
LINE
  5
3210
  8
0
 10
54.363109136601217
 20
54.149943942507257
 30
0.0
 11
54.09387836736925
 21
53.994503485417049
 31
0.0
  0
LINE
  5
3211
  8
0
 10
40.363109136601217
 20
54.149943942507257
 30
0.0
 11
40.632339905833177
 21
53.994503485417049
 31
0.0
  0
ARC
  5
3212
  8
0
 10
43.863109136601331
 20
64.25918470354469
 30
0.0
 40
10.10924076103746
 50
249.74384199958311
 51
290.25615800041692
  0
LINE
  5
3213
  8
0
 10
54.09387836736925
 20
53.994503485417049
 30
0.0
 11
40.632339905833177
 21
53.994503485417049
 31
0.0
  0
ARC
  5
3214
  8
0
 10
50.863109136601103
 20
48.729822267289357
 30
0.0
 40
10.10924076103746
 50
69.743841999583083
 51
110.2561580004169
  0
LINE
  5
3215
  8
0
 10
54.363109136601217
 20
58.839063028326791
 30
0.0
 11
54.09387836736925
 21
58.994503485417049
 31
0.0
  0
LINE
  5
3216
  8
0
 10
40.363109136601217
 20
58.839063028326791
 30
0.0
 11
40.632339905833177
 21
58.994503485417049
 31
0.0
  0
ARC
  5
3217
  8
0
 10
43.863109136601331
 20
48.729822267289357
 30
0.0
 40
10.10924076103746
 50
69.743841999583083
 51
110.2561580004169
  0
LINE
  5
3218
  8
0
 10
54.09387836736925
 20
58.994503485417049
 30
0.0
 11
40.632339905833177
 21
58.994503485417049
 31
0.0
  0
LINE
  5
3219
  8
0
 10
54.363109136601217
 20
58.839063028326791
 30
0.0
 11
54.363109136601217
 21
54.149943942507257
 31
0.0
  0
LINE
  5
321A
  8
0
 10
40.363109136601217
 20
58.839063028326791
 30
0.0
 11
40.363109136601217
 21
54.149943942507257
 31
0.0
  0
LINE
  5
321B
  8
0
 10
47.363109136601217
 20
58.213848245987599
 30
0.0
 11
47.363109136601217
 21
54.775158724846513
 31
0.0
  0
LINE
  5
321C
  8
0
 10
41.863109136601331
 20
49.994503485417219
 30
0.0
 11
41.863109136601331
 21
53.994503485417049
 31
0.0
  0
LINE
  5
321D
  8
0
 10
52.863109136601338
 20
49.994503485417219
 30
0.0
 11
52.863109136601338
 21
53.994503485417049
 31
0.0
  0
ARC
  5
321E
  8
0
 10
40.001893204434282
 20
74.505267245795707
 30
0.0
 40
4.3448986723233833
 50
55.615752531995177
 51
115.6157525321087
  0
ARC
  5
321F
  8
0
 10
47.363109136601459
 20
62.609355296652502
 30
0.0
 40
16.24081062146659
 50
72.412046226026817
 51
107.5879537739724
  0
LINE
  5
3220
  8
0
 10
37.548154560378407
 20
78.090976539565148
 30
0.0
 11
39.113109136602027
 21
78.99450348541734
 31
0.0
  0
LINE
  5
3221
  8
0
 10
37.548154560378407
 20
71.898030431269135
 30
0.0
 11
39.113109136602027
 21
70.994503485416942
 31
0.0
  0
ARC
  5
3222
  8
0
 10
40.001893204434282
 20
75.483739725038561
 30
0.0
 40
4.3448986723233833
 50
244.3842474678913
 51
304.38424746800479
  0
ARC
  5
3223
  8
0
 10
47.363109136601459
 20
87.379651674181787
 30
0.0
 40
16.24081062146659
 50
252.4120462260268
 51
287.5879537739724
  0
LINE
  5
3224
  8
0
 10
37.548154560378407
 20
78.090976539565062
 30
0.0
 11
37.548154560378407
 21
71.898030431269206
 31
0.0
  0
LINE
  5
3225
  8
0
 10
42.455631848489247
 20
78.090976539565148
 30
0.0
 11
42.455631848489823
 21
71.89803043126895
 31
0.0
  0
LINE
  5
3226
  8
0
 10
52.270586424714793
 20
78.090976539565148
 30
0.0
 11
52.270586424714232
 21
71.89803043126895
 31
0.0
  0
LINE
  5
3227
  8
0
 10
57.178063712825633
 20
78.090976539565062
 30
0.0
 11
57.178063712825633
 21
71.898030431269206
 31
0.0
  0
ARC
  5
3228
  8
0
 10
54.724325068769758
 20
75.483739725038561
 30
0.0
 40
4.3448986723233833
 50
235.61575253199521
 51
295.61575253210867
  0
LINE
  5
3229
  8
0
 10
57.178063712825633
 20
71.898030431269135
 30
0.0
 11
55.61310913660202
 21
70.994503485416942
 31
0.0
  0
LINE
  5
322A
  8
0
 10
57.178063712825633
 20
78.090976539565148
 30
0.0
 11
55.61310913660202
 21
78.99450348541734
 31
0.0
  0
ARC
  5
322B
  8
0
 10
54.724325068769758
 20
74.505267245795707
 30
0.0
 40
4.3448986723233833
 50
64.384247467891299
 51
124.3842474680048
  0
LINE
  5
322C
  8
0
 10
39.113109136602027
 20
78.99450348541734
 30
0.0
 11
55.613109136602361
 21
78.994503485417084
 31
0.0
  0
LINE
  5
322D
  8
0
 10
55.613109136602361
 20
70.994503485417169
 30
0.0
 11
39.113109136601679
 21
70.994503485417169
 31
0.0
  0
LINE
  5
322E
  8
0
 10
43.863109136601452
 20
126.9945034854172
 30
0.0
 11
50.863109136601452
 21
126.9945034854171
 31
0.0
  0
LINE
  5
322F
  8
0
 10
52.363109136601459
 20
58.994503485417049
 30
0.0
 11
52.363109136601459
 21
70.994503485417169
 31
0.0
  0
LINE
  5
3230
  8
3
 10
51.551109136601561
 20
60.994503485417347
 30
0.0
 11
51.551109136601561
 21
70.994503485417169
 31
0.0
  0
LINE
  5
3231
  8
3
 10
43.17510913660135
 20
60.994503485417447
 30
0.0
 11
43.17510913660135
 21
70.994503485417169
 31
0.0
  0
LINE
  5
3232
  8
0
 10
42.363109136601452
 20
58.994503485417098
 30
0.0
 11
42.363109136601452
 21
70.994503485417169
 31
0.0
  0
LINE
  5
3233
  8
0
 10
42.363109136601452
 20
125.4945034854173
 30
0.0
 11
43.863109136601452
 21
126.9945034854172
 31
0.0
  0
LINE
  5
3234
  8
0
 10
50.863109136601452
 20
126.9945034854171
 30
0.0
 11
52.363109136601459
 21
125.4945034854171
 31
0.0
  0
LINE
  5
3235
  8
0
 10
42.363109136601452
 20
60.994503485417447
 30
0.0
 11
52.363109136601459
 21
60.994503485417347
 31
0.0
  0
LINE
  5
3236
  8
3
 10
43.17510913660135
 20
60.994503485417447
 30
0.0
 11
42.363109136601452
 21
59.58807822967163
 31
0.0
  0
LINE
  5
3237
  8
3
 10
51.551109136601561
 20
60.994503485417447
 30
0.0
 11
52.363109136601459
 21
59.58807822967163
 31
0.0
  0
LINE
  5
3238
  8
0
 10
42.363109136601452
 20
125.4945034854173
 30
0.0
 11
52.363109136601459
 21
125.4945034854171
 31
0.0
  0
LINE
  5
3239
  8
3
 10
51.551109136601561
 20
78.994503485417169
 30
0.0
 11
51.551109136601561
 21
126.3065034854171
 31
0.0
  0
LINE
  5
323A
  8
0
 10
52.363109136601459
 20
78.994503485417169
 30
0.0
 11
52.363109136601459
 21
125.4945034854171
 31
0.0
  0
LINE
  5
323B
  8
3
 10
43.17510913660135
 20
78.994503485417283
 30
0.0
 11
43.17510913660135
 21
126.3065034854172
 31
0.0
  0
LINE
  5
323C
  8
0
 10
42.363109136601452
 20
78.994503485417283
 30
0.0
 11
42.363109136601452
 21
125.4945034854173
 31
0.0
  0
LINE
  5
323D
  8
3
 10
133.11935060230101
 20
78.994503485417084
 30
0.0
 11
133.11935060230101
 21
126.3065034854172
 31
0.0
  0
LINE
  5
323E
  8
0
 10
132.307350602301
 20
78.994503485417084
 30
0.0
 11
132.307350602301
 21
125.4945034854173
 31
0.0
  0
LINE
  5
323F
  8
0
 10
142.30735060230111
 20
78.994503485417084
 30
0.0
 11
142.30735060230111
 21
125.4945034854171
 31
0.0
  0
LINE
  5
3240
  8
3
 10
141.49535060230139
 20
78.994503485417084
 30
0.0
 11
141.49535060230119
 21
126.3065034854171
 31
0.0
  0
LINE
  5
3241
  8
0
 10
142.30735060230111
 20
58.994503485416658
 30
0.0
 11
142.30735060230111
 21
70.994503485417169
 31
0.0
  0
LINE
  5
3242
  8
0
 10
132.307350602301
 20
58.994503485416658
 30
0.0
 11
132.307350602301
 21
70.994503485417169
 31
0.0
  0
LINE
  5
3243
  8
0
 10
133.80735060230111
 20
126.9945034854172
 30
0.0
 11
140.80735060230111
 21
126.9945034854171
 31
0.0
  0
LINE
  5
3244
  8
3
 10
141.49535060230139
 20
60.994503485416651
 30
0.0
 11
141.49535060230139
 21
70.994503485417169
 31
0.0
  0
LINE
  5
3245
  8
3
 10
133.11935060230101
 20
60.994503485416772
 30
0.0
 11
133.11935060230121
 21
70.994503485417169
 31
0.0
  0
LINE
  5
3246
  8
0
 10
132.307350602301
 20
125.4945034854173
 30
0.0
 11
133.80735060230111
 21
126.9945034854172
 31
0.0
  0
LINE
  5
3247
  8
0
 10
140.80735060230111
 20
126.9945034854171
 30
0.0
 11
142.30735060230111
 21
125.4945034854171
 31
0.0
  0
LINE
  5
3248
  8
0
 10
132.307350602301
 20
60.994503485416821
 30
0.0
 11
142.30735060230111
 21
60.994503485416722
 31
0.0
  0
LINE
  5
3249
  8
3
 10
133.11935060230101
 20
60.994503485416821
 30
0.0
 11
132.307350602301
 21
59.588078229671062
 31
0.0
  0
LINE
  5
324A
  8
3
 10
141.49535060230119
 20
60.994503485416821
 30
0.0
 11
142.30735060230111
 21
59.588078229671062
 31
0.0
  0
LINE
  5
324B
  8
0
 10
132.307350602301
 20
125.4945034854173
 30
0.0
 11
142.30735060230111
 21
125.4945034854171
 31
0.0
  0
LINE
  5
324C
  8
0
 10
129.05735060230111
 20
70.994503485417169
 30
0.0
 11
145.55735060230111
 21
70.994503485417169
 31
0.0
  0
LINE
  5
324D
  8
0
 10
145.55735060230009
 20
78.994503485417084
 30
0.0
 11
129.05735060230219
 21
78.994503485417084
 31
0.0
  0
ARC
  5
324E
  8
0
 10
133.05735060230111
 20
66.574659279702573
 30
0.0
 40
12.275506638416489
 50
69.743841999604243
 51
110.2561580003957
  0
LINE
  5
324F
  8
0
 10
128.80735060230111
 20
78.850165918119103
 30
0.0
 11
129.05735060230219
 21
78.994503485417084
 31
0.0
  0
ARC
  5
3250
  8
0
 10
133.05735060230111
 20
83.414347691131013
 30
0.0
 40
12.275506638416489
 50
249.74384199960431
 51
290.25615800039583
  0
LINE
  5
3251
  8
0
 10
128.80735060230111
 20
71.138841052714554
 30
0.0
 11
129.05735060230219
 21
70.994503485416544
 31
0.0
  0
LINE
  5
3252
  8
0
 10
128.80735060230111
 20
78.850165918119103
 30
0.0
 11
128.80735060230111
 21
71.138841052714554
 31
0.0
  0
LINE
  5
3253
  8
0
 10
137.30735060230111
 20
78.090976539564736
 30
0.0
 11
137.30735060230111
 21
71.898030431268651
 31
0.0
  0
LINE
  5
3254
  8
0
 10
145.80735060230131
 20
78.850165918119103
 30
0.0
 11
145.807350602301
 21
71.138841052714554
 31
0.0
  0
ARC
  5
3255
  8
0
 10
141.55735060230111
 20
83.414347691131013
 30
0.0
 40
12.275506638416489
 50
249.74384199960431
 51
290.25615800039583
  0
LINE
  5
3256
  8
0
 10
145.80735060230131
 20
71.138841052714554
 30
0.0
 11
145.55735060230009
 21
70.994503485416544
 31
0.0
  0
LINE
  5
3257
  8
0
 10
145.80735060230131
 20
78.850165918119103
 30
0.0
 11
145.55735060230009
 21
78.994503485417084
 31
0.0
  0
ARC
  5
3258
  8
0
 10
141.55735060230111
 20
66.574659279702573
 30
0.0
 40
12.275506638416489
 50
69.743841999604243
 51
110.2561580003957
  0
LINE
  5
3259
  8
0
 10
144.0381198330692
 20
53.994503485416772
 30
0.0
 11
130.57658137153339
 21
53.994503485416772
 31
0.0
  0
LINE
  5
325A
  8
0
 10
130.576581371532
 20
58.994503485416658
 30
0.0
 11
144.038119833069
 21
58.994503485416658
 31
0.0
  0
ARC
  5
325B
  8
0
 10
143.36952842879211
 20
55.260911180533981
 30
0.0
 40
3.5781518477924039
 50
64.384247467825773
 51
124.38424746803869
  0
LINE
  5
325C
  8
0
 10
145.390254370956
 20
58.213848245987087
 30
0.0
 11
144.0381198330692
 21
58.994503485416658
 31
0.0
  0
LINE
  5
325D
  8
0
 10
145.390254370956
 20
54.775158724846278
 30
0.0
 11
144.0381198330692
 21
53.994503485416772
 31
0.0
  0
ARC
  5
325E
  8
0
 10
143.36952842879211
 20
57.728095790299463
 30
0.0
 40
3.5781518477924039
 50
235.61575253196131
 51
295.61575253217421
  0
LINE
  5
325F
  8
0
 10
145.390254370956
 20
58.213848245987151
 30
0.0
 11
145.390254370956
 21
54.775158724846278
 31
0.0
  0
LINE
  5
3260
  8
0
 10
141.34880248662671
 20
58.213848245987599
 30
0.0
 11
141.3488024866285
 21
54.775158724847969
 31
0.0
  0
LINE
  5
3261
  8
0
 10
133.2658987179754
 20
58.213848245985901
 30
0.0
 11
133.26589871797361
 21
54.775158724847969
 31
0.0
  0
LINE
  5
3262
  8
0
 10
129.2244468336464
 20
58.213848245987087
 30
0.0
 11
129.2244468336464
 21
54.775158724846278
 31
0.0
  0
ARC
  5
3263
  8
0
 10
137.30735060230219
 20
67.524729160160746
 30
0.0
 40
13.374785217653811
 50
252.4120462259952
 51
287.5879537740048
  0
ARC
  5
3264
  8
0
 10
131.2451727758102
 20
57.728095790299463
 30
0.0
 40
3.5781518477924039
 50
244.3842474678257
 51
304.38424746803872
  0
LINE
  5
3265
  8
0
 10
129.2244468336464
 20
54.775158724846278
 30
0.0
 11
130.57658137153311
 21
53.994503485416772
 31
0.0
  0
LINE
  5
3266
  8
0
 10
129.2244468336464
 20
58.213848245987087
 30
0.0
 11
130.57658137153311
 21
58.994503485416658
 31
0.0
  0
ARC
  5
3267
  8
0
 10
137.30735060230219
 20
45.46427781067257
 30
0.0
 40
13.374785217653811
 50
72.412046225995155
 51
107.5879537740048
  0
ARC
  5
3268
  8
0
 10
131.2451727758102
 20
55.260911180533981
 30
0.0
 40
3.5781518477924039
 50
55.615752531961313
 51
115.6157525321742
  0
LINE
  5
3269
  8
0
 10
131.80735060230131
 20
49.994503485417219
 30
0.0
 11
131.80735060230131
 21
53.994503485416772
 31
0.0
  0
LINE
  5
326A
  8
0
 10
142.80735060230131
 20
49.994503485417219
 30
0.0
 11
142.80735060230131
 21
53.994503485416772
 31
0.0
  0
CIRCLE
  5
326B
  8
0
 10
47.363109136601459
 20
183.95048980332101
 30
0.0
 40
5.0
  0
CIRCLE
  5
326C
  8
3
 10
47.363109136601459
 20
183.95048980332101
 30
0.0
 40
4.1879999999999979
  0
LINE
  5
326D
  8
0
 10
42.455631848489531
 20
175.45048980332109
 30
0.0
 11
52.270586424713258
 21
175.45048980332101
 31
0.0
  0
LINE
  5
326E
  8
0
 10
52.270586424713258
 20
175.45048980332101
 30
0.0
 11
57.178063712825022
 21
183.95048980332101
 31
0.0
  0
LINE
  5
326F
  8
0
 10
57.178063712825022
 20
183.95048980332101
 30
0.0
 11
52.270586424713258
 21
192.45048980332101
 31
0.0
  0
LINE
  5
3270
  8
0
 10
52.270586424713258
 20
192.45048980332101
 30
0.0
 11
42.455631848489638
 21
192.45048980332101
 31
0.0
  0
LINE
  5
3271
  8
0
 10
42.455631848489638
 20
192.45048980332101
 30
0.0
 11
37.548154560377768
 21
183.95048980332101
 31
0.0
  0
LINE
  5
3272
  8
0
 10
37.548154560377768
 20
183.95048980332101
 30
0.0
 11
42.455631848489531
 21
175.45048980332109
 31
0.0
  0
CIRCLE
  5
3273
  8
0
 10
47.363109136601402
 20
183.95048980332101
 30
0.0
 40
8.25
  0
LINE
  5
3304
  8
1
 10
137.30735060230111
 20
131.9945034854172
 30
0.0
 11
137.30735060230111
 21
17.994503485417219
 31
0.0
  0
TEXT
  5
35F7
  8
0
 62
     3
 10
0.0
 20
0.0
 30
0.0
 40
10.0
  1
LVAR60S10B-SUS
  7
STANDARD1
  0
ENDSEC
  0
EOF
