  0
SECTION
  2
HEADER
  9
$ACADVER
  1
AC1009
  9
$INSBASE
 10
0.0
 20
0.0
 30
0.0
  9
$EXTMIN
 10
0.0
 20
-2.960436562073669
 30
0.0
  9
$EXTMAX
 10
170.732620060031
 20
221.2203674311221
 30
0.0
  9
$LIMMIN
 10
0.0
 20
0.0
  9
$LIMMAX
 10
375.0
 20
270.0
  9
$ORTHOMODE
 70
     1
  9
$REGENMODE
 70
     1
  9
$FILLMODE
 70
     1
  9
$QTEXTMODE
 70
     0
  9
$MIRRTEXT
 70
     0
  9
$DRAGMODE
 70
     2
  9
$LTSCALE
 40
6.0
  9
$OSMODE
 70
    37
  9
$ATTMODE
 70
     1
  9
$TEXTSIZE
 40
0.2
  9
$TRACEWID
 40
0.05
  9
$TEXTSTYLE
  7
STANDARD
  9
$CLAYER
  8
0
  9
$CELTYPE
  6
BYLAYER
  9
$CECOLOR
 62
   256
  9
$DIMSCALE
 40
1.0
  9
$DIMASZ
 40
3.0
  9
$DIMEXO
 40
1.0
  9
$DIMDLI
 40
6.0
  9
$DIMRND
 40
0.0
  9
$DIMDLE
 40
0.0
  9
$DIMEXE
 40
1.0
  9
$DIMTP
 40
495.0
  9
$DIMTM
 40
0.0
  9
$DIMTXT
 40
3.0
  9
$DIMCEN
 40
0.0
  9
$DIMTSZ
 40
0.0
  9
$DIMTOL
 70
     0
  9
$DIMLIM
 70
     0
  9
$DIMTIH
 70
     0
  9
$DIMTOH
 70
     0
  9
$DIMSE1
 70
     0
  9
$DIMSE2
 70
     0
  9
$DIMTAD
 70
     1
  9
$DIMZIN
 70
     0
  9
$DIMBLK
  1

  9
$DIMASO
 70
     0
  9
$DIMSHO
 70
     0
  9
$DIMPOST
  1

  9
$DIMAPOST
  1

  9
$DIMALT
 70
     0
  9
$DIMALTD
 70
     2
  9
$DIMALTF
 40
25.399999999999999
  9
$DIMLFAC
 40
1.0
  9
$DIMTOFL
 70
     1
  9
$DIMTVP
 40
0.0
  9
$DIMTIX
 70
     1
  9
$DIMSOXD
 70
     0
  9
$DIMSAH
 70
     0
  9
$DIMBLK1
  1

  9
$DIMBLK2
  1

  9
$DIMSTYLE
  2
STANDARD
  9
$DIMCLRD
 70
     0
  9
$DIMCLRE
 70
     0
  9
$DIMCLRT
 70
     4
  9
$DIMTFAC
 40
1.0
  9
$DIMGAP
 40
1.0
  9
$LUNITS
 70
     2
  9
$LUPREC
 70
     4
  9
$SKETCHINC
 40
0.1
  9
$FILLETRAD
 40
2.0
  9
$AUNITS
 70
     0
  9
$AUPREC
 70
     0
  9
$MENU
  1
C:\R13\WIN\SUPPORT\ACAD-I
  9
$ELEVATION
 40
0.0
  9
$PELEVATION
 40
0.0
  9
$THICKNESS
 40
0.0
  9
$LIMCHECK
 70
     0
  9
$BLIPMODE
 70
     0
  9
$CHAMFERA
 40
0.0
  9
$CHAMFERB
 40
0.0
  9
$SKPOLY
 70
     0
  9
$TDCREATE
 40
2451962.408227812
  9
$TDUPDATE
 40
2456598.7200583098
  9
$TDINDWG
 40
0.0948244444
  9
$TDUSRTIMER
 40
2456598.0502147921
  9
$USRTIMER
 70
     1
  9
$ANGBASE
 50
0.0
  9
$ANGDIR
 70
     0
  9
$PDMODE
 70
     0
  9
$PDSIZE
 40
0.0
  9
$PLINEWID
 40
0.0
  9
$COORDS
 70
     1
  9
$SPLFRAME
 70
     0
  9
$SPLINETYPE
 70
     6
  9
$SPLINESEGS
 70
     8
  9
$ATTDIA
 70
     0
  9
$ATTREQ
 70
     1
  9
$HANDLING
 70
     1
  9
$HANDSEED
  5
3B52
  9
$SURFTAB1
 70
     6
  9
$SURFTAB2
 70
     6
  9
$SURFTYPE
 70
     6
  9
$SURFU
 70
     6
  9
$SURFV
 70
     6
  9
$UCSNAME
  2

  9
$UCSORG
 10
0.0
 20
0.0
 30
0.0
  9
$UCSXDIR
 10
1.0
 20
0.0
 30
0.0
  9
$UCSYDIR
 10
0.0
 20
1.0
 30
0.0
  9
$PUCSNAME
  2

  9
$PUCSORG
 10
0.0
 20
0.0
 30
0.0
  9
$PUCSXDIR
 10
1.0
 20
0.0
 30
0.0
  9
$PUCSYDIR
 10
0.0
 20
1.0
 30
0.0
  9
$USERI1
 70
     4
  9
$USERI2
 70
     1
  9
$USERI3
 70
     0
  9
$USERI4
 70
     0
  9
$USERI5
 70
     0
  9
$USERR1
 40
1.0
  9
$USERR2
 40
3.0
  9
$USERR3
 40
3.0
  9
$USERR4
 40
3.0
  9
$USERR5
 40
10.0
  9
$WORLDVIEW
 70
     1
  9
$SHADEDGE
 70
     3
  9
$SHADEDIF
 70
    70
  9
$TILEMODE
 70
     1
  9
$MAXACTVP
 70
    16
  9
$PLIMCHECK
 70
     0
  9
$PEXTMIN
 10
1.0000000000000000E+020
 20
1.0000000000000000E+020
 30
1.0000000000000000E+020
  9
$PEXTMAX
 10
-1.0000000000000000E+020
 20
-1.0000000000000000E+020
 30
-1.0000000000000000E+020
  9
$PLIMMIN
 10
0.0
 20
0.0
  9
$PLIMMAX
 10
12.0
 20
9.0
  9
$UNITMODE
 70
     0
  9
$VISRETAIN
 70
     0
  9
$PLINEGEN
 70
     0
  9
$PSLTSCALE
 70
     0
  0
ENDSEC
  0
SECTION
  2
TABLES
  0
TABLE
  2
VPORT
 70
     1
  0
VPORT
  2
*ACTIVE
 70
     0
 10
0.0
 20
0.0
 11
1.0
 21
1.0
 12
187.49427839065231
 22
177.52205812711131
 13
0.0
 23
0.0
 14
10.0
 24
10.0
 15
10.0
 25
10.0
 16
0.0
 26
0.0
 36
1.0
 17
0.0
 27
0.0
 37
0.0
 40
364.13085016302909
 41
1.755244755244755
 42
50.0
 43
0.0
 44
0.0
 50
0.0
 51
0.0
 71
    16
 72
   100
 73
     1
 74
     0
 75
     0
 76
     0
 77
     0
 78
     0
  0
ENDTAB
  0
TABLE
  2
LTYPE
 70
     3
  0
LTYPE
  2
CONTINUOUS
 70
     0
  3
Solid Line
 72
    65
 73
     0
 40
0.0
  0
LTYPE
  2
PHANTOM2
 70
     0
  3
___ _ _ ___ _ _ ___ _ _ ___ _ _
 72
    65
 73
     6
 40
1.25
 49
0.625
 49
-0.125
 49
0.125
 49
-0.125
 49
0.125
 49
-0.125
  0
LTYPE
  2
CENTER
 70
     0
  3
____ _ ____ _ ____ _ ____ _ ____ _ ____ _ ____
 72
    65
 73
     4
 40
2.0
 49
1.25
 49
-0.25
 49
0.25
 49
-0.25
  0
ENDTAB
  0
TABLE
  2
LAYER
 70
     3
  0
LAYER
  2
0
 70
     0
 62
     7
  6
CONTINUOUS
  0
LAYER
  2
1
 70
     0
 62
     1
  6
CENTER
  0
LAYER
  2
3
 70
     0
 62
     3
  6
CONTINUOUS
  0
ENDTAB
  0
TABLE
  2
STYLE
 70
     3
  0
STYLE
  2
STANDARD
 70
     0
 40
0.0
 41
1.0
 50
0.0
 71
     0
 42
0.2
  3
SIMPLEX
  4
BIGFONT
  0
STYLE
  2
ANNOTATIVE
 70
     0
 40
0.0
 41
1.0
 50
0.0
 71
     0
 42
0.2
  3
txt
  4

  0
STYLE
  2
STANDARD1
 70
     0
 40
0.0
 41
1.0
 50
0.0
 71
     0
 42
3.0
  3
txt
  4

  0
ENDTAB
  0
TABLE
  2
VIEW
 70
     0
  0
ENDTAB
  0
TABLE
  2
UCS
 70
     0
  0
ENDTAB
  0
TABLE
  2
APPID
 70
    29
  0
APPID
  2
ACAD
 70
     0
  0
APPID
  2
ACADANNOTATIVE
 70
     0
  0
APPID
  2
GENIUS_GENOREF_13
 70
     0
  0
APPID
  2
GENIUS_GENOENT_13
 70
     0
  0
APPID
  2
GENIUS_GENBH_13
 70
     0
  0
APPID
  2
GENIUS_GENOBJ_13
 70
     0
  0
APPID
  2
GENIUS_GENODEF_13
 70
     0
  0
APPID
  2
GENIUS_GENOLIS_13
 70
     0
  0
APPID
  2
GENIUS_GENOBJ-NBEHI-BHF_13
 70
     0
  0
APPID
  2
GENIUS_GENOBJ-NBEHI-BHB_13
 70
     0
  0
APPID
  2
GENIUS_GENOBJ-F-PART_13
 70
     0
  0
APPID
  2
GENIUS_GEFSTDP_13
 70
     0
  0
APPID
  2
GENIUS_GENOBJ-N-RSSYM_13
 70
     0
  0
APPID
  2
GENIUS_GENSYMENT_13
 70
     0
  0
APPID
  2
GENIUS_GENOBJ-N-TIT_13
 70
     0
  0
APPID
  2
GENIUS_GENTITLE_13
 70
     0
  0
APPID
  2
GENIUS_GENZVEED_13
 70
     0
  0
APPID
  2
GENIUS_GENOBJ-N-LEADER_13
 70
     0
  0
APPID
  2
GENIUS_GENOBJ-N-FIL_13
 70
     0
  0
APPID
  2
GENIUS_GENOBJ-N-SEC_13
 70
     0
  0
APPID
  2
GENIUS_GENOBJ-N-CRS_13
 70
     0
  0
APPID
  2
GENIUS_GENOBJ-N-ZOO_13
 70
     0
  0
APPID
  2
GENIUS_GENZOO_13
 70
     0
  0
APPID
  2
GENIUS_GENOBJ-F-TOL_13
 70
     0
  0
APPID
  2
GENIUS_GENFIL_13
 70
     0
  0
APPID
  2
GENIUS_GENOBJ-N-CHA_13
 70
     0
  0
APPID
  2
ACAD_EXEMPT_FROM_CAD_STANDARDS
 70
     0
  0
APPID
  2
ACAD_MLEADERVER
 70
     0
  0
APPID
  2
ACAD_NAV_VCDISPLAY
 70
     0
  0
ENDTAB
  0
TABLE
  2
DIMSTYLE
 70
     2
  0
DIMSTYLE
  2
STANDARD
 70
     0
  3

  4

  5

  6

  7

 40
1.0
 41
0.18
 42
0.0625
 43
0.38
 44
0.18
 45
0.0
 46
0.0
 47
0.0
 48
0.0
140
0.18
141
0.09
142
0.0
143
25.399999999999999
144
1.0
145
0.0
146
1.0
147
0.09
 71
     0
 72
     0
 73
     1
 74
     1
 75
     0
 76
     0
 77
     0
 78
     0
170
     0
171
     2
172
     0
173
     0
174
     0
175
     0
176
     0
177
     0
178
     0
  0
DIMSTYLE
  2
ANNOTATIVE
 70
     0
  3

  4

  5

  6

  7

 40
1.0
 41
0.18
 42
0.0625
 43
0.38
 44
0.18
 45
0.0
 46
0.0
 47
0.0
 48
0.0
140
0.18
141
0.09
142
0.0
143
25.399999999999999
144
1.0
145
0.0
146
1.0
147
0.09
 71
     0
 72
     0
 73
     1
 74
     1
 75
     0
 76
     0
 77
     0
 78
     0
170
     0
171
     2
172
     0
173
     0
174
     0
175
     0
176
     0
177
     0
178
     0
  0
ENDTAB
  0
ENDSEC
  0
SECTION
  2
BLOCKS
  0
BLOCK
  8
0
  2
$MODEL_SPACE
 70
     0
 10
0.0
 20
0.0
 30
0.0
  3
$MODEL_SPACE
  1

  0
ENDBLK
  5
3A19
  8
0
  0
BLOCK
 67
     1
  8
0
  2
$PAPER_SPACE
 70
     0
 10
0.0
 20
0.0
 30
0.0
  3
$PAPER_SPACE
  1

  0
ENDBLK
  5
3A15
 67
     1
  8
0
  0
ENDSEC
  0
SECTION
  2
ENTITIES
  0
ARC
  5
3663
  8
0
 10
168.732620060031
 20
37.13200035528007
 30
0.0
 40
2.0
 50
359.9999999999996
 51
59.036243467926127
  0
ARC
  5
3664
  8
0
 10
163.7326200600308
 20
42.132000355280063
 30
0.0
 40
2.0
 50
0.0
 51
59.036243467926127
  0
ARC
  5
3665
  8
0
 10
158.7326200600308
 20
46.910315190364372
 30
0.0
 40
2.0
 50
359.9999999999992
 51
68.198590513648639
  0
ARC
  5
3666
  8
0
 10
153.73262006003091
 20
50.264381113218292
 30
0.0
 40
2.0
 50
0.0000000000008142
 51
90.0
  0
LINE
  5
3667
  8
0
 10
165.7326200600308
 20
41.264381113218178
 30
0.0
 11
169.761611570886
 21
38.846986206705189
 31
0.0
  0
LINE
  5
3668
  8
0
 10
155.73262006003091
 20
50.264381113218171
 30
0.0
 11
155.73262006003091
 21
50.264381113218292
 31
0.0
  0
LINE
  5
3669
  8
0
 10
127.7326200600309
 20
52.264381113218292
 30
0.0
 11
153.73262006003091
 21
52.264381113218292
 31
0.0
  0
LINE
  5
366A
  8
0
 10
155.73262006003091
 20
50.264381113218171
 30
0.0
 11
159.47540141273899
 21
48.767268572134981
 31
0.0
  0
LINE
  5
366B
  8
0
 10
160.73262006003091
 20
46.264381113218157
 30
0.0
 11
164.761611570886
 21
43.846986206705203
 31
0.0
  0
LINE
  5
366C
  8
0
 10
165.7326200600308
 20
41.264381113218178
 30
0.0
 11
165.7326200600308
 21
42.132000355280063
 31
0.0
  0
LINE
  5
366D
  8
0
 10
160.73262006003091
 20
46.264381113218157
 30
0.0
 11
160.7326200600308
 21
46.910315190364372
 31
0.0
  0
LINE
  5
366E
  8
0
 10
125.7326200600309
 20
50.264381113218292
 30
0.0
 11
155.7326200600308
 21
50.264381113218292
 31
0.0
  0
LINE
  5
366F
  8
0
 10
120.7326200600309
 20
46.264381113218292
 30
0.0
 11
160.73262006003091
 21
46.264381113218157
 31
0.0
  0
LINE
  5
3670
  8
0
 10
115.7326200600311
 20
41.264381113218178
 30
0.0
 11
165.7326200600308
 21
41.264381113218178
 31
0.0
  0
LINE
  5
3671
  8
0
 10
170.2326200600308
 20
25.264381113218182
 30
0.0
 11
170.23262006003071
 21
28.264381113218288
 31
0.0
  0
LINE
  5
3672
  8
0
 10
111.2326200600309
 20
25.264381113218288
 30
0.0
 11
170.2326200600308
 21
25.264381113218182
 31
0.0
  0
LINE
  5
3673
  8
0
 10
111.2326200600309
 20
28.264381113218288
 30
0.0
 11
170.23262006003071
 21
28.264381113218288
 31
0.0
  0
LINE
  5
3674
  8
0
 10
170.7326200600308
 20
28.764381113218288
 30
0.0
 11
170.73262006003091
 21
37.13200035528007
 31
0.0
  0
LINE
  5
3675
  8
0
 10
170.7326200600308
 20
28.764381113218288
 30
0.0
 11
170.2326200600308
 21
28.264381113218288
 31
0.0
  0
CIRCLE
  5
3677
  8
0
 10
49.604573381472619
 20
186.2203674311221
 30
0.0
 40
30.0
  0
CIRCLE
  5
3678
  8
0
 10
49.604573381472619
 20
186.2203674311221
 30
0.0
 40
25.0
  0
CIRCLE
  5
3679
  8
0
 10
49.604573381472619
 20
186.2203674311221
 30
0.0
 40
20.00000000000006
  0
CIRCLE
  5
367A
  8
0
 10
49.604573381472861
 20
186.2203674311221
 30
0.0
 40
14.99999999999981
  0
LINE
  5
367B
  8
1
 10
49.604573381472619
 20
221.2203674311221
 30
0.0
 11
49.604573381472619
 21
151.2203674311221
 31
0.0
  0
LINE
  5
367C
  8
1
 10
84.604573381472619
 20
186.2203674311221
 30
0.0
 11
14.604573381472671
 21
186.2203674311221
 31
0.0
  0
LINE
  5
367D
  8
0
 10
44.119745824171268
 20
176.72036743112221
 30
0.0
 11
55.089400938773913
 21
176.72036743112221
 31
0.0
  0
CIRCLE
  5
367E
  8
0
 10
49.604573381472619
 20
186.2203674311221
 30
0.0
 40
9.0
  0
CIRCLE
  5
367F
  8
0
 10
49.604573381472619
 20
186.2203674311221
 30
0.0
 40
6.0
  0
CIRCLE
  5
3680
  8
3
 10
49.604573381472619
 20
186.2203674311221
 30
0.0
 40
5.052999999999999
  0
LINE
  5
3681
  8
0
 10
55.089400938773913
 20
176.72036743112221
 30
0.0
 11
60.57422849607542
 21
186.2203674311221
 31
0.0
  0
LINE
  5
3682
  8
0
 10
60.57422849607542
 20
186.2203674311221
 30
0.0
 11
55.089400938774141
 21
195.7203674311221
 31
0.0
  0
LINE
  5
3683
  8
0
 10
55.089400938774141
 20
195.7203674311221
 30
0.0
 11
44.119745824171382
 21
195.7203674311221
 31
0.0
  0
LINE
  5
3684
  8
0
 10
44.119745824171382
 20
195.7203674311221
 30
0.0
 11
38.634918266869761
 21
186.2203674311221
 31
0.0
  0
LINE
  5
3685
  8
0
 10
38.634918266869761
 20
186.2203674311221
 30
0.0
 11
44.119745824171268
 21
176.72036743112221
 31
0.0
  0
LINE
  5
3686
  8
0
 10
147.46338929079681
 20
56.264381113217958
 30
0.0
 11
134.0018508292612
 21
56.264381113217958
 31
0.0
  0
LINE
  5
3687
  8
0
 10
134.00185082925961
 20
61.264381113217709
 30
0.0
 11
147.46338929079661
 21
61.264381113217709
 31
0.0
  0
ARC
  5
3688
  8
0
 10
146.79479788651969
 20
57.530788808335053
 30
0.0
 40
3.5781518477924039
 50
64.384247467827308
 51
124.38424746803869
  0
LINE
  5
3689
  8
0
 10
148.81552382868361
 20
60.48372587378821
 30
0.0
 11
147.46338929079681
 21
61.264381113217709
 31
0.0
  0
LINE
  5
368A
  8
0
 10
148.81552382868361
 20
57.045036352647458
 30
0.0
 11
147.46338929079681
 21
56.264381113217958
 31
0.0
  0
ARC
  5
368B
  8
0
 10
146.79479788651969
 20
59.997973418100621
 30
0.0
 40
3.5781518477924039
 50
235.61575253196131
 51
295.61575253217268
  0
LINE
  5
368C
  8
0
 10
148.81552382868361
 20
60.48372587378821
 30
0.0
 11
148.81552382868361
 21
57.045036352647458
 31
0.0
  0
LINE
  5
368D
  8
0
 10
144.77407194435449
 20
60.483725873788671
 30
0.0
 11
144.77407194435631
 21
57.045036352649049
 31
0.0
  0
LINE
  5
368E
  8
0
 10
136.6911681757033
 20
60.483725873787073
 30
0.0
 11
136.69116817570151
 21
57.045036352649049
 31
0.0
  0
LINE
  5
368F
  8
0
 10
132.64971629137401
 20
60.48372587378821
 30
0.0
 11
132.64971629137401
 21
57.045036352647458
 31
0.0
  0
ARC
  5
3690
  8
0
 10
140.7326200600298
 20
69.794606787961811
 30
0.0
 40
13.374785217653811
 50
252.4120462259952
 51
287.5879537740048
  0
ARC
  5
3691
  8
0
 10
134.6704422335379
 20
59.997973418100621
 30
0.0
 40
3.5781518477924039
 50
244.38424746782729
 51
304.38424746803872
  0
LINE
  5
3692
  8
0
 10
132.64971629137401
 20
57.045036352647458
 30
0.0
 11
134.001850829261
 21
56.264381113217958
 31
0.0
  0
LINE
  5
3693
  8
0
 10
132.64971629137401
 20
60.48372587378821
 30
0.0
 11
134.001850829261
 21
61.264381113217709
 31
0.0
  0
ARC
  5
3694
  8
0
 10
140.7326200600298
 20
47.734155438473621
 30
0.0
 40
13.374785217653811
 50
72.412046225995169
 51
107.5879537740048
  0
ARC
  5
3695
  8
0
 10
134.6704422335379
 20
57.530788808335053
 30
0.0
 40
3.5781518477924039
 50
55.615752531961242
 51
115.61575253217271
  0
LINE
  5
3696
  8
0
 10
135.23262006002881
 20
52.264381113217823
 30
0.0
 11
135.23262006002881
 21
56.264381113217958
 31
0.0
  0
LINE
  5
3697
  8
0
 10
146.23262006002881
 20
52.264381113217823
 30
0.0
 11
146.23262006002881
 21
56.264381113217958
 31
0.0
  0
LINE
  5
3698
  8
0
 10
150.23262006002881
 20
81.975705978623296
 30
0.0
 11
149.73262006002881
 21
82.264381113218164
 31
0.0
  0
ARC
  5
3699
  8
0
 10
145.48262006002881
 20
68.256022088630175
 30
0.0
 40
13.719683889993171
 50
69.743841999613053
 51
110.256158000387
  0
LINE
  5
369A
  8
0
 10
149.73262006002881
 20
72.264381113218292
 30
0.0
 11
150.23262006002881
 21
72.624853017538385
 31
0.0
  0
LINE
  5
369B
  8
0
 10
150.23262006002881
 20
72.624853017538385
 30
0.0
 11
150.23262006002881
 21
81.975705978623296
 31
0.0
  0
ARC
  5
369C
  8
0
 10
145.48262006002881
 20
86.272740137806295
 30
0.0
 40
13.719683889993171
 50
249.7438419996115
 51
290.25615800038702
  0
ARC
  5
369D
  8
0
 10
135.98262006002881
 20
86.272740137806295
 30
0.0
 40
13.719683889993171
 50
249.7438419996115
 51
290.25615800038702
  0
LINE
  5
369E
  8
0
 10
131.23262006002881
 20
72.624853017538385
 30
0.0
 11
131.23262006002881
 21
81.975705978623296
 31
0.0
  0
LINE
  5
369F
  8
0
 10
131.73262006002881
 20
72.264381113218292
 30
0.0
 11
131.23262006002881
 21
72.624853017538385
 31
0.0
  0
ARC
  5
36A0
  8
0
 10
135.98262006002881
 20
68.256022088630175
 30
0.0
 40
13.719683889993171
 50
69.743841999613053
 51
110.256158000387
  0
LINE
  5
36A1
  8
0
 10
131.23262006002881
 20
81.975705978623296
 30
0.0
 11
131.73262006002881
 21
82.264381113218164
 31
0.0
  0
LINE
  5
36A2
  8
0
 10
131.73262006002881
 20
82.264381113218164
 30
0.0
 11
149.73262006002881
 21
82.264381113218164
 31
0.0
  0
LINE
  5
36A3
  8
0
 10
149.73262006002881
 20
72.264381113218292
 30
0.0
 11
131.73262006002881
 21
72.264381113218292
 31
0.0
  0
LINE
  5
36A4
  8
0
 10
140.73262006002571
 20
81.127200202592348
 30
0.0
 11
140.73262006002881
 21
73.401562023844122
 31
0.0
  0
LINE
  5
36A5
  8
0
 10
136.73262006002881
 20
129.26438111321829
 30
0.0
 11
144.73262006002881
 21
129.26438111321809
 31
0.0
  0
LINE
  5
36A6
  8
0
 10
146.73262006002881
 20
61.264381113218171
 30
0.0
 11
146.73262006002881
 21
72.264381113218292
 31
0.0
  0
LINE
  5
36A7
  8
3
 10
145.78562006002889
 20
63.264381113218171
 30
0.0
 11
145.78562006002889
 21
72.264381113218292
 31
0.0
  0
LINE
  5
36A8
  8
0
 10
144.73262006002881
 20
129.26438111321809
 30
0.0
 11
146.73262006002881
 21
127.26438111321811
 31
0.0
  0
LINE
  5
36A9
  8
0
 10
134.73262006002881
 20
127.26438111321811
 30
0.0
 11
146.73262006002881
 21
127.26438111321811
 31
0.0
  0
LINE
  5
36AA
  8
0
 10
146.73262006002881
 20
63.264381113218171
 30
0.0
 11
134.73262006002881
 21
63.264381113218171
 31
0.0
  0
LINE
  5
36AB
  8
3
 10
145.7856200600288
 20
63.264381113218171
 30
0.0
 11
146.73262006002881
 21
61.62412899845048
 31
0.0
  0
LINE
  5
36AC
  8
0
 10
134.73262006002881
 20
61.264381113218171
 30
0.0
 11
134.73262006002881
 21
72.264381113218178
 31
0.0
  0
LINE
  5
36AD
  8
3
 10
135.67962006002881
 20
63.264381113218171
 30
0.0
 11
135.6796200600289
 21
72.264381113218292
 31
0.0
  0
LINE
  5
36AE
  8
0
 10
136.73262006002881
 20
129.26438111321829
 30
0.0
 11
134.73262006002881
 21
127.26438111321831
 31
0.0
  0
LINE
  5
36AF
  8
3
 10
135.67962006002881
 20
63.264381113218171
 30
0.0
 11
134.73262006002881
 21
61.62412899845048
 31
0.0
  0
LINE
  5
36B0
  8
3
 10
135.6796200600289
 20
82.264381113218064
 30
0.0
 11
135.6796200600289
 21
128.21138111321829
 31
0.0
  0
LINE
  5
36B1
  8
0
 10
134.73262006002881
 20
82.264381113218292
 30
0.0
 11
134.73262006002881
 21
127.26438111321831
 31
0.0
  0
LINE
  5
36B2
  8
3
 10
145.785620060029
 20
82.264381113218164
 30
0.0
 11
145.785620060029
 21
128.21138111321801
 31
0.0
  0
LINE
  5
36B3
  8
0
 10
146.73262006002881
 20
82.264381113218164
 30
0.0
 11
146.73262006002881
 21
127.26438111321811
 31
0.0
  0
LINE
  5
36B4
  8
0
 10
55.10457338147215
 20
52.264381113217823
 30
0.0
 11
55.10457338147215
 21
56.264381113217709
 31
0.0
  0
LINE
  5
36B5
  8
0
 10
44.104573381472157
 20
52.264381113217823
 30
0.0
 11
44.104573381472157
 21
56.264381113217709
 31
0.0
  0
LINE
  5
36B6
  8
0
 10
49.604573381472044
 20
60.48372587378821
 30
0.0
 11
49.604573381472044
 21
57.045036352647109
 31
0.0
  0
LINE
  5
36B7
  8
0
 10
42.604573381472051
 20
61.108940656127402
 30
0.0
 11
42.604573381472051
 21
56.419821570307931
 31
0.0
  0
LINE
  5
36B8
  8
0
 10
56.604573381472044
 20
61.108940656127402
 30
0.0
 11
56.604573381472044
 21
56.419821570307931
 31
0.0
  0
LINE
  5
36B9
  8
0
 10
56.335342612240069
 20
61.264381113217709
 30
0.0
 11
42.873804150703997
 21
61.264381113217709
 31
0.0
  0
ARC
  5
36BA
  8
0
 10
46.104573381472157
 20
50.999699895089982
 30
0.0
 40
10.10924076103746
 50
69.743841999583282
 51
110.2561580004167
  0
LINE
  5
36BB
  8
0
 10
42.604573381472051
 20
61.108940656127402
 30
0.0
 11
42.873804150703997
 21
61.264381113217709
 31
0.0
  0
LINE
  5
36BC
  8
0
 10
56.604573381472044
 20
61.108940656127402
 30
0.0
 11
56.335342612240069
 21
61.264381113217709
 31
0.0
  0
ARC
  5
36BD
  8
0
 10
53.104573381471937
 20
50.999699895089982
 30
0.0
 40
10.10924076103746
 50
69.743841999583282
 51
110.2561580004167
  0
LINE
  5
36BE
  8
0
 10
56.335342612240069
 20
56.264381113217709
 30
0.0
 11
42.873804150703997
 21
56.264381113217709
 31
0.0
  0
ARC
  5
36BF
  8
0
 10
46.104573381472157
 20
66.529062331345358
 30
0.0
 40
10.10924076103746
 50
249.74384199958331
 51
290.25615800041669
  0
LINE
  5
36C0
  8
0
 10
42.604573381472051
 20
56.419821570307931
 30
0.0
 11
42.873804150703997
 21
56.264381113217709
 31
0.0
  0
LINE
  5
36C1
  8
0
 10
56.604573381472044
 20
56.419821570307931
 30
0.0
 11
56.335342612240069
 21
56.264381113217709
 31
0.0
  0
ARC
  5
36C2
  8
0
 10
53.104573381471937
 20
66.529062331345358
 30
0.0
 40
10.10924076103746
 50
249.74384199958331
 51
290.25615800041669
  0
LINE
  5
36C3
  8
3
 10
54.657573381472247
 20
63.264381113218171
 30
0.0
 11
55.604573381472271
 21
61.62412899845048
 31
0.0
  0
LINE
  5
36C4
  8
3
 10
44.55157338147233
 20
63.264381113218171
 30
0.0
 11
43.604573381472342
 21
61.62412899845048
 31
0.0
  0
LINE
  5
36C5
  8
0
 10
55.604573381472271
 20
63.264381113218171
 30
0.0
 11
43.604573381472342
 21
63.264381113218171
 31
0.0
  0
LINE
  5
36C6
  8
0
 10
43.604573381472342
 20
127.26438111321811
 30
0.0
 11
55.604573381472377
 21
127.26438111321811
 31
0.0
  0
LINE
  5
36C7
  8
0
 10
53.604573381472377
 20
129.26438111321809
 30
0.0
 11
55.604573381472377
 21
127.26438111321811
 31
0.0
  0
LINE
  5
36C8
  8
0
 10
45.604573381472377
 20
129.26438111321829
 30
0.0
 11
43.604573381472342
 21
127.26438111321831
 31
0.0
  0
LINE
  5
36C9
  8
0
 10
43.604573381472342
 20
61.264381113218171
 30
0.0
 11
43.604573381472342
 21
72.264381113218178
 31
0.0
  0
LINE
  5
36CA
  8
3
 10
44.55157338147233
 20
63.264381113218171
 30
0.0
 11
44.551573381472281
 21
72.264381113218178
 31
0.0
  0
LINE
  5
36CB
  8
3
 10
54.657573381472389
 20
63.264381113218171
 30
0.0
 11
54.657573381472389
 21
72.264381113218178
 31
0.0
  0
LINE
  5
36CC
  8
0
 10
55.604573381472271
 20
61.264381113218171
 30
0.0
 11
55.604573381472271
 21
72.264381113218178
 31
0.0
  0
LINE
  5
36CD
  8
0
 10
45.604573381472377
 20
129.26438111321829
 30
0.0
 11
53.604573381472377
 21
129.26438111321809
 31
0.0
  0
LINE
  5
36CE
  8
0
 10
38.63491826686942
 20
81.127200202592235
 30
0.0
 11
40.604573381471077
 21
82.264381113218064
 31
0.0
  0
ARC
  5
36CF
  8
0
 10
41.377332045520063
 20
77.11964275661478
 30
0.0
 40
4.8560632220084567
 50
55.615752531983382
 51
115.6157525319127
  0
ARC
  5
36D0
  8
0
 10
49.604573381472377
 20
63.824211754637737
 30
0.0
 40
18.15149422398537
 50
72.412046226036338
 51
107.58795377396351
  0
ARC
  5
36D1
  8
0
 10
57.83181471742477
 20
77.11964275661478
 30
0.0
 40
4.8560632220084567
 50
64.384247468087224
 51
124.3842474680165
  0
LINE
  5
36D2
  8
0
 10
60.57422849607542
 20
81.127200202592235
 30
0.0
 11
58.60457338147377
 21
82.264381113218064
 31
0.0
  0
LINE
  5
36D3
  8
0
 10
40.604573381471077
 20
82.264381113218064
 30
0.0
 11
58.60457338147377
 21
82.264381113218064
 31
0.0
  0
LINE
  5
36D4
  8
0
 10
40.604573381471077
 20
72.264381113218178
 30
0.0
 11
58.60457338147377
 21
72.264381113218178
 31
0.0
  0
LINE
  5
36D5
  8
0
 10
60.57422849607542
 20
73.401562023844008
 30
0.0
 11
58.60457338147377
 21
72.264381113218178
 31
0.0
  0
ARC
  5
36D6
  8
0
 10
57.83181471742477
 20
77.409119469821462
 30
0.0
 40
4.8560632220084567
 50
235.6157525319833
 51
295.61575253191268
  0
ARC
  5
36D7
  8
0
 10
49.604573381472377
 20
90.704550471798484
 30
0.0
 40
18.15149422398537
 50
252.41204622603641
 51
287.5879537739637
  0
ARC
  5
36D8
  8
0
 10
41.377332045520063
 20
77.409119469821462
 30
0.0
 40
4.8560632220084567
 50
244.3842474680873
 51
304.3842474680165
  0
LINE
  5
36D9
  8
0
 10
38.63491826686942
 20
73.401562023844008
 30
0.0
 11
40.604573381471077
 21
72.264381113218178
 31
0.0
  0
LINE
  5
36DA
  8
0
 10
38.63491826686942
 20
81.127200202592235
 30
0.0
 11
38.63491826686942
 21
73.401562023843894
 31
0.0
  0
LINE
  5
36DB
  8
0
 10
44.119745824175247
 20
81.127200202592235
 30
0.0
 11
44.119745824171147
 21
73.401562023843667
 31
0.0
  0
LINE
  5
36DC
  8
0
 10
60.57422849607542
 20
81.127200202592235
 30
0.0
 11
60.57422849607542
 21
73.401562023843894
 31
0.0
  0
LINE
  5
36DD
  8
0
 10
55.089400938769579
 20
81.127200202592235
 30
0.0
 11
55.089400938773679
 21
73.401562023843667
 31
0.0
  0
LINE
  5
36DE
  8
0
 10
55.604573381472377
 20
82.264381113218064
 30
0.0
 11
55.604573381472377
 21
127.26438111321811
 31
0.0
  0
LINE
  5
36DF
  8
3
 10
54.657573381472389
 20
82.264381113218064
 30
0.0
 11
54.657573381472389
 21
128.21138111321801
 31
0.0
  0
LINE
  5
36E0
  8
3
 10
44.551573381472281
 20
82.264381113218064
 30
0.0
 11
44.55157338147233
 21
128.21138111321829
 31
0.0
  0
LINE
  5
36E1
  8
0
 10
43.604573381472342
 20
82.264381113218064
 30
0.0
 11
43.604573381472342
 21
127.26438111321831
 31
0.0
  0
LINE
  5
36E2
  8
1
 10
49.604573381471141
 20
20.264381113218288
 30
0.0
 11
49.604573381472377
 21
134.26438111321829
 31
0.0
  0
LINE
  5
36F0
  8
0
 10
110.7326200600311
 20
28.764381113218288
 30
0.0
 11
111.232620060031
 21
28.264381113218288
 31
0.0
  0
LINE
  5
36F1
  8
0
 10
110.7326200600311
 20
28.764381113218288
 30
0.0
 11
110.7326200600309
 21
37.13200035528007
 31
0.0
  0
LINE
  5
36F2
  8
0
 10
111.232620060031
 20
25.264381113218182
 30
0.0
 11
111.23262006003119
 21
28.264381113218288
 31
0.0
  0
LINE
  5
36F3
  8
0
 10
120.7326200600309
 20
46.264381113218157
 30
0.0
 11
120.7326200600311
 21
46.910315190364372
 31
0.0
  0
LINE
  5
36F4
  8
0
 10
115.7326200600311
 20
41.264381113218178
 30
0.0
 11
115.7326200600311
 21
42.132000355280063
 31
0.0
  0
LINE
  5
36F5
  8
0
 10
120.7326200600309
 20
46.264381113218157
 30
0.0
 11
116.7036285491759
 21
43.846986206705203
 31
0.0
  0
LINE
  5
36F6
  8
0
 10
125.7326200600309
 20
50.264381113218171
 30
0.0
 11
121.9898387073228
 21
48.767268572134981
 31
0.0
  0
LINE
  5
36F7
  8
0
 10
125.7326200600309
 20
50.264381113218171
 30
0.0
 11
125.7326200600309
 21
50.264381113218292
 31
0.0
  0
LINE
  5
36F8
  8
0
 10
115.7326200600311
 20
41.264381113218178
 30
0.0
 11
111.7036285491759
 21
38.846986206705189
 31
0.0
  0
ARC
  5
36F9
  8
0
 10
127.7326200600309
 20
50.264381113218292
 30
0.0
 40
2.0
 50
90.0
 51
179.9999999999992
  0
ARC
  5
36FA
  8
0
 10
122.7326200600311
 20
46.910315190364372
 30
0.0
 40
2.0
 50
111.8014094863517
 51
180.0000000000008
  0
ARC
  5
36FB
  8
0
 10
117.7326200600311
 20
42.132000355280063
 30
0.0
 40
2.0
 50
120.9637565320738
 51
180.0
  0
ARC
  5
36FC
  8
0
 10
112.7326200600309
 20
37.13200035528007
 30
0.0
 40
2.0
 50
120.9637565320735
 51
180.0000000000004
  0
LINE
  5
37A6
  8
1
 10
140.73262006003091
 20
20.2643934573648
 30
0.0
 11
140.73262006003091
 21
134.26436876907169
 31
0.0
  0
ARC
  5
37BD
  8
0
 10
21.604573381472051
 20
37.13200035527985
 30
0.0
 40
2.0
 50
120.9637565320735
 51
180.0000000000004
  0
ARC
  5
37BE
  8
0
 10
26.604573381472161
 20
42.13200035527985
 30
0.0
 40
2.0
 50
120.9637565320738
 51
180.0
  0
ARC
  5
37BF
  8
0
 10
31.604573381472161
 20
46.91031519036413
 30
0.0
 40
2.0
 50
111.8014094863516
 51
180.0000000000008
  0
ARC
  5
37C0
  8
0
 10
36.604573381472051
 20
50.26438111321805
 30
0.0
 40
2.0
 50
90.0
 51
179.9999999999992
  0
LINE
  5
37C1
  8
0
 10
24.604573381472171
 20
41.264381113217951
 30
0.0
 11
20.57558187061705
 21
38.846986206704969
 31
0.0
  0
LINE
  5
37C2
  8
0
 10
34.604573381472051
 20
50.264381113217951
 30
0.0
 11
34.604573381472051
 21
50.26438111321805
 31
0.0
  0
LINE
  5
37C3
  8
0
 10
34.604573381472051
 20
50.264381113217951
 30
0.0
 11
30.86179202876394
 21
48.767268572134753
 31
0.0
  0
LINE
  5
37C4
  8
0
 10
29.604573381472051
 20
46.264381113217951
 30
0.0
 11
25.57558187061705
 21
43.846986206704969
 31
0.0
  0
LINE
  5
37C5
  8
0
 10
24.604573381472171
 20
41.264381113217951
 30
0.0
 11
24.604573381472171
 21
42.13200035527985
 31
0.0
  0
LINE
  5
37C6
  8
0
 10
29.604573381472051
 20
46.264381113217951
 30
0.0
 11
29.604573381472171
 21
46.91031519036413
 31
0.0
  0
LINE
  5
37C7
  8
0
 10
20.104573381472171
 20
25.264381113217951
 30
0.0
 11
20.104573381472282
 21
28.264381113218061
 31
0.0
  0
LINE
  5
37C8
  8
0
 10
19.604573381472161
 20
28.764381113218061
 30
0.0
 11
19.604573381472051
 21
37.13200035527985
 31
0.0
  0
LINE
  5
37C9
  8
0
 10
19.604573381472161
 20
28.764381113218061
 30
0.0
 11
20.104573381472171
 21
28.264381113218061
 31
0.0
  0
LINE
  5
37CA
  8
0
 10
79.604573381471937
 20
28.764381113218061
 30
0.0
 11
79.104573381471937
 21
28.264381113218061
 31
0.0
  0
LINE
  5
37CB
  8
0
 10
79.604573381471937
 20
28.764381113218061
 30
0.0
 11
79.604573381472051
 21
37.13200035527985
 31
0.0
  0
LINE
  5
37CC
  8
0
 10
20.104573381472051
 20
28.264381113218061
 30
0.0
 11
79.104573381471809
 21
28.264381113218061
 31
0.0
  0
LINE
  5
37CD
  8
0
 10
20.104573381472051
 20
25.264381113218061
 30
0.0
 11
79.104573381471937
 21
25.264381113217951
 31
0.0
  0
LINE
  5
37CE
  8
0
 10
79.104573381471937
 20
25.264381113217951
 30
0.0
 11
79.104573381471809
 21
28.264381113218061
 31
0.0
  0
LINE
  5
37CF
  8
0
 10
24.604573381472171
 20
41.264381113217951
 30
0.0
 11
74.604573381471937
 21
41.264381113217951
 31
0.0
  0
LINE
  5
37D0
  8
0
 10
29.604573381472051
 20
46.264381113218072
 30
0.0
 11
69.604573381472051
 21
46.264381113217951
 31
0.0
  0
LINE
  5
37D1
  8
0
 10
34.604573381472051
 20
50.26438111321805
 30
0.0
 11
64.604573381471937
 21
50.26438111321805
 31
0.0
  0
LINE
  5
37D2
  8
0
 10
69.604573381472051
 20
46.264381113217951
 30
0.0
 11
69.604573381471937
 21
46.91031519036413
 31
0.0
  0
LINE
  5
37D3
  8
0
 10
74.604573381471937
 20
41.264381113217951
 30
0.0
 11
74.604573381471937
 21
42.13200035527985
 31
0.0
  0
LINE
  5
37D4
  8
0
 10
69.604573381472051
 20
46.264381113217951
 30
0.0
 11
73.633564892327058
 21
43.846986206704969
 31
0.0
  0
LINE
  5
37D5
  8
0
 10
64.604573381472051
 20
50.264381113217951
 30
0.0
 11
68.347354734180158
 21
48.767268572134753
 31
0.0
  0
LINE
  5
37D6
  8
0
 10
36.604573381472051
 20
52.26438111321805
 30
0.0
 11
62.604573381472051
 21
52.26438111321805
 31
0.0
  0
LINE
  5
37D7
  8
0
 10
64.604573381472051
 20
50.264381113217951
 30
0.0
 11
64.604573381472051
 21
50.26438111321805
 31
0.0
  0
LINE
  5
37D8
  8
0
 10
74.604573381471937
 20
41.264381113217951
 30
0.0
 11
78.633564892327058
 21
38.846986206704969
 31
0.0
  0
ARC
  5
37D9
  8
0
 10
62.604573381472051
 20
50.26438111321805
 30
0.0
 40
2.0
 50
0.0000000000008142
 51
90.0
  0
ARC
  5
37DA
  8
0
 10
67.604573381471937
 20
46.91031519036413
 30
0.0
 40
2.0
 50
359.9999999999992
 51
68.198590513648256
  0
ARC
  5
37DB
  8
0
 10
72.604573381471937
 20
42.13200035527985
 30
0.0
 40
2.0
 50
0.0
 51
59.036243467926127
  0
ARC
  5
37DC
  8
0
 10
77.604573381472051
 20
37.13200035527985
 30
0.0
 40
2.0
 50
359.9999999999996
 51
59.036243467926582
  0
TEXT
  5
3A99
  8
0
 62
     3
 10
0.0
 20
0.0
 30
0.0
 40
10.0
  1
LVAR60S12B-SUS
  7
STANDARD1
  0
ENDSEC
  0
EOF
