  0
SECTION
  2
HEADER
  9
$ACADVER
  1
AC1009
  9
$INSBASE
 10
0.0
 20
0.0
 30
0.0
  9
$EXTMIN
 10
0.0
 20
-2.960436562073669
 30
0.0
  9
$EXTMAX
 10
163.55035074511611
 20
300.38007941670708
 30
0.0
  9
$LIMMIN
 10
0.0
 20
0.0
  9
$LIMMAX
 10
375.0
 20
270.0
  9
$ORTHOMODE
 70
     1
  9
$REGENMODE
 70
     1
  9
$FILLMODE
 70
     1
  9
$QTEXTMODE
 70
     0
  9
$MIRRTEXT
 70
     0
  9
$DRAGMODE
 70
     2
  9
$LTSCALE
 40
6.0
  9
$OSMODE
 70
    37
  9
$ATTMODE
 70
     1
  9
$TEXTSIZE
 40
0.2
  9
$TRACEWID
 40
0.05
  9
$TEXTSTYLE
  7
STANDARD
  9
$CLAYER
  8
0
  9
$CELTYPE
  6
BYLAYER
  9
$CECOLOR
 62
   256
  9
$DIMSCALE
 40
1.0
  9
$DIMASZ
 40
3.0
  9
$DIMEXO
 40
1.0
  9
$DIMDLI
 40
6.0
  9
$DIMRND
 40
0.0
  9
$DIMDLE
 40
0.0
  9
$DIMEXE
 40
1.0
  9
$DIMTP
 40
495.0
  9
$DIMTM
 40
0.0
  9
$DIMTXT
 40
3.0
  9
$DIMCEN
 40
0.0
  9
$DIMTSZ
 40
0.0
  9
$DIMTOL
 70
     0
  9
$DIMLIM
 70
     0
  9
$DIMTIH
 70
     0
  9
$DIMTOH
 70
     0
  9
$DIMSE1
 70
     0
  9
$DIMSE2
 70
     0
  9
$DIMTAD
 70
     1
  9
$DIMZIN
 70
     0
  9
$DIMBLK
  1

  9
$DIMASO
 70
     0
  9
$DIMSHO
 70
     0
  9
$DIMPOST
  1

  9
$DIMAPOST
  1

  9
$DIMALT
 70
     0
  9
$DIMALTD
 70
     2
  9
$DIMALTF
 40
25.399999999999999
  9
$DIMLFAC
 40
1.0
  9
$DIMTOFL
 70
     1
  9
$DIMTVP
 40
0.0
  9
$DIMTIX
 70
     1
  9
$DIMSOXD
 70
     0
  9
$DIMSAH
 70
     0
  9
$DIMBLK1
  1

  9
$DIMBLK2
  1

  9
$DIMSTYLE
  2
STANDARD
  9
$DIMCLRD
 70
     0
  9
$DIMCLRE
 70
     0
  9
$DIMCLRT
 70
     4
  9
$DIMTFAC
 40
1.0
  9
$DIMGAP
 40
1.0
  9
$LUNITS
 70
     2
  9
$LUPREC
 70
     4
  9
$SKETCHINC
 40
0.1
  9
$FILLETRAD
 40
2.0
  9
$AUNITS
 70
     0
  9
$AUPREC
 70
     0
  9
$MENU
  1
C:\R13\WIN\SUPPORT\ACAD-I
  9
$ELEVATION
 40
0.0
  9
$PELEVATION
 40
0.0
  9
$THICKNESS
 40
0.0
  9
$LIMCHECK
 70
     0
  9
$BLIPMODE
 70
     0
  9
$CHAMFERA
 40
0.0
  9
$CHAMFERB
 40
0.0
  9
$SKPOLY
 70
     0
  9
$TDCREATE
 40
2451962.4092052658
  9
$TDUPDATE
 40
2456598.7202222571
  9
$TDINDWG
 40
0.1305771412
  9
$TDUSRTIMER
 40
2456598.049517408
  9
$USRTIMER
 70
     1
  9
$ANGBASE
 50
0.0
  9
$ANGDIR
 70
     0
  9
$PDMODE
 70
     0
  9
$PDSIZE
 40
0.0
  9
$PLINEWID
 40
0.0
  9
$COORDS
 70
     1
  9
$SPLFRAME
 70
     0
  9
$SPLINETYPE
 70
     6
  9
$SPLINESEGS
 70
     8
  9
$ATTDIA
 70
     0
  9
$ATTREQ
 70
     1
  9
$HANDLING
 70
     1
  9
$HANDSEED
  5
3EBE
  9
$SURFTAB1
 70
     6
  9
$SURFTAB2
 70
     6
  9
$SURFTYPE
 70
     6
  9
$SURFU
 70
     6
  9
$SURFV
 70
     6
  9
$UCSNAME
  2

  9
$UCSORG
 10
0.0
 20
0.0
 30
0.0
  9
$UCSXDIR
 10
1.0
 20
0.0
 30
0.0
  9
$UCSYDIR
 10
0.0
 20
1.0
 30
0.0
  9
$PUCSNAME
  2

  9
$PUCSORG
 10
0.0
 20
0.0
 30
0.0
  9
$PUCSXDIR
 10
1.0
 20
0.0
 30
0.0
  9
$PUCSYDIR
 10
0.0
 20
1.0
 30
0.0
  9
$USERI1
 70
     4
  9
$USERI2
 70
     1
  9
$USERI3
 70
     0
  9
$USERI4
 70
     0
  9
$USERI5
 70
     0
  9
$USERR1
 40
1.0
  9
$USERR2
 40
3.0
  9
$USERR3
 40
3.0
  9
$USERR4
 40
3.0
  9
$USERR5
 40
10.0
  9
$WORLDVIEW
 70
     1
  9
$SHADEDGE
 70
     3
  9
$SHADEDIF
 70
    70
  9
$TILEMODE
 70
     1
  9
$MAXACTVP
 70
    16
  9
$PLIMCHECK
 70
     0
  9
$PEXTMIN
 10
1.0000000000000000E+020
 20
1.0000000000000000E+020
 30
1.0000000000000000E+020
  9
$PEXTMAX
 10
-1.0000000000000000E+020
 20
-1.0000000000000000E+020
 30
-1.0000000000000000E+020
  9
$PLIMMIN
 10
0.0
 20
0.0
  9
$PLIMMAX
 10
12.0
 20
9.0
  9
$UNITMODE
 70
     0
  9
$VISRETAIN
 70
     0
  9
$PLINEGEN
 70
     0
  9
$PSLTSCALE
 70
     0
  0
ENDSEC
  0
SECTION
  2
TABLES
  0
TABLE
  2
VPORT
 70
     1
  0
VPORT
  2
*ACTIVE
 70
     0
 10
0.0
 20
0.0
 11
1.0
 21
1.0
 12
187.4942783906524
 22
191.00265211230081
 13
0.0
 23
0.0
 14
10.0
 24
10.0
 15
10.0
 25
10.0
 16
0.0
 26
0.0
 36
1.0
 17
0.0
 27
0.0
 37
0.0
 40
391.33239150668078
 41
1.755244755244755
 42
50.0
 43
0.0
 44
0.0
 50
0.0
 51
0.0
 71
    16
 72
   100
 73
     1
 74
     0
 75
     0
 76
     0
 77
     0
 78
     0
  0
ENDTAB
  0
TABLE
  2
LTYPE
 70
     3
  0
LTYPE
  2
CONTINUOUS
 70
     0
  3
Solid Line
 72
    65
 73
     0
 40
0.0
  0
LTYPE
  2
PHANTOM2
 70
     0
  3
___ _ _ ___ _ _ ___ _ _ ___ _ _
 72
    65
 73
     6
 40
1.25
 49
0.625
 49
-0.125
 49
0.125
 49
-0.125
 49
0.125
 49
-0.125
  0
LTYPE
  2
CENTER
 70
     0
  3
____ _ ____ _ ____ _ ____ _ ____ _ ____ _ ____
 72
    65
 73
     4
 40
2.0
 49
1.25
 49
-0.25
 49
0.25
 49
-0.25
  0
ENDTAB
  0
TABLE
  2
LAYER
 70
     3
  0
LAYER
  2
0
 70
     0
 62
     7
  6
CONTINUOUS
  0
LAYER
  2
1
 70
     0
 62
     1
  6
CENTER
  0
LAYER
  2
3
 70
     0
 62
     3
  6
CONTINUOUS
  0
ENDTAB
  0
TABLE
  2
STYLE
 70
     3
  0
STYLE
  2
STANDARD
 70
     0
 40
0.0
 41
1.0
 50
0.0
 71
     0
 42
0.2
  3
SIMPLEX
  4
BIGFONT
  0
STYLE
  2
ANNOTATIVE
 70
     0
 40
0.0
 41
1.0
 50
0.0
 71
     0
 42
0.2
  3
txt
  4

  0
STYLE
  2
STANDARD1
 70
     0
 40
0.0
 41
1.0
 50
0.0
 71
     0
 42
3.0
  3
txt
  4

  0
ENDTAB
  0
TABLE
  2
VIEW
 70
     0
  0
ENDTAB
  0
TABLE
  2
UCS
 70
     0
  0
ENDTAB
  0
TABLE
  2
APPID
 70
    29
  0
APPID
  2
ACAD
 70
     0
  0
APPID
  2
ACADANNOTATIVE
 70
     0
  0
APPID
  2
GENIUS_GENOREF_13
 70
     0
  0
APPID
  2
GENIUS_GENOENT_13
 70
     0
  0
APPID
  2
GENIUS_GENBH_13
 70
     0
  0
APPID
  2
GENIUS_GENOBJ_13
 70
     0
  0
APPID
  2
GENIUS_GENODEF_13
 70
     0
  0
APPID
  2
GENIUS_GENOLIS_13
 70
     0
  0
APPID
  2
GENIUS_GENOBJ-NBEHI-BHF_13
 70
     0
  0
APPID
  2
GENIUS_GENOBJ-NBEHI-BHB_13
 70
     0
  0
APPID
  2
GENIUS_GENOBJ-F-PART_13
 70
     0
  0
APPID
  2
GENIUS_GEFSTDP_13
 70
     0
  0
APPID
  2
GENIUS_GENOBJ-N-RSSYM_13
 70
     0
  0
APPID
  2
GENIUS_GENSYMENT_13
 70
     0
  0
APPID
  2
GENIUS_GENOBJ-N-TIT_13
 70
     0
  0
APPID
  2
GENIUS_GENTITLE_13
 70
     0
  0
APPID
  2
GENIUS_GENZVEED_13
 70
     0
  0
APPID
  2
GENIUS_GENOBJ-N-LEADER_13
 70
     0
  0
APPID
  2
GENIUS_GENOBJ-N-FIL_13
 70
     0
  0
APPID
  2
GENIUS_GENOBJ-N-SEC_13
 70
     0
  0
APPID
  2
GENIUS_GENOBJ-N-CRS_13
 70
     0
  0
APPID
  2
GENIUS_GENOBJ-N-ZOO_13
 70
     0
  0
APPID
  2
GENIUS_GENZOO_13
 70
     0
  0
APPID
  2
GENIUS_GENOBJ-F-TOL_13
 70
     0
  0
APPID
  2
GENIUS_GENFIL_13
 70
     0
  0
APPID
  2
GENIUS_GENOBJ-N-CHA_13
 70
     0
  0
APPID
  2
ACAD_EXEMPT_FROM_CAD_STANDARDS
 70
     0
  0
APPID
  2
ACAD_MLEADERVER
 70
     0
  0
APPID
  2
ACAD_NAV_VCDISPLAY
 70
     0
  0
ENDTAB
  0
TABLE
  2
DIMSTYLE
 70
     2
  0
DIMSTYLE
  2
STANDARD
 70
     0
  3

  4

  5

  6

  7

 40
1.0
 41
0.18
 42
0.0625
 43
0.38
 44
0.18
 45
0.0
 46
0.0
 47
0.0
 48
0.0
140
0.18
141
0.09
142
0.0
143
25.399999999999999
144
1.0
145
0.0
146
1.0
147
0.09
 71
     0
 72
     0
 73
     1
 74
     1
 75
     0
 76
     0
 77
     0
 78
     0
170
     0
171
     2
172
     0
173
     0
174
     0
175
     0
176
     0
177
     0
178
     0
  0
DIMSTYLE
  2
ANNOTATIVE
 70
     0
  3

  4

  5

  6

  7

 40
1.0
 41
0.18
 42
0.0625
 43
0.38
 44
0.18
 45
0.0
 46
0.0
 47
0.0
 48
0.0
140
0.18
141
0.09
142
0.0
143
25.399999999999999
144
1.0
145
0.0
146
1.0
147
0.09
 71
     0
 72
     0
 73
     1
 74
     1
 75
     0
 76
     0
 77
     0
 78
     0
170
     0
171
     2
172
     0
173
     0
174
     0
175
     0
176
     0
177
     0
178
     0
  0
ENDTAB
  0
ENDSEC
  0
SECTION
  2
BLOCKS
  0
BLOCK
  8
0
  2
$MODEL_SPACE
 70
     0
 10
0.0
 20
0.0
 30
0.0
  3
$MODEL_SPACE
  1

  0
ENDBLK
  5
3D85
  8
0
  0
BLOCK
 67
     1
  8
0
  2
$PAPER_SPACE
 70
     0
 10
0.0
 20
0.0
 30
0.0
  3
$PAPER_SPACE
  1

  0
ENDBLK
  5
3D81
 67
     1
  8
0
  0
ENDSEC
  0
SECTION
  2
ENTITIES
  0
LINE
  5
394B
  8
1
 10
42.3665480278015
 20
214.0939751184699
 30
0.0
 11
42.3665480278015
 21
20.09397511846964
 31
0.0
  0
LINE
  5
394C
  8
3
 10
140.4678507451161
 20
100.88265025303301
 30
0.0
 11
140.4678507451161
 21
208.17647511846971
 31
0.0
  0
LINE
  5
394D
  8
0
 10
141.55035074511611
 20
100.8826502530348
 30
0.0
 11
141.55035074511611
 21
207.0939751184697
 31
0.0
  0
LINE
  5
394E
  8
0
 10
125.55035074511611
 20
100.88265025300799
 30
0.0
 11
125.55035074511611
 21
207.09397511847021
 31
0.0
  0
LINE
  5
394F
  8
3
 10
126.6328507451161
 20
100.8826502530098
 30
0.0
 11
126.6328507451161
 21
208.17647511846991
 31
0.0
  0
LINE
  5
3950
  8
3
 10
126.6328507451161
 20
63.093975118469871
 30
0.0
 11
125.55035074511611
 21
61.31075852009279
 31
0.0
  0
LINE
  5
3951
  8
0
 10
125.55035074511611
 20
207.09397511847021
 30
0.0
 11
127.55035074511611
 21
209.09397511847001
 31
0.0
  0
LINE
  5
3952
  8
0
 10
125.55035074511611
 20
61.09397511846965
 30
0.0
 11
125.55035074511611
 21
87.882650253009714
 31
0.0
  0
LINE
  5
3953
  8
3
 10
126.6328507451161
 20
63.093975118469871
 30
0.0
 11
126.6328507451161
 21
87.88265025300791
 31
0.0
  0
LINE
  5
3954
  8
3
 10
140.4678507451161
 20
63.093975118469871
 30
0.0
 11
141.55035074511611
 21
61.31075852009279
 31
0.0
  0
LINE
  5
3955
  8
0
 10
125.55035074511611
 20
63.093975118469871
 30
0.0
 11
141.55035074511611
 21
63.093975118469871
 31
0.0
  0
LINE
  5
3956
  8
0
 10
141.55035074511611
 20
207.0939751184697
 30
0.0
 11
125.55035074511611
 21
207.09397511847001
 31
0.0
  0
LINE
  5
3957
  8
0
 10
139.55035074511611
 20
209.0939751184697
 30
0.0
 11
141.55035074511611
 21
207.0939751184697
 31
0.0
  0
LINE
  5
3958
  8
3
 10
140.4678507451161
 20
63.093975118469871
 30
0.0
 11
140.4678507451161
 21
87.882650252984931
 31
0.0
  0
LINE
  5
3959
  8
0
 10
141.55035074511611
 20
61.09397511846965
 30
0.0
 11
141.55035074511611
 21
87.882650252982899
 31
0.0
  0
LINE
  5
395A
  8
0
 10
127.55035074511611
 20
209.09397511847001
 30
0.0
 11
139.55035074511611
 21
209.0939751184697
 31
0.0
  0
LINE
  5
395B
  8
0
 10
141.3150566274692
 20
55.093975118469629
 30
0.0
 11
125.78564486276279
 21
55.093975118469629
 31
0.0
  0
LINE
  5
395C
  8
0
 10
125.55035074511611
 20
61.093975118469871
 30
0.0
 11
141.55035074511611
 21
61.093975118469423
 31
0.0
  0
ARC
  5
395D
  8
0
 10
140.47855397539161
 20
56.8688115988259
 30
0.0
 40
4.0893163974808306
 50
64.384247467887079
 51
124.3842474680048
  0
LINE
  5
395E
  8
0
 10
142.7879550521501
 20
60.243596816491163
 30
0.0
 11
141.31505662746909
 21
61.093975118469871
 31
0.0
  0
LINE
  5
395F
  8
0
 10
142.7879550521501
 20
55.944353420448103
 30
0.0
 11
141.31505662746909
 21
55.093975118469409
 31
0.0
  0
ARC
  5
3960
  8
0
 10
140.47855397539161
 20
59.319138638113358
 30
0.0
 40
4.0893163974808306
 50
235.61575253199521
 51
295.61575253211288
  0
LINE
  5
3961
  8
0
 10
142.7879550521501
 20
60.243596816491163
 30
0.0
 11
142.7879550521501
 21
55.944353420448103
 31
0.0
  0
LINE
  5
3962
  8
0
 10
138.169152898634
 20
60.243596816491163
 30
0.0
 11
138.16915289863351
 21
55.944353420447683
 31
0.0
  0
LINE
  5
3963
  8
0
 10
128.93154859159819
 20
60.243596816491163
 30
0.0
 11
128.9315485915987
 21
55.944353420447683
 31
0.0
  0
LINE
  5
3964
  8
0
 10
124.3127464380822
 20
60.243596816491163
 30
0.0
 11
124.3127464380822
 21
55.944353420448103
 31
0.0
  0
ARC
  5
3965
  8
0
 10
133.55035074511571
 20
70.515291060836262
 30
0.0
 40
15.28546882020385
 50
252.4120462260301
 51
287.58795377396979
  0
ARC
  5
3966
  8
0
 10
126.62214751484061
 20
59.319138638113358
 30
0.0
 40
4.0893163974808306
 50
244.38424746788701
 51
304.38424746800479
  0
LINE
  5
3967
  8
0
 10
124.3127464380822
 20
55.944353420448103
 30
0.0
 11
125.78564486276321
 21
55.093975118469409
 31
0.0
  0
LINE
  5
3968
  8
0
 10
124.3127464380822
 20
60.243596816491163
 30
0.0
 11
125.78564486276321
 21
61.093975118469871
 31
0.0
  0
ARC
  5
3969
  8
0
 10
133.55035074511571
 20
45.672659176102798
 30
0.0
 40
15.28546882020385
 50
72.412046226030185
 51
107.5879537739699
  0
ARC
  5
396A
  8
0
 10
126.62214751484061
 20
56.8688115988259
 30
0.0
 40
4.0893163974808306
 50
55.615752531995142
 51
115.61575253211289
  0
LINE
  5
396B
  8
0
 10
145.05035074511611
 20
87.882650252977214
 30
0.0
 11
122.0503507450497
 21
87.88265025301564
 31
0.0
  0
LINE
  5
396C
  8
0
 10
122.0503507450497
 20
100.8826502530021
 30
0.0
 11
145.05035074511611
 21
100.8826502530405
 31
0.0
  0
ARC
  5
396D
  8
0
 10
127.55035074511611
 20
83.263848101103804
 30
0.0
 40
17.330127017333279
 50
69.743841997642946
 51
110.256158002357
  0
LINE
  5
396E
  8
0
 10
121.550350745101
 20
100.5939751184371
 30
0.0
 11
122.05035074511611
 21
100.8826502530405
 31
0.0
  0
LINE
  5
396F
  8
0
 10
121.550350745101
 20
88.171325387580623
 30
0.0
 11
122.05035074511611
 21
87.882650252977214
 31
0.0
  0
ARC
  5
3970
  8
0
 10
127.55035074511611
 20
105.50145240491391
 30
0.0
 40
17.330127017333279
 50
249.7438419976429
 51
290.25615800235693
  0
LINE
  5
3971
  8
0
 10
121.550350745101
 20
100.5939751184371
 30
0.0
 11
121.55035074511611
 21
88.171325387571969
 31
0.0
  0
LINE
  5
3972
  8
0
 10
133.55035074511611
 20
89.243122157409857
 30
0.0
 11
133.55035074511611
 21
99.522178348607895
 31
0.0
  0
LINE
  5
3973
  8
0
 10
145.55035074513111
 20
100.5939751184371
 30
0.0
 11
145.55035074511611
 21
88.171325387571969
 31
0.0
  0
ARC
  5
3974
  8
0
 10
139.55035074511611
 20
105.50145240491391
 30
0.0
 40
17.330127017333279
 50
249.7438419976429
 51
290.25615800235693
  0
LINE
  5
3975
  8
0
 10
145.55035074513111
 20
88.171325387580623
 30
0.0
 11
145.05035074511611
 21
87.882650252977214
 31
0.0
  0
LINE
  5
3976
  8
0
 10
145.55035074513111
 20
100.5939751184371
 30
0.0
 11
145.05035074511611
 21
100.8826502530405
 31
0.0
  0
ARC
  5
3977
  8
0
 10
139.55035074511611
 20
83.263848101103804
 30
0.0
 40
17.330127017333279
 50
69.743841997642903
 51
110.256158002357
  0
LINE
  5
3978
  8
0
 10
139.05035074511619
 20
52.185703519286101
 30
0.0
 11
128.05035074511619
 21
52.185703519286101
 31
0.0
  0
LINE
  5
3979
  8
0
 10
128.05035074511619
 20
52.185703519286101
 30
0.0
 11
128.05035074511619
 21
55.093975118469629
 31
0.0
  0
LINE
  5
397A
  8
0
 10
139.05035074511619
 20
52.185703519286101
 30
0.0
 11
139.05035074511619
 21
55.093975118469629
 31
0.0
  0
ARC
  5
397B
  8
0
 10
133.55035074511619
 20
47.855576500363902
 30
0.0
 40
7.0
 50
141.7867892982656
 51
142.73621260027619
  0
ARC
  5
397C
  8
0
 10
133.55035074511619
 20
47.855576500363902
 30
0.0
 40
7.0
 50
37.263787399723817
 51
38.213210701734177
  0
LINE
  5
397D
  8
0
 10
34.366548027801521
 20
100.8826502530213
 30
0.0
 11
34.366548027801521
 21
207.09397511846981
 31
0.0
  0
LINE
  5
397E
  8
3
 10
35.44904802780151
 20
100.8826502530213
 30
0.0
 11
35.44904802780151
 21
208.1764751184698
 31
0.0
  0
LINE
  5
397F
  8
0
 10
50.366548027801521
 20
100.8826502530213
 30
0.0
 11
50.366548027801521
 21
207.09397511846981
 31
0.0
  0
LINE
  5
3980
  8
3
 10
49.284048027801532
 20
100.8826502530213
 30
0.0
 11
49.284048027801532
 21
208.1764751184698
 31
0.0
  0
LINE
  5
3981
  8
0
 10
34.601842145448018
 20
55.093975118469629
 30
0.0
 11
50.131253910153987
 21
55.093975118469629
 31
0.0
  0
LINE
  5
3982
  8
0
 10
50.131253910152971
 20
61.093975118469643
 30
0.0
 11
34.601842145449041
 21
61.093975118469643
 31
0.0
  0
ARC
  5
3983
  8
0
 10
38.366548027801059
 20
49.404709983679602
 30
0.0
 40
11.55341801262729
 50
69.743841999608421
 51
110.25615800039159
  0
LINE
  5
3984
  8
0
 10
34.36654802780096
 20
60.95812799630697
 30
0.0
 11
34.601842145449041
 21
61.093975118469643
 31
0.0
  0
ARC
  5
3985
  8
0
 10
38.366548027801059
 20
66.783240253259237
 30
0.0
 40
11.55341801262729
 50
249.74384199960841
 51
290.25615800039151
  0
LINE
  5
3986
  8
0
 10
34.36654802780096
 20
55.22982224063184
 30
0.0
 11
34.601842145449041
 21
55.093975118468961
 31
0.0
  0
LINE
  5
3987
  8
0
 10
34.36654802780096
 20
60.95812799630697
 30
0.0
 11
34.366548027801059
 21
55.22982224063184
 31
0.0
  0
LINE
  5
3988
  8
0
 10
42.366548027801059
 20
60.243596816490943
 30
0.0
 11
42.366548027801059
 21
55.944353420447683
 31
0.0
  0
LINE
  5
3989
  8
0
 10
50.366548027801052
 20
60.95812799630697
 30
0.0
 11
50.366548027801052
 21
55.22982224063184
 31
0.0
  0
ARC
  5
398A
  8
0
 10
46.366548027801059
 20
66.783240253259237
 30
0.0
 40
11.55341801262729
 50
249.74384199960841
 51
290.25615800039151
  0
LINE
  5
398B
  8
0
 10
50.366548027801052
 20
55.22982224063184
 30
0.0
 11
50.131253910152971
 21
55.093975118468961
 31
0.0
  0
LINE
  5
398C
  8
0
 10
50.366548027801052
 20
60.95812799630697
 30
0.0
 11
50.131253910152971
 21
61.093975118469643
 31
0.0
  0
ARC
  5
398D
  8
0
 10
46.366548027801059
 20
49.404709983679602
 30
0.0
 40
11.55341801262729
 50
69.743841999608421
 51
110.25615800039159
  0
LINE
  5
398E
  8
0
 10
36.366548027801521
 20
209.09397511846981
 30
0.0
 11
48.366548027801507
 21
209.09397511846981
 31
0.0
  0
LINE
  5
398F
  8
0
 10
50.36654802780162
 20
60.95812799630653
 30
0.0
 11
50.36654802780162
 21
87.882650253034626
 31
0.0
  0
LINE
  5
3990
  8
3
 10
49.284048027801532
 20
63.093975118469871
 30
0.0
 11
49.284048027801532
 21
87.882650253034626
 31
0.0
  0
LINE
  5
3991
  8
3
 10
35.44904802780151
 20
63.093975118469871
 30
0.0
 11
35.44904802780151
 21
87.882650253034626
 31
0.0
  0
LINE
  5
3992
  8
0
 10
34.366548027801521
 20
60.958127996307212
 30
0.0
 11
34.366548027801521
 21
87.882650253034839
 31
0.0
  0
LINE
  5
3993
  8
0
 10
34.366548027801521
 20
207.09397511846981
 30
0.0
 11
36.366548027801521
 21
209.09397511846981
 31
0.0
  0
LINE
  5
3994
  8
0
 10
48.366548027801507
 20
209.09397511846981
 30
0.0
 11
50.366548027801521
 21
207.09397511846981
 31
0.0
  0
LINE
  5
3995
  8
0
 10
50.366548027801521
 20
207.09397511846981
 30
0.0
 11
34.366548027801521
 21
207.09397511846981
 31
0.0
  0
LINE
  5
3996
  8
0
 10
34.366548027801521
 20
63.093975118469871
 30
0.0
 11
50.366548027801521
 21
63.093975118469871
 31
0.0
  0
LINE
  5
3997
  8
3
 10
35.44904802780151
 20
63.093975118469871
 30
0.0
 11
34.366548027801521
 21
61.21903011927656
 31
0.0
  0
LINE
  5
3998
  8
3
 10
49.284048027801532
 20
63.093975118469871
 30
0.0
 11
50.366548027801521
 21
61.21903011927656
 31
0.0
  0
LINE
  5
3999
  8
0
 10
53.866548027693511
 20
87.882650253034839
 30
0.0
 11
30.866548027909069
 21
87.882650253034839
 31
0.0
  0
LINE
  5
399A
  8
0
 10
30.86654802780129
 20
100.8826502530213
 30
0.0
 11
53.866548027693511
 21
100.8826502530213
 31
0.0
  0
ARC
  5
399B
  8
0
 10
52.758852873214778
 20
94.460000522735385
 30
0.0
 40
6.1339745957208196
 50
64.384247469854927
 51
124.3842474712113
  0
LINE
  5
399C
  8
0
 10
56.22295448837427
 20
99.522178348627094
 30
0.0
 11
53.866548027693511
 21
100.8826502530213
 31
0.0
  0
LINE
  5
399D
  8
0
 10
56.22295448837427
 20
89.243122157429056
 30
0.0
 11
53.866548027693511
 21
87.882650253034839
 31
0.0
  0
ARC
  5
399E
  8
0
 10
52.758852873214778
 20
94.305299983320509
 30
0.0
 40
6.1339745957208196
 50
235.6157525287887
 51
295.61575253014507
  0
LINE
  5
399F
  8
0
 10
56.22295448835245
 20
99.522178348627094
 30
0.0
 11
56.22295448835245
 21
89.243122157416309
 31
0.0
  0
LINE
  5
39A0
  8
0
 10
49.29475125807663
 20
99.522178348627094
 30
0.0
 11
49.29475125807663
 21
89.243122157429056
 31
0.0
  0
LINE
  5
39A1
  8
0
 10
35.438344797525929
 20
99.522178348627094
 30
0.0
 11
35.438344797525929
 21
89.243122157429056
 31
0.0
  0
LINE
  5
39A2
  8
0
 10
28.51014156725013
 20
99.522178348627094
 30
0.0
 11
28.51014156725013
 21
89.243122157416309
 31
0.0
  0
ARC
  5
39A3
  8
0
 10
42.366548027801286
 20
111.0995286157392
 30
0.0
 40
22.928203228139491
 50
252.41204622431411
 51
287.58795377568589
  0
ARC
  5
39A4
  8
0
 10
31.974243182387799
 20
94.305299983320509
 30
0.0
 40
6.1339745957208196
 50
244.3842474698549
 51
304.38424747121132
  0
LINE
  5
39A5
  8
0
 10
28.510141567228288
 20
89.243122157429056
 30
0.0
 11
30.866548027909069
 21
87.882650253034839
 31
0.0
  0
LINE
  5
39A6
  8
0
 10
28.510141567228288
 20
99.522178348627094
 30
0.0
 11
30.866548027909069
 21
100.8826502530213
 31
0.0
  0
ARC
  5
39A7
  8
0
 10
31.974243182387799
 20
94.460000522735385
 30
0.0
 40
6.1339745957208196
 50
55.615752528788683
 51
115.6157525301451
  0
ARC
  5
39A8
  8
0
 10
42.366548027801286
 20
77.665771890316705
 30
0.0
 40
22.928203228139491
 50
72.412046224314153
 51
107.5879537756858
  0
LINE
  5
39A9
  8
0
 10
47.866548027801969
 20
52.18570351928571
 30
0.0
 11
47.866548027800938
 21
55.093975118469629
 31
0.0
  0
LINE
  5
39AA
  8
0
 10
36.86654802780096
 20
52.185703519285163
 30
0.0
 11
36.86654802780096
 21
55.093975118469629
 31
0.0
  0
CIRCLE
  5
39AB
  8
3
 10
42.36654802780253
 20
265.38007941670708
 30
0.0
 40
6.9175000000000004
  0
CIRCLE
  5
39AC
  8
0
 10
42.36654802780253
 20
265.38007941670708
 30
0.0
 40
8.0
  0
CIRCLE
  5
39AD
  8
0
 10
42.36654802780253
 20
265.38007941670708
 30
0.0
 40
11.5
  0
LINE
  5
39AE
  8
0
 10
56.222954488353587
 20
265.38007941670708
 30
0.0
 11
49.294751258078009
 21
277.38007941670708
 31
0.0
  0
LINE
  5
39AF
  8
0
 10
49.294751258078009
 20
253.3800794167071
 30
0.0
 11
56.222954488353587
 21
265.38007941670708
 31
0.0
  0
LINE
  5
39B0
  8
0
 10
35.43834479752708
 20
253.3800794167071
 30
0.0
 11
49.294751258078009
 21
253.3800794167071
 31
0.0
  0
LINE
  5
39B1
  8
0
 10
28.51014156725148
 20
265.38007941670708
 30
0.0
 11
35.43834479752708
 21
253.3800794167071
 31
0.0
  0
LINE
  5
39B2
  8
0
 10
35.43834479752708
 20
277.38007941670708
 30
0.0
 11
28.51014156725148
 21
265.38007941670708
 31
0.0
  0
LINE
  5
39B3
  8
0
 10
49.294751258078009
 20
277.38007941670708
 30
0.0
 11
35.43834479752708
 21
277.38007941670708
 31
0.0
  0
ARC
  5
39D6
  8
0
 10
161.55035074511611
 20
36.961594360531542
 30
0.0
 40
2.0
 50
359.9999999999996
 51
59.036243467926127
  0
ARC
  5
39D7
  8
0
 10
156.55035074511599
 20
41.961594360531528
 30
0.0
 40
2.0
 50
0.0
 51
59.036243467926127
  0
ARC
  5
39D8
  8
0
 10
151.55035074511599
 20
46.739909195615837
 30
0.0
 40
2.0
 50
359.9999999999992
 51
68.198590513648568
  0
ARC
  5
39D9
  8
0
 10
146.55035074511611
 20
50.093975118469857
 30
0.0
 40
2.0
 50
0.0000000000008142
 51
90.0
  0
LINE
  5
39DA
  8
0
 10
158.55035074511599
 20
41.093975118469643
 30
0.0
 11
162.57934225597111
 21
38.676580211956662
 31
0.0
  0
LINE
  5
39DB
  8
0
 10
148.55035074511611
 20
50.093975118469629
 30
0.0
 11
148.55035074511611
 21
50.093975118469857
 31
0.0
  0
LINE
  5
39DC
  8
0
 10
120.55035074511611
 20
52.093975118469871
 30
0.0
 11
146.55035074511611
 21
52.093975118469871
 31
0.0
  0
LINE
  5
39DD
  8
0
 10
148.55035074511611
 20
50.093975118469629
 30
0.0
 11
152.29313209782421
 21
48.596862577386439
 31
0.0
  0
LINE
  5
39DE
  8
0
 10
153.55035074511611
 20
46.093975118469629
 30
0.0
 11
157.57934225597111
 21
43.676580211956662
 31
0.0
  0
LINE
  5
39DF
  8
0
 10
158.55035074511599
 20
41.093975118469643
 30
0.0
 11
158.55035074511599
 21
41.961594360531528
 31
0.0
  0
LINE
  5
39E0
  8
0
 10
153.55035074511611
 20
46.093975118469629
 30
0.0
 11
153.55035074511599
 21
46.739909195615837
 31
0.0
  0
LINE
  5
39E1
  8
0
 10
118.55035074511611
 20
50.093975118469857
 30
0.0
 11
148.55035074511599
 21
50.093975118469857
 31
0.0
  0
LINE
  5
39E2
  8
0
 10
113.55035074511611
 20
46.093975118469871
 30
0.0
 11
153.55035074511611
 21
46.093975118469629
 31
0.0
  0
LINE
  5
39E3
  8
0
 10
108.55035074511621
 20
41.093975118469643
 30
0.0
 11
158.55035074511599
 21
41.093975118469643
 31
0.0
  0
LINE
  5
39E4
  8
0
 10
163.05035074511599
 20
25.09397511846965
 30
0.0
 11
163.05035074511591
 21
28.093975118469871
 31
0.0
  0
LINE
  5
39E5
  8
0
 10
104.05035074511611
 20
25.093975118469871
 30
0.0
 11
163.05035074511599
 21
25.09397511846965
 31
0.0
  0
LINE
  5
39E6
  8
0
 10
104.05035074511611
 20
28.093975118469871
 30
0.0
 11
163.05035074511591
 21
28.093975118469871
 31
0.0
  0
LINE
  5
39E7
  8
0
 10
163.55035074511599
 20
28.593975118469871
 30
0.0
 11
163.55035074511611
 21
36.961594360531542
 31
0.0
  0
LINE
  5
39E8
  8
0
 10
163.55035074511599
 20
28.593975118469871
 30
0.0
 11
163.05035074511599
 21
28.093975118469871
 31
0.0
  0
CIRCLE
  5
39E9
  8
0
 10
42.36654802780253
 20
265.38007941670708
 30
0.0
 40
30.0
  0
CIRCLE
  5
39EA
  8
0
 10
42.36654802780253
 20
265.38007941670708
 30
0.0
 40
25.0
  0
CIRCLE
  5
39EB
  8
0
 10
42.36654802780253
 20
265.38007941670708
 30
0.0
 40
20.00000000000006
  0
CIRCLE
  5
39EC
  8
0
 10
42.36654802780275
 20
265.38007941670708
 30
0.0
 40
14.99999999999981
  0
LINE
  5
39ED
  8
1
 10
42.36654802780253
 20
300.38007941670708
 30
0.0
 11
42.36654802780253
 21
230.3800794167071
 31
0.0
  0
LINE
  5
39EE
  8
1
 10
77.366548027802537
 20
265.38007941670708
 30
0.0
 11
7.366548027802537
 21
265.38007941670708
 31
0.0
  0
LINE
  5
39FC
  8
0
 10
103.55035074511621
 20
28.593975118469871
 30
0.0
 11
104.05035074511621
 21
28.093975118469871
 31
0.0
  0
LINE
  5
39FD
  8
0
 10
103.55035074511621
 20
28.593975118469871
 30
0.0
 11
103.55035074511611
 21
36.961594360531542
 31
0.0
  0
LINE
  5
39FE
  8
0
 10
104.05035074511621
 20
25.09397511846965
 30
0.0
 11
104.0503507451163
 21
28.093975118469871
 31
0.0
  0
LINE
  5
39FF
  8
0
 10
113.55035074511611
 20
46.093975118469629
 30
0.0
 11
113.55035074511621
 21
46.739909195615837
 31
0.0
  0
LINE
  5
3A00
  8
0
 10
108.55035074511621
 20
41.093975118469643
 30
0.0
 11
108.55035074511621
 21
41.961594360531528
 31
0.0
  0
LINE
  5
3A01
  8
0
 10
113.55035074511611
 20
46.093975118469629
 30
0.0
 11
109.5213592342611
 21
43.676580211956662
 31
0.0
  0
LINE
  5
3A02
  8
0
 10
118.55035074511611
 20
50.093975118469629
 30
0.0
 11
114.807569392408
 21
48.596862577386439
 31
0.0
  0
LINE
  5
3A03
  8
0
 10
118.55035074511611
 20
50.093975118469629
 30
0.0
 11
118.55035074511611
 21
50.093975118469857
 31
0.0
  0
LINE
  5
3A04
  8
0
 10
108.55035074511621
 20
41.093975118469643
 30
0.0
 11
104.5213592342611
 21
38.676580211956662
 31
0.0
  0
ARC
  5
3A05
  8
0
 10
120.55035074511611
 20
50.093975118469857
 30
0.0
 40
2.0
 50
90.0
 51
179.9999999999992
  0
ARC
  5
3A06
  8
0
 10
115.55035074511621
 20
46.739909195615837
 30
0.0
 40
2.0
 50
111.8014094863517
 51
180.0000000000008
  0
ARC
  5
3A07
  8
0
 10
110.55035074511621
 20
41.961594360531528
 30
0.0
 40
2.0
 50
120.9637565320738
 51
180.0
  0
ARC
  5
3A08
  8
0
 10
105.55035074511611
 20
36.961594360531542
 30
0.0
 40
2.0
 50
120.9637565320735
 51
180.0000000000004
  0
LINE
  5
3A9C
  8
1
 10
133.55035074511611
 20
214.00224671765369
 30
0.0
 11
133.55035074511611
 21
20.09397511846964
 31
0.0
  0
ARC
  5
3AC7
  8
0
 10
14.36654802780156
 20
36.961594360531542
 30
0.0
 40
2.0
 50
120.9637565320735
 51
180.0000000000004
  0
ARC
  5
3AC8
  8
0
 10
19.366548027801681
 20
41.961594360531528
 30
0.0
 40
2.0
 50
120.9637565320738
 51
180.0
  0
ARC
  5
3AC9
  8
0
 10
24.366548027801681
 20
46.739909195615837
 30
0.0
 40
2.0
 50
111.8014094863516
 51
180.0000000000008
  0
ARC
  5
3ACA
  8
0
 10
29.36654802780156
 20
50.093975118469857
 30
0.0
 40
2.0
 50
90.0
 51
179.9999999999992
  0
LINE
  5
3ACB
  8
0
 10
17.366548027801681
 20
41.093975118469643
 30
0.0
 11
13.337556516946551
 21
38.676580211956662
 31
0.0
  0
LINE
  5
3ACC
  8
0
 10
27.366548027801571
 20
50.093975118469629
 30
0.0
 11
27.366548027801571
 21
50.093975118469857
 31
0.0
  0
LINE
  5
3ACD
  8
0
 10
27.366548027801571
 20
50.093975118469629
 30
0.0
 11
23.62376667509346
 21
48.596862577386439
 31
0.0
  0
LINE
  5
3ACE
  8
0
 10
22.36654802780156
 20
46.093975118469629
 30
0.0
 11
18.337556516946542
 21
43.676580211956662
 31
0.0
  0
LINE
  5
3ACF
  8
0
 10
17.366548027801681
 20
41.093975118469643
 30
0.0
 11
17.366548027801681
 21
41.961594360531528
 31
0.0
  0
LINE
  5
3AD0
  8
0
 10
22.36654802780156
 20
46.093975118469629
 30
0.0
 11
22.366548027801681
 21
46.739909195615837
 31
0.0
  0
LINE
  5
3AD1
  8
0
 10
12.866548027801681
 20
25.09397511846965
 30
0.0
 11
12.86654802780178
 21
28.093975118469871
 31
0.0
  0
LINE
  5
3AD2
  8
0
 10
12.366548027801681
 20
28.593975118469871
 30
0.0
 11
12.36654802780156
 21
36.961594360531542
 31
0.0
  0
LINE
  5
3AD3
  8
0
 10
12.366548027801681
 20
28.593975118469871
 30
0.0
 11
12.866548027801681
 21
28.093975118469871
 31
0.0
  0
LINE
  5
3AD4
  8
0
 10
72.366548027801457
 20
28.593975118469871
 30
0.0
 11
71.866548027801457
 21
28.093975118469871
 31
0.0
  0
LINE
  5
3AD5
  8
0
 10
72.366548027801457
 20
28.593975118469871
 30
0.0
 11
72.366548027801556
 21
36.961594360531542
 31
0.0
  0
LINE
  5
3AD6
  8
0
 10
12.86654802780156
 20
28.093975118469871
 30
0.0
 11
71.866548027801343
 21
28.093975118469871
 31
0.0
  0
LINE
  5
3AD7
  8
0
 10
12.86654802780156
 20
25.093975118469871
 30
0.0
 11
71.866548027801457
 21
25.09397511846965
 31
0.0
  0
LINE
  5
3AD8
  8
0
 10
71.866548027801457
 20
25.09397511846965
 30
0.0
 11
71.866548027801343
 21
28.093975118469871
 31
0.0
  0
LINE
  5
3AD9
  8
0
 10
17.366548027801681
 20
41.093975118469643
 30
0.0
 11
67.366548027801457
 21
41.093975118469643
 31
0.0
  0
LINE
  5
3ADA
  8
0
 10
22.36654802780156
 20
46.093975118469871
 30
0.0
 11
62.366548027801556
 21
46.093975118469629
 31
0.0
  0
LINE
  5
3ADB
  8
0
 10
27.366548027801571
 20
50.093975118469857
 30
0.0
 11
57.366548027801457
 21
50.093975118469857
 31
0.0
  0
LINE
  5
3ADC
  8
0
 10
62.366548027801556
 20
46.093975118469629
 30
0.0
 11
62.366548027801457
 21
46.739909195615837
 31
0.0
  0
LINE
  5
3ADD
  8
0
 10
67.366548027801457
 20
41.093975118469643
 30
0.0
 11
67.366548027801457
 21
41.961594360531528
 31
0.0
  0
LINE
  5
3ADE
  8
0
 10
62.366548027801556
 20
46.093975118469629
 30
0.0
 11
66.395539538656564
 21
43.676580211956662
 31
0.0
  0
LINE
  5
3ADF
  8
0
 10
57.366548027801556
 20
50.093975118469629
 30
0.0
 11
61.109329380509671
 21
48.596862577386439
 31
0.0
  0
LINE
  5
3AE0
  8
0
 10
29.36654802780156
 20
52.093975118469871
 30
0.0
 11
55.366548027801556
 21
52.093975118469871
 31
0.0
  0
LINE
  5
3AE1
  8
0
 10
57.366548027801556
 20
50.093975118469629
 30
0.0
 11
57.366548027801556
 21
50.093975118469857
 31
0.0
  0
LINE
  5
3AE2
  8
0
 10
67.366548027801457
 20
41.093975118469643
 30
0.0
 11
71.395539538656564
 21
38.676580211956662
 31
0.0
  0
ARC
  5
3AE3
  8
0
 10
55.366548027801556
 20
50.093975118469857
 30
0.0
 40
2.0
 50
0.0000000000008142
 51
90.0
  0
ARC
  5
3AE4
  8
0
 10
60.366548027801443
 20
46.739909195615837
 30
0.0
 40
2.0
 50
359.9999999999992
 51
68.198590513648185
  0
ARC
  5
3AE5
  8
0
 10
65.366548027801457
 20
41.961594360531528
 30
0.0
 40
2.0
 50
0.0
 51
59.036243467926127
  0
ARC
  5
3AE6
  8
0
 10
70.366548027801571
 20
36.961594360531542
 30
0.0
 40
2.0
 50
359.9999999999996
 51
59.036243467926482
  0
ARC
  5
3AE7
  8
0
 10
42.366548027801677
 20
47.855576500363902
 30
0.0
 40
7.0
 50
37.263787399723817
 51
38.213210701734241
  0
ARC
  5
3AE8
  8
0
 10
42.366548027801677
 20
47.855576500363902
 30
0.0
 40
7.0
 50
141.78678929826569
 51
142.73621260027619
  0
LINE
  5
3AE9
  8
0
 10
47.866548027801677
 20
52.185703519286101
 30
0.0
 11
36.866548027801677
 21
52.185703519286101
 31
0.0
  0
TEXT
  5
3E05
  8
0
 62
     3
 10
0.0
 20
0.0
 30
0.0
 40
10.0
  1
LVAR60S16C
  7
STANDARD1
  0
ENDSEC
  0
EOF
