  0
SECTION
  2
HEADER
  9
$ACADVER
  1
AC1009
  9
$INSBASE
 10
0.0
 20
0.0
 30
0.0
  9
$EXTMIN
 10
0.0
 20
-2.960436562073669
 30
0.0
  9
$EXTMAX
 10
186.7623837200145
 20
211.7391571068288
 30
0.0
  9
$LIMMIN
 10
0.0
 20
0.0
  9
$LIMMAX
 10
375.0
 20
270.0
  9
$ORTHOMODE
 70
     1
  9
$REGENMODE
 70
     1
  9
$FILLMODE
 70
     1
  9
$QTEXTMODE
 70
     0
  9
$MIRRTEXT
 70
     0
  9
$DRAGMODE
 70
     2
  9
$LTSCALE
 40
6.0
  9
$OSMODE
 70
    37
  9
$ATTMODE
 70
     1
  9
$TEXTSIZE
 40
0.2
  9
$TRACEWID
 40
0.05
  9
$TEXTSTYLE
  7
STANDARD
  9
$CLAYER
  8
0
  9
$CELTYPE
  6
BYLAYER
  9
$CECOLOR
 62
   256
  9
$DIMSCALE
 40
1.0
  9
$DIMASZ
 40
3.0
  9
$DIMEXO
 40
1.0
  9
$DIMDLI
 40
6.0
  9
$DIMRND
 40
0.0
  9
$DIMDLE
 40
0.0
  9
$DIMEXE
 40
1.0
  9
$DIMTP
 40
495.0
  9
$DIMTM
 40
0.0
  9
$DIMTXT
 40
3.0
  9
$DIMCEN
 40
0.0
  9
$DIMTSZ
 40
0.0
  9
$DIMTOL
 70
     0
  9
$DIMLIM
 70
     0
  9
$DIMTIH
 70
     0
  9
$DIMTOH
 70
     0
  9
$DIMSE1
 70
     0
  9
$DIMSE2
 70
     0
  9
$DIMTAD
 70
     1
  9
$DIMZIN
 70
     0
  9
$DIMBLK
  1

  9
$DIMASO
 70
     0
  9
$DIMSHO
 70
     0
  9
$DIMPOST
  1

  9
$DIMAPOST
  1

  9
$DIMALT
 70
     0
  9
$DIMALTD
 70
     2
  9
$DIMALTF
 40
25.399999999999999
  9
$DIMLFAC
 40
1.0
  9
$DIMTOFL
 70
     1
  9
$DIMTVP
 40
0.0
  9
$DIMTIX
 70
     1
  9
$DIMSOXD
 70
     0
  9
$DIMSAH
 70
     0
  9
$DIMBLK1
  1

  9
$DIMBLK2
  1

  9
$DIMSTYLE
  2
STANDARD
  9
$DIMCLRD
 70
     0
  9
$DIMCLRE
 70
     0
  9
$DIMCLRT
 70
     4
  9
$DIMTFAC
 40
1.0
  9
$DIMGAP
 40
1.0
  9
$LUNITS
 70
     2
  9
$LUPREC
 70
     4
  9
$SKETCHINC
 40
0.1
  9
$FILLETRAD
 40
2.0
  9
$AUNITS
 70
     0
  9
$AUPREC
 70
     0
  9
$MENU
  1
C:\R13\WIN\SUPPORT\ACAD-I
  9
$ELEVATION
 40
0.0
  9
$PELEVATION
 40
0.0
  9
$THICKNESS
 40
0.0
  9
$LIMCHECK
 70
     0
  9
$BLIPMODE
 70
     0
  9
$CHAMFERA
 40
0.0
  9
$CHAMFERB
 40
0.0
  9
$SKPOLY
 70
     0
  9
$TDCREATE
 40
2451962.4293197221
  9
$TDUPDATE
 40
2456598.7204497568
  9
$TDINDWG
 40
0.0653784722
  9
$TDUSRTIMER
 40
2456598.0521092359
  9
$USRTIMER
 70
     1
  9
$ANGBASE
 50
0.0
  9
$ANGDIR
 70
     0
  9
$PDMODE
 70
     0
  9
$PDSIZE
 40
0.0
  9
$PLINEWID
 40
0.0
  9
$COORDS
 70
     1
  9
$SPLFRAME
 70
     0
  9
$SPLINETYPE
 70
     6
  9
$SPLINESEGS
 70
     8
  9
$ATTDIA
 70
     0
  9
$ATTREQ
 70
     1
  9
$HANDLING
 70
     1
  9
$HANDSEED
  5
5176
  9
$SURFTAB1
 70
     6
  9
$SURFTAB2
 70
     6
  9
$SURFTYPE
 70
     6
  9
$SURFU
 70
     6
  9
$SURFV
 70
     6
  9
$UCSNAME
  2

  9
$UCSORG
 10
0.0
 20
0.0
 30
0.0
  9
$UCSXDIR
 10
1.0
 20
0.0
 30
0.0
  9
$UCSYDIR
 10
0.0
 20
1.0
 30
0.0
  9
$PUCSNAME
  2

  9
$PUCSORG
 10
0.0
 20
0.0
 30
0.0
  9
$PUCSXDIR
 10
1.0
 20
0.0
 30
0.0
  9
$PUCSYDIR
 10
0.0
 20
1.0
 30
0.0
  9
$USERI1
 70
     4
  9
$USERI2
 70
     1
  9
$USERI3
 70
     0
  9
$USERI4
 70
     0
  9
$USERI5
 70
     0
  9
$USERR1
 40
1.0
  9
$USERR2
 40
3.0
  9
$USERR3
 40
3.0
  9
$USERR4
 40
3.0
  9
$USERR5
 40
10.0
  9
$WORLDVIEW
 70
     1
  9
$SHADEDGE
 70
     3
  9
$SHADEDIF
 70
    70
  9
$TILEMODE
 70
     1
  9
$MAXACTVP
 70
    16
  9
$PLIMCHECK
 70
     0
  9
$PEXTMIN
 10
1.0000000000000000E+020
 20
1.0000000000000000E+020
 30
1.0000000000000000E+020
  9
$PEXTMAX
 10
-1.0000000000000000E+020
 20
-1.0000000000000000E+020
 30
-1.0000000000000000E+020
  9
$PLIMMIN
 10
0.0
 20
0.0
  9
$PLIMMAX
 10
12.0
 20
9.0
  9
$UNITMODE
 70
     0
  9
$VISRETAIN
 70
     0
  9
$PLINEGEN
 70
     0
  9
$PSLTSCALE
 70
     0
  0
ENDSEC
  0
SECTION
  2
TABLES
  0
TABLE
  2
VPORT
 70
     1
  0
VPORT
  2
*ACTIVE
 70
     0
 10
0.0
 20
0.0
 11
1.0
 21
1.0
 12
187.49427839065231
 22
177.52205812711131
 13
0.0
 23
0.0
 14
10.0
 24
10.0
 15
10.0
 25
10.0
 16
0.0
 26
0.0
 36
1.0
 17
0.0
 27
0.0
 37
0.0
 40
364.13085016302909
 41
1.755244755244755
 42
50.0
 43
0.0
 44
0.0
 50
0.0
 51
0.0
 71
    16
 72
   100
 73
     1
 74
     0
 75
     0
 76
     0
 77
     0
 78
     0
  0
ENDTAB
  0
TABLE
  2
LTYPE
 70
     3
  0
LTYPE
  2
CONTINUOUS
 70
     0
  3
Solid Line
 72
    65
 73
     0
 40
0.0
  0
LTYPE
  2
PHANTOM2
 70
     0
  3
___ _ _ ___ _ _ ___ _ _ ___ _ _
 72
    65
 73
     6
 40
1.25
 49
0.625
 49
-0.125
 49
0.125
 49
-0.125
 49
0.125
 49
-0.125
  0
LTYPE
  2
CENTER
 70
     0
  3
____ _ ____ _ ____ _ ____ _ ____ _ ____ _ ____
 72
    65
 73
     4
 40
2.0
 49
1.25
 49
-0.25
 49
0.25
 49
-0.25
  0
ENDTAB
  0
TABLE
  2
LAYER
 70
     3
  0
LAYER
  2
0
 70
     0
 62
     7
  6
CONTINUOUS
  0
LAYER
  2
1
 70
     0
 62
     1
  6
CENTER
  0
LAYER
  2
3
 70
     0
 62
     3
  6
CONTINUOUS
  0
ENDTAB
  0
TABLE
  2
STYLE
 70
     3
  0
STYLE
  2
STANDARD
 70
     0
 40
0.0
 41
1.0
 50
0.0
 71
     0
 42
0.2
  3
SIMPLEX
  4
BIGFONT
  0
STYLE
  2
ANNOTATIVE
 70
     0
 40
0.0
 41
1.0
 50
0.0
 71
     0
 42
0.2
  3
txt
  4

  0
STYLE
  2
STANDARD1
 70
     0
 40
0.0
 41
1.0
 50
0.0
 71
     0
 42
3.0
  3
txt
  4

  0
ENDTAB
  0
TABLE
  2
VIEW
 70
     0
  0
ENDTAB
  0
TABLE
  2
UCS
 70
     0
  0
ENDTAB
  0
TABLE
  2
APPID
 70
    29
  0
APPID
  2
ACAD
 70
     0
  0
APPID
  2
ACADANNOTATIVE
 70
     0
  0
APPID
  2
GENIUS_GENOREF_13
 70
     0
  0
APPID
  2
GENIUS_GENOENT_13
 70
     0
  0
APPID
  2
GENIUS_GENBH_13
 70
     0
  0
APPID
  2
GENIUS_GENOBJ_13
 70
     0
  0
APPID
  2
GENIUS_GENODEF_13
 70
     0
  0
APPID
  2
GENIUS_GENOLIS_13
 70
     0
  0
APPID
  2
GENIUS_GENOBJ-NBEHI-BHF_13
 70
     0
  0
APPID
  2
GENIUS_GENOBJ-NBEHI-BHB_13
 70
     0
  0
APPID
  2
GENIUS_GENOBJ-F-PART_13
 70
     0
  0
APPID
  2
GENIUS_GEFSTDP_13
 70
     0
  0
APPID
  2
GENIUS_GENOBJ-N-RSSYM_13
 70
     0
  0
APPID
  2
GENIUS_GENSYMENT_13
 70
     0
  0
APPID
  2
GENIUS_GENOBJ-N-TIT_13
 70
     0
  0
APPID
  2
GENIUS_GENTITLE_13
 70
     0
  0
APPID
  2
GENIUS_GENZVEED_13
 70
     0
  0
APPID
  2
GENIUS_GENOBJ-N-LEADER_13
 70
     0
  0
APPID
  2
GENIUS_GENOBJ-N-FIL_13
 70
     0
  0
APPID
  2
GENIUS_GENOBJ-N-SEC_13
 70
     0
  0
APPID
  2
GENIUS_GENOBJ-N-CRS_13
 70
     0
  0
APPID
  2
GENIUS_GENOBJ-N-ZOO_13
 70
     0
  0
APPID
  2
GENIUS_GENZOO_13
 70
     0
  0
APPID
  2
GENIUS_GENOBJ-F-TOL_13
 70
     0
  0
APPID
  2
GENIUS_GENFIL_13
 70
     0
  0
APPID
  2
GENIUS_GENOBJ-N-CHA_13
 70
     0
  0
APPID
  2
ACAD_EXEMPT_FROM_CAD_STANDARDS
 70
     0
  0
APPID
  2
ACAD_MLEADERVER
 70
     0
  0
APPID
  2
ACAD_NAV_VCDISPLAY
 70
     0
  0
ENDTAB
  0
TABLE
  2
DIMSTYLE
 70
     2
  0
DIMSTYLE
  2
STANDARD
 70
     0
  3

  4

  5

  6

  7

 40
1.0
 41
0.18
 42
0.0625
 43
0.38
 44
0.18
 45
0.0
 46
0.0
 47
0.0
 48
0.0
140
0.18
141
0.09
142
0.0
143
25.399999999999999
144
1.0
145
0.0
146
1.0
147
0.09
 71
     0
 72
     0
 73
     1
 74
     1
 75
     0
 76
     0
 77
     0
 78
     0
170
     0
171
     2
172
     0
173
     0
174
     0
175
     0
176
     0
177
     0
178
     0
  0
DIMSTYLE
  2
ANNOTATIVE
 70
     0
  3

  4

  5

  6

  7

 40
1.0
 41
0.18
 42
0.0625
 43
0.38
 44
0.18
 45
0.0
 46
0.0
 47
0.0
 48
0.0
140
0.18
141
0.09
142
0.0
143
25.399999999999999
144
1.0
145
0.0
146
1.0
147
0.09
 71
     0
 72
     0
 73
     1
 74
     1
 75
     0
 76
     0
 77
     0
 78
     0
170
     0
171
     2
172
     0
173
     0
174
     0
175
     0
176
     0
177
     0
178
     0
  0
ENDTAB
  0
ENDSEC
  0
SECTION
  2
BLOCKS
  0
BLOCK
  8
0
  2
$MODEL_SPACE
 70
     0
 10
0.0
 20
0.0
 30
0.0
  3
$MODEL_SPACE
  1

  0
ENDBLK
  5
503D
  8
0
  0
BLOCK
 67
     1
  8
0
  2
$PAPER_SPACE
 70
     0
 10
0.0
 20
0.0
 30
0.0
  3
$PAPER_SPACE
  1

  0
ENDBLK
  5
5039
 67
     1
  8
0
  0
ENDSEC
  0
SECTION
  2
ENTITIES
  0
LINE
  5
4C3C
  8
0
 10
33.792695846700219
 20
171.73915710682871
 30
0.0
 11
39.277523404001727
 21
162.23915710682871
 31
0.0
  0
LINE
  5
4C3D
  8
0
 10
39.27752340400184
 20
181.23915710682871
 30
0.0
 11
33.792695846700219
 21
171.73915710682871
 31
0.0
  0
LINE
  5
4C3E
  8
0
 10
50.247178518604642
 20
181.23915710682871
 30
0.0
 11
39.27752340400184
 21
181.23915710682871
 31
0.0
  0
LINE
  5
4C3F
  8
0
 10
55.732006075905922
 20
171.73915710682871
 30
0.0
 11
50.247178518604642
 21
181.23915710682871
 31
0.0
  0
LINE
  5
4C40
  8
0
 10
50.2471785186044
 20
162.23915710682871
 30
0.0
 11
55.732006075905922
 21
171.73915710682871
 31
0.0
  0
CIRCLE
  5
4C41
  8
3
 10
44.76235096130312
 20
171.73915710682871
 30
0.0
 40
5.052999999999999
  0
CIRCLE
  5
4C42
  8
0
 10
44.76235096130312
 20
171.73915710682871
 30
0.0
 40
6.0
  0
CIRCLE
  5
4C43
  8
0
 10
44.76235096130312
 20
171.73915710682871
 30
0.0
 40
9.0
  0
LINE
  5
4C44
  8
0
 10
39.277523404001727
 20
162.23915710682871
 30
0.0
 11
50.2471785186044
 21
162.23915710682871
 31
0.0
  0
LINE
  5
4C45
  8
0
 10
157.76238372001441
 20
83.467087385929645
 30
0.0
 11
157.76238372001441
 21
103.4670873859295
 31
0.0
  0
LINE
  5
4C46
  8
3
 10
156.81538372001441
 20
83.467087385929645
 30
0.0
 11
156.81538372001441
 21
104.41408738592951
 31
0.0
  0
LINE
  5
4C47
  8
0
 10
145.76238372001441
 20
83.467087385929645
 30
0.0
 11
145.76238372001441
 21
103.4670873859296
 31
0.0
  0
LINE
  5
4C48
  8
3
 10
146.70938372001439
 20
83.467087385929645
 30
0.0
 11
146.70938372001439
 21
104.41408738592951
 31
0.0
  0
LINE
  5
4C49
  8
3
 10
146.70938372001439
 20
64.467087385929517
 30
0.0
 11
145.7623837200143
 21
62.826835271161833
 31
0.0
  0
LINE
  5
4C4A
  8
0
 10
147.76238372001441
 20
105.4670873859296
 30
0.0
 11
145.76238372001441
 21
103.4670873859296
 31
0.0
  0
LINE
  5
4C4B
  8
3
 10
146.70938372001439
 20
64.467087385929517
 30
0.0
 11
146.70938372001439
 21
73.467087385929631
 31
0.0
  0
LINE
  5
4C4C
  8
0
 10
145.7623837200143
 20
62.467087385929517
 30
0.0
 11
145.7623837200143
 21
73.467087385929631
 31
0.0
  0
LINE
  5
4C4D
  8
3
 10
156.81538372001441
 20
64.467087385929517
 30
0.0
 11
157.76238372001441
 21
62.826835271161833
 31
0.0
  0
LINE
  5
4C4E
  8
0
 10
157.76238372001441
 20
64.467087385929517
 30
0.0
 11
145.7623837200143
 21
64.467087385929517
 31
0.0
  0
LINE
  5
4C4F
  8
0
 10
145.76238372001441
 20
103.4670873859296
 30
0.0
 11
157.7623837200145
 21
103.4670873859295
 31
0.0
  0
LINE
  5
4C50
  8
0
 10
155.76238372001441
 20
105.4670873859295
 30
0.0
 11
157.76238372001441
 21
103.4670873859295
 31
0.0
  0
LINE
  5
4C51
  8
3
 10
156.81538372001441
 20
64.467087385929517
 30
0.0
 11
156.81538372001441
 21
73.467087385929631
 31
0.0
  0
LINE
  5
4C52
  8
0
 10
157.76238372001441
 20
62.467087385929517
 30
0.0
 11
157.76238372001441
 21
73.467087385929631
 31
0.0
  0
LINE
  5
4C53
  8
0
 10
147.76238372001441
 20
105.4670873859296
 30
0.0
 11
155.76238372001441
 21
105.4670873859295
 31
0.0
  0
LINE
  5
4C54
  8
0
 10
151.7623837200112
 20
82.329906475303801
 30
0.0
 11
151.76238372001441
 21
74.60426829655546
 31
0.0
  0
LINE
  5
4C55
  8
0
 10
160.76238372001441
 20
73.467087385929631
 30
0.0
 11
142.76238372001441
 21
73.467087385929631
 31
0.0
  0
LINE
  5
4C56
  8
0
 10
142.76238372001441
 20
83.467087385929645
 30
0.0
 11
160.76238372001441
 21
83.467087385929645
 31
0.0
  0
LINE
  5
4C57
  8
0
 10
142.26238372001441
 20
83.178412251334748
 30
0.0
 11
142.76238372001441
 21
83.467087385929645
 31
0.0
  0
ARC
  5
4C58
  8
0
 10
147.01238372001441
 20
69.458728361341628
 30
0.0
 40
13.719683889993171
 50
69.743841999613053
 51
110.2561580003869
  0
LINE
  5
4C59
  8
0
 10
142.76238372001441
 20
73.467087385929631
 30
0.0
 11
142.26238372001441
 21
73.827559290249724
 31
0.0
  0
LINE
  5
4C5A
  8
0
 10
142.26238372001441
 20
73.827559290249724
 30
0.0
 11
142.26238372001441
 21
83.178412251334748
 31
0.0
  0
ARC
  5
4C5B
  8
0
 10
147.01238372001441
 20
87.475446410517634
 30
0.0
 40
13.719683889993171
 50
249.7438419996115
 51
290.25615800038702
  0
ARC
  5
4C5C
  8
0
 10
156.51238372001441
 20
87.475446410517634
 30
0.0
 40
13.719683889993171
 50
249.7438419996115
 51
290.25615800038702
  0
LINE
  5
4C5D
  8
0
 10
161.26238372001441
 20
73.827559290249724
 30
0.0
 11
161.26238372001441
 21
83.178412251334748
 31
0.0
  0
LINE
  5
4C5E
  8
0
 10
160.76238372001441
 20
73.467087385929631
 30
0.0
 11
161.26238372001441
 21
73.827559290249724
 31
0.0
  0
ARC
  5
4C5F
  8
0
 10
156.51238372001441
 20
69.458728361341628
 30
0.0
 40
13.719683889993171
 50
69.743841999613053
 51
110.2561580003869
  0
LINE
  5
4C60
  8
0
 10
161.26238372001441
 20
83.178412251334748
 30
0.0
 11
160.76238372001441
 21
83.467087385929645
 31
0.0
  0
LINE
  5
4C61
  8
0
 10
157.2623837200145
 20
53.467087385929183
 30
0.0
 11
157.2623837200145
 21
57.46708738592919
 31
0.0
  0
LINE
  5
4C62
  8
0
 10
146.2623837200145
 20
53.467087385929183
 30
0.0
 11
146.2623837200145
 21
57.46708738592919
 31
0.0
  0
ARC
  5
4C63
  8
0
 10
145.70020589352339
 20
58.733495081046492
 30
0.0
 40
3.5781518477924039
 50
55.615752531961242
 51
115.61575253217271
  0
ARC
  5
4C64
  8
0
 10
151.76238372001541
 20
48.936861711185088
 30
0.0
 40
13.374785217653811
 50
72.412046225995169
 51
107.5879537740048
  0
LINE
  5
4C65
  8
0
 10
143.67947995135961
 20
61.686432146499548
 30
0.0
 11
145.03161448924641
 21
62.467087385929169
 31
0.0
  0
LINE
  5
4C66
  8
0
 10
143.67947995135961
 20
58.247742625358683
 30
0.0
 11
145.03161448924641
 21
57.46708738592919
 31
0.0
  0
ARC
  5
4C67
  8
0
 10
145.70020589352339
 20
61.200679690811853
 30
0.0
 40
3.5781518477924039
 50
244.38424746782729
 51
304.38424746803872
  0
ARC
  5
4C68
  8
0
 10
151.76238372001541
 20
70.997313060673264
 30
0.0
 40
13.374785217653811
 50
252.4120462259952
 51
287.5879537740048
  0
LINE
  5
4C69
  8
0
 10
143.67947995135961
 20
61.686432146499548
 30
0.0
 11
143.67947995135961
 21
58.247742625358683
 31
0.0
  0
LINE
  5
4C6A
  8
0
 10
147.7209318356887
 20
61.686432146498291
 30
0.0
 11
147.72093183568691
 21
58.247742625360488
 31
0.0
  0
LINE
  5
4C6B
  8
0
 10
155.80383560434001
 20
61.68643214650011
 30
0.0
 11
155.8038356043418
 21
58.247742625360488
 31
0.0
  0
LINE
  5
4C6C
  8
0
 10
159.8452874886691
 20
61.686432146499669
 30
0.0
 11
159.8452874886691
 21
58.247742625358683
 31
0.0
  0
ARC
  5
4C6D
  8
0
 10
157.82456154650529
 20
61.200679690811853
 30
0.0
 40
3.5781518477924039
 50
235.61575253196131
 51
295.61575253217268
  0
LINE
  5
4C6E
  8
0
 10
159.8452874886691
 20
58.247742625358683
 30
0.0
 11
158.49315295078239
 21
57.46708738592919
 31
0.0
  0
LINE
  5
4C6F
  8
0
 10
159.8452874886691
 20
61.686432146499548
 30
0.0
 11
158.49315295078239
 21
62.467087385929169
 31
0.0
  0
ARC
  5
4C70
  8
0
 10
157.82456154650529
 20
58.733495081046492
 30
0.0
 40
3.5781518477924039
 50
64.384247467827308
 51
124.38424746803869
  0
LINE
  5
4C71
  8
0
 10
145.03161448924519
 20
62.467087385929169
 30
0.0
 11
158.49315295078219
 21
62.467087385929169
 31
0.0
  0
LINE
  5
4C72
  8
0
 10
158.49315295078239
 20
57.46708738592919
 30
0.0
 11
145.03161448924669
 21
57.46708738592919
 31
0.0
  0
LINE
  5
4C73
  8
0
 10
38.762350961303099
 20
83.467087385929645
 30
0.0
 11
38.762350961303142
 21
103.4670873859297
 31
0.0
  0
LINE
  5
4C74
  8
3
 10
39.70935096130308
 20
83.467087385929645
 30
0.0
 11
39.709350961303137
 21
104.4140873859297
 31
0.0
  0
LINE
  5
4C75
  8
3
 10
49.815350961303153
 20
83.467087385929645
 30
0.0
 11
49.815350961303167
 21
104.41408738592951
 31
0.0
  0
LINE
  5
4C76
  8
0
 10
50.762350961303099
 20
83.467087385929645
 30
0.0
 11
50.762350961303127
 21
103.4670873859296
 31
0.0
  0
LINE
  5
4C77
  8
0
 10
50.247178518600407
 20
82.329906475303801
 30
0.0
 11
50.2471785186045
 21
74.604268296555119
 31
0.0
  0
LINE
  5
4C78
  8
0
 10
55.732006075906241
 20
82.329906475303801
 30
0.0
 11
55.732006075906241
 21
74.604268296555347
 31
0.0
  0
LINE
  5
4C79
  8
0
 10
39.277523404006011
 20
82.329906475303801
 30
0.0
 11
39.277523404001933
 21
74.604268296555119
 31
0.0
  0
LINE
  5
4C7A
  8
0
 10
33.792695846700177
 20
82.329906475303801
 30
0.0
 11
33.792695846700177
 21
74.604268296555347
 31
0.0
  0
LINE
  5
4C7B
  8
0
 10
33.792695846700177
 20
74.60426829655546
 30
0.0
 11
35.762350961301848
 21
73.467087385929631
 31
0.0
  0
ARC
  5
4C7C
  8
0
 10
36.535109625350827
 20
78.611825742532901
 30
0.0
 40
4.8560632220084567
 50
244.3842474680873
 51
304.3842474680165
  0
ARC
  5
4C7D
  8
0
 10
44.762350961303213
 20
91.907256744509937
 30
0.0
 40
18.15149422398537
 50
252.41204622603641
 51
287.5879537739637
  0
ARC
  5
4C7E
  8
0
 10
52.989592297255612
 20
78.611825742532901
 30
0.0
 40
4.8560632220084567
 50
235.6157525319833
 51
295.61575253191347
  0
LINE
  5
4C7F
  8
0
 10
55.732006075906241
 20
74.60426829655546
 30
0.0
 11
53.76235096130457
 21
73.467087385929631
 31
0.0
  0
LINE
  5
4C80
  8
0
 10
35.762350961301848
 20
73.467087385929631
 30
0.0
 11
53.76235096130457
 21
73.467087385929631
 31
0.0
  0
LINE
  5
4C81
  8
0
 10
35.762350961301848
 20
83.467087385929645
 30
0.0
 11
53.76235096130457
 21
83.467087385929645
 31
0.0
  0
LINE
  5
4C82
  8
0
 10
55.732006075906241
 20
82.329906475303801
 30
0.0
 11
53.76235096130457
 21
83.467087385929645
 31
0.0
  0
ARC
  5
4C83
  8
0
 10
52.989592297255612
 20
78.322349029326347
 30
0.0
 40
4.8560632220084567
 50
64.384247468086471
 51
124.3842474680165
  0
ARC
  5
4C84
  8
0
 10
44.762350961303213
 20
65.026918027349325
 30
0.0
 40
18.15149422398537
 50
72.412046226036338
 51
107.5879537739636
  0
ARC
  5
4C85
  8
0
 10
36.535109625350827
 20
78.322349029326347
 30
0.0
 40
4.8560632220084567
 50
55.615752531983382
 51
115.6157525319127
  0
LINE
  5
4C86
  8
0
 10
33.792695846700177
 20
82.329906475303801
 30
0.0
 11
35.762350961301848
 21
83.467087385929645
 31
0.0
  0
LINE
  5
4C87
  8
0
 10
40.762350961303127
 20
105.4670873859297
 30
0.0
 11
48.76235096130312
 21
105.4670873859296
 31
0.0
  0
LINE
  5
4C88
  8
0
 10
50.762350961303071
 20
62.467087385929631
 30
0.0
 11
50.762350961303071
 21
73.467087385929631
 31
0.0
  0
LINE
  5
4C89
  8
3
 10
49.81535096130311
 20
64.467087385929617
 30
0.0
 11
49.81535096130311
 21
73.467087385929631
 31
0.0
  0
LINE
  5
4C8A
  8
3
 10
39.70935096130308
 20
64.467087385929617
 30
0.0
 11
39.70935096130308
 21
73.467087385929631
 31
0.0
  0
LINE
  5
4C8B
  8
0
 10
38.762350961303071
 20
62.467087385929631
 30
0.0
 11
38.762350961303099
 21
73.467087385929631
 31
0.0
  0
LINE
  5
4C8C
  8
0
 10
40.762350961303127
 20
105.4670873859297
 30
0.0
 11
38.762350961303142
 21
103.4670873859297
 31
0.0
  0
LINE
  5
4C8D
  8
0
 10
48.76235096130312
 20
105.4670873859296
 30
0.0
 11
50.762350961303127
 21
103.4670873859296
 31
0.0
  0
LINE
  5
4C8E
  8
0
 10
38.762350961303142
 20
103.4670873859296
 30
0.0
 11
50.762350961303177
 21
103.4670873859296
 31
0.0
  0
LINE
  5
4C8F
  8
0
 10
50.762350961303071
 20
64.467087385929617
 30
0.0
 11
38.762350961303071
 21
64.467087385929617
 31
0.0
  0
LINE
  5
4C90
  8
3
 10
39.70935096130308
 20
64.467087385929617
 30
0.0
 11
38.762350961303071
 21
62.826835271161919
 31
0.0
  0
LINE
  5
4C91
  8
3
 10
49.815350961303061
 20
64.467087385929617
 30
0.0
 11
50.762350961303071
 21
62.826835271161919
 31
0.0
  0
ARC
  5
4C92
  8
0
 10
48.26235096130273
 20
67.731768604056811
 30
0.0
 40
10.10924076103746
 50
249.7438419995832
 51
290.25615800041601
  0
LINE
  5
4C93
  8
0
 10
51.762350961302843
 20
57.622527843019391
 30
0.0
 11
51.493120192070869
 21
57.46708738592919
 31
0.0
  0
LINE
  5
4C94
  8
0
 10
37.762350961302843
 20
57.622527843019391
 30
0.0
 11
38.031581730534811
 21
57.46708738592919
 31
0.0
  0
ARC
  5
4C95
  8
0
 10
41.262350961302957
 20
67.731768604056811
 30
0.0
 40
10.10924076103746
 50
249.7438419995832
 51
290.25615800041601
  0
LINE
  5
4C96
  8
0
 10
51.493120192070869
 20
57.46708738592919
 30
0.0
 11
38.031581730534811
 21
57.46708738592919
 31
0.0
  0
ARC
  5
4C97
  8
0
 10
48.26235096130273
 20
52.202406167801421
 30
0.0
 40
10.10924076103746
 50
69.743841999582557
 51
110.2561580004167
  0
LINE
  5
4C98
  8
0
 10
51.762350961302843
 20
62.311646928838847
 30
0.0
 11
51.493120192070869
 21
62.467087385929169
 31
0.0
  0
LINE
  5
4C99
  8
0
 10
37.762350961302843
 20
62.311646928838847
 30
0.0
 11
38.031581730534811
 21
62.467087385929169
 31
0.0
  0
ARC
  5
4C9A
  8
0
 10
41.262350961302957
 20
52.202406167801421
 30
0.0
 40
10.10924076103746
 50
69.743841999582529
 51
110.2561580004167
  0
LINE
  5
4C9B
  8
0
 10
51.493120192070869
 20
62.467087385929169
 30
0.0
 11
38.031581730534811
 21
62.467087385929169
 31
0.0
  0
LINE
  5
4C9C
  8
0
 10
51.762350961302843
 20
62.311646928838847
 30
0.0
 11
51.762350961302843
 21
57.622527843019391
 31
0.0
  0
LINE
  5
4C9D
  8
0
 10
37.762350961302843
 20
62.311646928838847
 30
0.0
 11
37.762350961302843
 21
57.622527843019391
 31
0.0
  0
LINE
  5
4C9E
  8
0
 10
44.762350961302843
 20
61.686432146499669
 30
0.0
 11
44.762350961302843
 21
58.247742625358569
 31
0.0
  0
LINE
  5
4C9F
  8
0
 10
39.262350961302971
 20
53.46708738592929
 30
0.0
 11
39.262350961302971
 21
57.46708738592919
 31
0.0
  0
LINE
  5
4CA0
  8
0
 10
50.262350961302957
 20
53.46708738592929
 30
0.0
 11
50.262350961302957
 21
57.46708738592919
 31
0.0
  0
LINE
  5
4CA1
  8
0
 10
162.22358886185671
 20
52.75998060474307
 30
0.0
 11
163.23779355607999
 21
51.745775910519683
 31
0.0
  0
LINE
  5
4CA9
  8
0
 10
186.76238372001441
 20
40.270366074454159
 30
0.0
 11
186.76238372001441
 21
40.673876407169701
 31
0.0
  0
LINE
  5
4CB0
  8
0
 10
186.76238372001441
 20
34.967087385929631
 30
0.0
 11
186.76238372001441
 21
40.270366074454159
 31
0.0
  0
LINE
  5
4CB1
  8
0
 10
182.17221978558831
 20
34.467087385929631
 30
0.0
 11
182.17221978558831
 21
31.467087385929631
 31
0.0
  0
LINE
  5
4CB2
  8
0
 10
186.26238372001441
 20
34.467087385929631
 30
0.0
 11
186.76238372001441
 21
34.967087385929631
 31
0.0
  0
LINE
  5
4CB3
  8
0
 10
181.02467880198159
 20
43.139218533470611
 30
0.0
 11
186.0497316055808
 21
41.631702692390832
 31
0.0
  0
LINE
  5
4CB4
  8
0
 10
181.01163587225861
 20
43.139218533470611
 30
0.0
 11
181.01163587225861
 21
43.543215767694853
 31
0.0
  0
LINE
  5
4CB5
  8
0
 10
175.2869738839488
 20
46.008070992486971
 30
0.0
 11
180.29958421797471
 21
44.50086170967927
 31
0.0
  0
LINE
  5
4CB6
  8
0
 10
168.97549847411261
 20
48.87692345150333
 30
0.0
 11
168.97549847411281
 21
49.280433784218872
 31
0.0
  0
LINE
  5
4CB7
  8
0
 10
175.2869738839488
 20
46.008070992486871
 30
0.0
 11
175.2869738839488
 21
46.391816135094253
 31
0.0
  0
LINE
  5
4CB8
  8
0
 10
168.97549847411261
 20
48.87692345150333
 30
0.0
 11
174.55009128974089
 21
47.356579956331977
 31
0.0
  0
LINE
  5
4CB9
  8
0
 10
163.23779355607999
 20
51.745775910519683
 30
0.0
 11
168.2628463596792
 21
50.238260069440017
 31
0.0
  0
ARC
  5
4CBA
  8
0
 10
185.7623837200145
 20
40.673876407169701
 30
0.0
 40
1.0
 50
0.0
 51
73.30075576600548
  0
ARC
  5
4CBB
  8
0
 10
180.01163587225861
 20
43.543215767694853
 30
0.0
 40
1.0
 50
0.0
 51
73.264833729934836
  0
ARC
  5
4CBC
  8
0
 10
174.2869738839488
 20
46.391816135094253
 30
0.0
 40
1.0
 50
0.0
 51
74.744881296941827
  0
ARC
  5
4CBD
  8
0
 10
167.97549847411281
 20
49.280433784218872
 30
0.0
 40
1.0
 50
0.0
 51
73.300755766005366
  0
LINE
  5
4CBE
  8
0
 10
162.22358886185671
 20
52.75998060474307
 30
0.0
 11
160.5164820806703
 21
53.467087385929631
 31
0.0
  0
LINE
  5
4CC0
  8
0
 10
121.3525476544405
 20
31.467087385929631
 30
0.0
 11
182.17221978558831
 21
31.467087385929631
 31
0.0
  0
LINE
  5
4CC1
  8
0
 10
141.301178578172
 20
52.75998060474307
 30
0.0
 11
143.0082853593585
 21
53.467087385929631
 31
0.0
  0
ARC
  5
4CC2
  8
0
 10
135.54926896591601
 20
49.280433784218872
 30
0.0
 40
1.0
 50
106.69924423399461
 51
180.0
  0
ARC
  5
4CC3
  8
0
 10
129.23779355607979
 20
46.391816135094253
 30
0.0
 40
1.0
 50
105.2551187030581
 51
180.0
  0
ARC
  5
4CC4
  8
0
 10
123.5131315677701
 20
43.543215767694853
 30
0.0
 40
1.0
 50
106.7351662700644
 51
180.0
  0
ARC
  5
4CC5
  8
0
 10
117.7623837200144
 20
40.673876407169701
 30
0.0
 40
1.0
 50
106.6992442339937
 51
180.0
  0
LINE
  5
4CC6
  8
0
 10
140.2869738839488
 20
51.745775910519683
 30
0.0
 11
135.26192108034959
 21
50.238260069440017
 31
0.0
  0
LINE
  5
4CC7
  8
0
 10
134.5492689659161
 20
48.87692345150333
 30
0.0
 11
128.97467615028771
 21
47.356579956331977
 31
0.0
  0
LINE
  5
4CC8
  8
0
 10
128.23779355607991
 20
46.008070992486871
 30
0.0
 11
128.23779355607979
 21
46.391816135094253
 31
0.0
  0
LINE
  5
4CC9
  8
0
 10
134.5492689659161
 20
48.87692345150333
 30
0.0
 11
134.54926896591601
 21
49.280433784218872
 31
0.0
  0
LINE
  5
4CCA
  8
0
 10
128.23779355607991
 20
46.008070992486971
 30
0.0
 11
123.2251832220541
 21
44.50086170967927
 31
0.0
  0
LINE
  5
4CCB
  8
0
 10
122.5131315677701
 20
43.139218533470611
 30
0.0
 11
122.5131315677701
 21
43.543215767694853
 31
0.0
  0
LINE
  5
4CCC
  8
0
 10
122.5000886380471
 20
43.139218533470611
 30
0.0
 11
117.47503583444799
 21
41.631702692390832
 31
0.0
  0
LINE
  5
4CCD
  8
0
 10
117.2623837200144
 20
34.467087385929631
 30
0.0
 11
116.7623837200144
 21
34.967087385929631
 31
0.0
  0
LINE
  5
4CCE
  8
0
 10
121.3525476544405
 20
34.467087385929631
 30
0.0
 11
121.3525476544405
 21
31.467087385929631
 31
0.0
  0
LINE
  5
4CCF
  8
0
 10
116.7623837200144
 20
34.967087385929631
 30
0.0
 11
116.7623837200144
 21
40.270366074454159
 31
0.0
  0
LINE
  5
4CD6
  8
0
 10
116.7623837200144
 20
40.270366074454159
 30
0.0
 11
116.7623837200144
 21
40.673876407169701
 31
0.0
  0
LINE
  5
4CD7
  8
0
 10
143.0082853593585
 20
53.467087385929631
 30
0.0
 11
160.51648208067019
 21
53.467087385929631
 31
0.0
  0
LINE
  5
4CD8
  8
0
 10
140.2869738839488
 20
51.745775910519683
 30
0.0
 11
163.23779355607999
 21
51.745775910519683
 31
0.0
  0
LINE
  5
4CD9
  8
0
 10
134.5492689659161
 20
48.87692345150333
 30
0.0
 11
168.97549847411261
 21
48.87692345150333
 31
0.0
  0
LINE
  5
4CDA
  8
0
 10
128.23779355607991
 20
46.008070992486971
 30
0.0
 11
175.2869738839488
 21
46.008070992486971
 31
0.0
  0
LINE
  5
4CDB
  8
0
 10
122.5000886380471
 20
43.139218533470611
 30
0.0
 11
181.02467880198159
 21
43.139218533470618
 31
0.0
  0
LINE
  5
4CDC
  8
0
 10
117.2623837200144
 20
34.467087385929631
 30
0.0
 11
186.26238372001441
 21
34.467087385929631
 31
0.0
  0
LINE
  5
4CDD
  8
0
 10
116.7623837200144
 20
40.270366074454159
 30
0.0
 11
186.76238372001441
 21
40.270366074454159
 31
0.0
  0
LINE
  5
4CDE
  8
0
 10
141.301178578172
 20
52.75998060474307
 30
0.0
 11
140.2869738839488
 21
51.745775910519683
 31
0.0
  0
LINE
  5
4CDF
  8
1
 10
151.76238372001441
 20
26.467087385929631
 30
0.0
 11
151.76238372001441
 21
110.4670873859296
 31
0.0
  0
LINE
  5
4CE0
  8
1
 10
44.76235096130312
 20
26.467087385929631
 30
0.0
 11
44.76235096130312
 21
110.4670873859296
 31
0.0
  0
LINE
  5
4CE1
  8
1
 10
84.762350961303127
 20
171.73915710682871
 30
0.0
 11
4.7623509613031283
 21
171.73915710682871
 31
0.0
  0
LINE
  5
4CE2
  8
1
 10
44.76235096130312
 20
211.7391571068288
 30
0.0
 11
44.76235096130312
 21
131.7391571068286
 31
0.0
  0
CIRCLE
  5
4CE4
  8
0
 10
44.76235096130312
 20
171.73915710682871
 30
0.0
 40
11.47540983606563
  0
CIRCLE
  5
4CE5
  8
0
 10
44.76235096130312
 20
171.73915710682871
 30
0.0
 40
17.213114754098338
  0
CIRCLE
  5
4CE6
  8
0
 10
44.76235096130312
 20
171.7391571068286
 30
0.0
 40
23.52459016393453
  0
CIRCLE
  5
4CE7
  8
0
 10
44.76235096130312
 20
171.7391571068286
 30
0.0
 40
29.249252152244249
  0
CIRCLE
  5
4CE8
  8
0
 10
44.76235096130312
 20
171.73915710682871
 30
0.0
 40
35.00000000000005
  0
LINE
  5
4CE9
  8
0
 10
34.301145819460771
 20
52.75998060474307
 30
0.0
 11
33.28694112523749
 21
51.745775910519683
 31
0.0
  0
LINE
  5
4CEA
  8
0
 10
9.7623509613031274
 20
40.270366074454159
 30
0.0
 11
79.762350961303127
 21
40.270366074454159
 31
0.0
  0
LINE
  5
4CEB
  8
0
 10
10.262350961303129
 20
34.467087385929631
 30
0.0
 11
79.262350961303085
 21
34.467087385929631
 31
0.0
  0
LINE
  5
4CEC
  8
0
 10
15.500055879335831
 20
43.139218533470611
 30
0.0
 11
74.024646043270423
 21
43.139218533470618
 31
0.0
  0
LINE
  5
4CED
  8
0
 10
21.237760797368651
 20
46.008070992486971
 30
0.0
 11
68.286941125237604
 21
46.008070992486971
 31
0.0
  0
LINE
  5
4CEE
  8
0
 10
27.549236207204789
 20
48.87692345150333
 30
0.0
 11
61.975465715401448
 21
48.87692345150333
 31
0.0
  0
LINE
  5
4CEF
  8
0
 10
33.28694112523749
 20
51.745775910519683
 30
0.0
 11
56.237760797368757
 21
51.745775910519683
 31
0.0
  0
LINE
  5
4CF0
  8
0
 10
36.008252600647211
 20
53.467087385929631
 30
0.0
 11
53.516449321959058
 21
53.467087385929631
 31
0.0
  0
LINE
  5
4CF1
  8
0
 10
9.7623509613031274
 20
40.270366074454159
 30
0.0
 11
9.7623509613031274
 21
40.673876407169701
 31
0.0
  0
LINE
  5
4CF8
  8
0
 10
9.7623509613031274
 20
34.967087385929631
 30
0.0
 11
9.7623509613031274
 21
40.270366074454159
 31
0.0
  0
LINE
  5
4CF9
  8
0
 10
14.3525148957292
 20
34.467087385929631
 30
0.0
 11
14.3525148957292
 21
31.467087385929631
 31
0.0
  0
LINE
  5
4CFA
  8
0
 10
10.262350961303129
 20
34.467087385929631
 30
0.0
 11
9.7623509613031274
 21
34.967087385929631
 31
0.0
  0
LINE
  5
4CFB
  8
0
 10
15.500055879335831
 20
43.139218533470611
 30
0.0
 11
10.47500307573671
 21
41.631702692390832
 31
0.0
  0
LINE
  5
4CFC
  8
0
 10
15.513098809058871
 20
43.139218533470611
 30
0.0
 11
15.513098809058871
 21
43.543215767694853
 31
0.0
  0
LINE
  5
4CFD
  8
0
 10
21.237760797368651
 20
46.008070992486971
 30
0.0
 11
16.22515046334285
 21
44.50086170967927
 31
0.0
  0
LINE
  5
4CFE
  8
0
 10
27.549236207204789
 20
48.87692345150333
 30
0.0
 11
27.549236207204789
 21
49.280433784218872
 31
0.0
  0
LINE
  5
4CFF
  8
0
 10
21.237760797368651
 20
46.008070992486871
 30
0.0
 11
21.237760797368541
 21
46.391816135094253
 31
0.0
  0
LINE
  5
4D00
  8
0
 10
27.549236207204789
 20
48.87692345150333
 30
0.0
 11
21.974643391576478
 21
47.356579956331977
 31
0.0
  0
LINE
  5
4D01
  8
0
 10
33.28694112523749
 20
51.745775910519683
 30
0.0
 11
28.26188832163837
 21
50.238260069440017
 31
0.0
  0
ARC
  5
4D02
  8
0
 10
10.762350961303129
 20
40.673876407169701
 30
0.0
 40
1.0
 50
106.6992442339936
 51
180.0
  0
ARC
  5
4D03
  8
0
 10
16.513098809058871
 20
43.543215767694853
 30
0.0
 40
1.0
 50
106.7351662700646
 51
180.0
  0
ARC
  5
4D04
  8
0
 10
22.237760797368541
 20
46.391816135094253
 30
0.0
 40
1.0
 50
105.2551187030578
 51
180.0
  0
ARC
  5
4D05
  8
0
 10
28.549236207204789
 20
49.280433784218872
 30
0.0
 40
1.0
 50
106.69924423399399
 51
180.0
  0
LINE
  5
4D06
  8
0
 10
34.301145819460771
 20
52.75998060474307
 30
0.0
 11
36.008252600647211
 21
53.467087385929631
 31
0.0
  0
LINE
  5
4D07
  8
0
 10
14.3525148957292
 20
31.467087385929631
 30
0.0
 11
75.172187026877054
 21
31.467087385929631
 31
0.0
  0
LINE
  5
4D09
  8
0
 10
55.223556103145476
 20
52.75998060474307
 30
0.0
 11
53.51644932195903
 21
53.467087385929631
 31
0.0
  0
ARC
  5
4D0A
  8
0
 10
60.975465715401462
 20
49.280433784218872
 30
0.0
 40
1.0
 50
0.0
 51
73.300755766005764
  0
ARC
  5
4D0B
  8
0
 10
67.286941125237718
 20
46.391816135094253
 30
0.0
 40
1.0
 50
0.0
 51
74.744881296941827
  0
ARC
  5
4D0C
  8
0
 10
73.011603113547366
 20
43.543215767694853
 30
0.0
 40
1.0
 50
0.0
 51
73.264833729935603
  0
ARC
  5
4D0D
  8
0
 10
78.762350961303085
 20
40.673876407169701
 30
0.0
 40
1.0
 50
0.0
 51
73.300755766006262
  0
LINE
  5
4D0E
  8
0
 10
56.237760797368757
 20
51.745775910519683
 30
0.0
 11
61.262813600967903
 21
50.238260069440017
 31
0.0
  0
LINE
  5
4D0F
  8
0
 10
61.975465715401448
 20
48.87692345150333
 30
0.0
 11
67.550058531029777
 21
47.356579956331977
 31
0.0
  0
LINE
  5
4D10
  8
0
 10
68.286941125237604
 20
46.008070992486871
 30
0.0
 11
68.286941125237718
 21
46.391816135094253
 31
0.0
  0
LINE
  5
4D11
  8
0
 10
61.975465715401448
 20
48.87692345150333
 30
0.0
 11
61.975465715401448
 21
49.280433784218872
 31
0.0
  0
LINE
  5
4D12
  8
0
 10
68.286941125237604
 20
46.008070992486971
 30
0.0
 11
73.299551459263398
 21
44.50086170967927
 31
0.0
  0
LINE
  5
4D13
  8
0
 10
74.011603113547366
 20
43.139218533470611
 30
0.0
 11
74.011603113547366
 21
43.543215767694853
 31
0.0
  0
LINE
  5
4D14
  8
0
 10
74.024646043270423
 20
43.139218533470611
 30
0.0
 11
79.049698846869546
 21
41.631702692390832
 31
0.0
  0
LINE
  5
4D15
  8
0
 10
79.262350961303085
 20
34.467087385929631
 30
0.0
 11
79.762350961303127
 21
34.967087385929631
 31
0.0
  0
LINE
  5
4D16
  8
0
 10
75.172187026877054
 20
34.467087385929631
 30
0.0
 11
75.172187026877054
 21
31.467087385929631
 31
0.0
  0
LINE
  5
4D17
  8
0
 10
79.762350961303127
 20
34.967087385929631
 30
0.0
 11
79.762350961303127
 21
40.270366074454159
 31
0.0
  0
LINE
  5
4D1E
  8
0
 10
79.762350961303127
 20
40.270366074454159
 30
0.0
 11
79.762350961303127
 21
40.673876407169701
 31
0.0
  0
LINE
  5
4D26
  8
0
 10
55.223556103145476
 20
52.75998060474307
 30
0.0
 11
56.237760797368757
 21
51.745775910519683
 31
0.0
  0
TEXT
  5
50BD
  8
0
 62
     3
 10
0.0
 20
0.0
 30
0.0
 40
10.0
  1
LVAR70S12A-SUS
  7
STANDARD1
  0
ENDSEC
  0
EOF
