  0
SECTION
  2
HEADER
  9
$ACADVER
  1
AC1009
  9
$INSBASE
 10
0.0
 20
0.0
 30
0.0
  9
$EXTMIN
 10
0.0
 20
-2.960436562073669
 30
0.0
  9
$EXTMAX
 10
225.80075144679861
 20
344.25608715122689
 30
0.0
  9
$LIMMIN
 10
0.0
 20
0.0
  9
$LIMMAX
 10
375.0
 20
270.0
  9
$ORTHOMODE
 70
     1
  9
$REGENMODE
 70
     1
  9
$FILLMODE
 70
     1
  9
$QTEXTMODE
 70
     0
  9
$MIRRTEXT
 70
     0
  9
$DRAGMODE
 70
     2
  9
$LTSCALE
 40
6.0
  9
$OSMODE
 70
  3071
  9
$ATTMODE
 70
     1
  9
$TEXTSIZE
 40
0.2
  9
$TRACEWID
 40
0.05
  9
$TEXTSTYLE
  7
STANDARD
  9
$CLAYER
  8
0
  9
$CELTYPE
  6
BYLAYER
  9
$CECOLOR
 62
   256
  9
$DIMSCALE
 40
1.0
  9
$DIMASZ
 40
3.0
  9
$DIMEXO
 40
1.0
  9
$DIMDLI
 40
6.0
  9
$DIMRND
 40
0.0
  9
$DIMDLE
 40
0.0
  9
$DIMEXE
 40
1.0
  9
$DIMTP
 40
495.0
  9
$DIMTM
 40
0.0
  9
$DIMTXT
 40
3.0
  9
$DIMCEN
 40
0.0
  9
$DIMTSZ
 40
0.0
  9
$DIMTOL
 70
     0
  9
$DIMLIM
 70
     0
  9
$DIMTIH
 70
     0
  9
$DIMTOH
 70
     0
  9
$DIMSE1
 70
     0
  9
$DIMSE2
 70
     0
  9
$DIMTAD
 70
     1
  9
$DIMZIN
 70
     0
  9
$DIMBLK
  1

  9
$DIMASO
 70
     0
  9
$DIMSHO
 70
     0
  9
$DIMPOST
  1

  9
$DIMAPOST
  1

  9
$DIMALT
 70
     0
  9
$DIMALTD
 70
     2
  9
$DIMALTF
 40
25.399999999999999
  9
$DIMLFAC
 40
1.0
  9
$DIMTOFL
 70
     1
  9
$DIMTVP
 40
0.0
  9
$DIMTIX
 70
     1
  9
$DIMSOXD
 70
     0
  9
$DIMSAH
 70
     0
  9
$DIMBLK1
  1

  9
$DIMBLK2
  1

  9
$DIMSTYLE
  2
STANDARD
  9
$DIMCLRD
 70
     0
  9
$DIMCLRE
 70
     0
  9
$DIMCLRT
 70
     4
  9
$DIMTFAC
 40
1.0
  9
$DIMGAP
 40
1.0
  9
$LUNITS
 70
     2
  9
$LUPREC
 70
     4
  9
$SKETCHINC
 40
0.1
  9
$FILLETRAD
 40
2.0
  9
$AUNITS
 70
     0
  9
$AUPREC
 70
     0
  9
$MENU
  1
C:\R13\WIN\SUPPORT\ACAD-I
  9
$ELEVATION
 40
0.0
  9
$PELEVATION
 40
0.0
  9
$THICKNESS
 40
0.0
  9
$LIMCHECK
 70
     0
  9
$BLIPMODE
 70
     0
  9
$CHAMFERA
 40
0.0
  9
$CHAMFERB
 40
0.0
  9
$SKPOLY
 70
     0
  9
$TDCREATE
 40
2451962.4578463892
  9
$TDUPDATE
 40
2456597.6147819562
  9
$TDINDWG
 40
0.094978669
  9
$TDUSRTIMER
 40
2456556.2095077089
  9
$USRTIMER
 70
     1
  9
$ANGBASE
 50
0.0
  9
$ANGDIR
 70
     0
  9
$PDMODE
 70
     0
  9
$PDSIZE
 40
0.0
  9
$PLINEWID
 40
0.0
  9
$COORDS
 70
     1
  9
$SPLFRAME
 70
     0
  9
$SPLINETYPE
 70
     6
  9
$SPLINESEGS
 70
     8
  9
$ATTDIA
 70
     0
  9
$ATTREQ
 70
     1
  9
$HANDLING
 70
     1
  9
$HANDSEED
  5
5AB1
  9
$SURFTAB1
 70
     6
  9
$SURFTAB2
 70
     6
  9
$SURFTYPE
 70
     6
  9
$SURFU
 70
     6
  9
$SURFV
 70
     6
  9
$UCSNAME
  2

  9
$UCSORG
 10
0.0
 20
0.0
 30
0.0
  9
$UCSXDIR
 10
1.0
 20
0.0
 30
0.0
  9
$UCSYDIR
 10
0.0
 20
1.0
 30
0.0
  9
$PUCSNAME
  2

  9
$PUCSORG
 10
0.0
 20
0.0
 30
0.0
  9
$PUCSXDIR
 10
1.0
 20
0.0
 30
0.0
  9
$PUCSYDIR
 10
0.0
 20
1.0
 30
0.0
  9
$USERI1
 70
     4
  9
$USERI2
 70
     1
  9
$USERI3
 70
     0
  9
$USERI4
 70
     0
  9
$USERI5
 70
     0
  9
$USERR1
 40
1.0
  9
$USERR2
 40
3.0
  9
$USERR3
 40
3.0
  9
$USERR4
 40
3.0
  9
$USERR5
 40
10.0
  9
$WORLDVIEW
 70
     1
  9
$SHADEDGE
 70
     3
  9
$SHADEDIF
 70
    70
  9
$TILEMODE
 70
     1
  9
$MAXACTVP
 70
    16
  9
$PLIMCHECK
 70
     0
  9
$PEXTMIN
 10
1.0000000000000000E+020
 20
1.0000000000000000E+020
 30
1.0000000000000000E+020
  9
$PEXTMAX
 10
-1.0000000000000000E+020
 20
-1.0000000000000000E+020
 30
-1.0000000000000000E+020
  9
$PLIMMIN
 10
0.0
 20
0.0
  9
$PLIMMAX
 10
12.0
 20
9.0
  9
$UNITMODE
 70
     0
  9
$VISRETAIN
 70
     0
  9
$PLINEGEN
 70
     0
  9
$PSLTSCALE
 70
     0
  0
ENDSEC
  0
SECTION
  2
TABLES
  0
TABLE
  2
VPORT
 70
     1
  0
VPORT
  2
*ACTIVE
 70
     0
 10
0.0
 20
0.0
 11
1.0
 21
1.0
 12
187.49427839065231
 22
171.3958092520771
 13
0.0
 23
0.0
 14
10.0
 24
10.0
 15
10.0
 25
10.0
 16
0.0
 26
0.0
 36
1.0
 17
0.0
 27
0.0
 37
0.0
 40
352.73976257710831
 41
2.304913294797688
 42
50.0
 43
0.0
 44
0.0
 50
0.0
 51
0.0
 71
    16
 72
   100
 73
     1
 74
     0
 75
     0
 76
     0
 77
     0
 78
     0
  0
ENDTAB
  0
TABLE
  2
LTYPE
 70
     3
  0
LTYPE
  2
CONTINUOUS
 70
     0
  3
Solid Line
 72
    65
 73
     0
 40
0.0
  0
LTYPE
  2
PHANTOM2
 70
     0
  3
___ _ _ ___ _ _ ___ _ _ ___ _ _
 72
    65
 73
     6
 40
1.25
 49
0.625
 49
-0.125
 49
0.125
 49
-0.125
 49
0.125
 49
-0.125
  0
LTYPE
  2
CENTER
 70
     0
  3
____ _ ____ _ ____ _ ____ _ ____ _ ____ _ ____
 72
    65
 73
     4
 40
2.0
 49
1.25
 49
-0.25
 49
0.25
 49
-0.25
  0
ENDTAB
  0
TABLE
  2
LAYER
 70
     3
  0
LAYER
  2
0
 70
     0
 62
     7
  6
CONTINUOUS
  0
LAYER
  2
1
 70
     0
 62
     1
  6
CENTER
  0
LAYER
  2
3
 70
     0
 62
     3
  6
CONTINUOUS
  0
ENDTAB
  0
TABLE
  2
STYLE
 70
     3
  0
STYLE
  2
STANDARD
 70
     0
 40
0.0
 41
1.0
 50
0.0
 71
     0
 42
0.2
  3
SIMPLEX
  4
BIGFONT
  0
STYLE
  2
ANNOTATIVE
 70
     0
 40
0.0
 41
1.0
 50
0.0
 71
     0
 42
0.2
  3
txt
  4

  0
STYLE
  2
STANDARD1
 70
     0
 40
0.0
 41
1.0
 50
0.0
 71
     0
 42
3.0
  3
txt
  4

  0
ENDTAB
  0
TABLE
  2
VIEW
 70
     0
  0
ENDTAB
  0
TABLE
  2
UCS
 70
     0
  0
ENDTAB
  0
TABLE
  2
APPID
 70
    29
  0
APPID
  2
ACAD
 70
     0
  0
APPID
  2
ACADANNOTATIVE
 70
     0
  0
APPID
  2
GENIUS_GENOREF_13
 70
     0
  0
APPID
  2
GENIUS_GENOENT_13
 70
     0
  0
APPID
  2
GENIUS_GENBH_13
 70
     0
  0
APPID
  2
GENIUS_GENOBJ_13
 70
     0
  0
APPID
  2
GENIUS_GENODEF_13
 70
     0
  0
APPID
  2
GENIUS_GENOLIS_13
 70
     0
  0
APPID
  2
GENIUS_GENOBJ-NBEHI-BHF_13
 70
     0
  0
APPID
  2
GENIUS_GENOBJ-NBEHI-BHB_13
 70
     0
  0
APPID
  2
GENIUS_GENOBJ-F-PART_13
 70
     0
  0
APPID
  2
GENIUS_GEFSTDP_13
 70
     0
  0
APPID
  2
GENIUS_GENOBJ-N-RSSYM_13
 70
     0
  0
APPID
  2
GENIUS_GENSYMENT_13
 70
     0
  0
APPID
  2
GENIUS_GENOBJ-N-TIT_13
 70
     0
  0
APPID
  2
GENIUS_GENTITLE_13
 70
     0
  0
APPID
  2
GENIUS_GENZVEED_13
 70
     0
  0
APPID
  2
GENIUS_GENOBJ-N-LEADER_13
 70
     0
  0
APPID
  2
GENIUS_GENOBJ-N-FIL_13
 70
     0
  0
APPID
  2
GENIUS_GENOBJ-N-SEC_13
 70
     0
  0
APPID
  2
GENIUS_GENOBJ-N-CRS_13
 70
     0
  0
APPID
  2
GENIUS_GENOBJ-N-ZOO_13
 70
     0
  0
APPID
  2
GENIUS_GENZOO_13
 70
     0
  0
APPID
  2
GENIUS_GENOBJ-F-TOL_13
 70
     0
  0
APPID
  2
GENIUS_GENFIL_13
 70
     0
  0
APPID
  2
GENIUS_GENOBJ-N-CHA_13
 70
     0
  0
APPID
  2
ACAD_EXEMPT_FROM_CAD_STANDARDS
 70
     0
  0
APPID
  2
ACAD_MLEADERVER
 70
     0
  0
APPID
  2
ACAD_NAV_VCDISPLAY
 70
     0
  0
ENDTAB
  0
TABLE
  2
DIMSTYLE
 70
     2
  0
DIMSTYLE
  2
STANDARD
 70
     0
  3

  4

  5

  6

  7

 40
1.0
 41
0.18
 42
0.0625
 43
0.38
 44
0.18
 45
0.0
 46
0.0
 47
0.0
 48
0.0
140
0.18
141
0.09
142
0.0
143
25.399999999999999
144
1.0
145
0.0
146
1.0
147
0.09
 71
     0
 72
     0
 73
     1
 74
     1
 75
     0
 76
     0
 77
     0
 78
     0
170
     0
171
     2
172
     0
173
     0
174
     0
175
     0
176
     0
177
     0
178
     0
  0
DIMSTYLE
  2
ANNOTATIVE
 70
     0
  3

  4

  5

  6

  7

 40
1.0
 41
0.18
 42
0.0625
 43
0.38
 44
0.18
 45
0.0
 46
0.0
 47
0.0
 48
0.0
140
0.18
141
0.09
142
0.0
143
25.399999999999999
144
1.0
145
0.0
146
1.0
147
0.09
 71
     0
 72
     0
 73
     1
 74
     1
 75
     0
 76
     0
 77
     0
 78
     0
170
     0
171
     2
172
     0
173
     0
174
     0
175
     0
176
     0
177
     0
178
     0
  0
ENDTAB
  0
ENDSEC
  0
SECTION
  2
BLOCKS
  0
BLOCK
  8
0
  2
$MODEL_SPACE
 70
     0
 10
0.0
 20
0.0
 30
0.0
  3
$MODEL_SPACE
  1

  0
ENDBLK
  5
59D4
  8
0
  0
BLOCK
 67
     1
  8
0
  2
$PAPER_SPACE
 70
     0
 10
0.0
 20
0.0
 30
0.0
  3
$PAPER_SPACE
  1

  0
ENDBLK
  5
59D0
 67
     1
  8
0
  0
ENDSEC
  0
SECTION
  2
ENTITIES
  0
LINE
  5
5616
  8
0
 10
225.80075144679861
 20
26.648991894251601
 30
0.0
 11
145.8007514467985
 21
26.648991894251601
 31
0.0
  0
LINE
  5
5617
  8
0
 10
225.80075144679861
 20
26.648991894251601
 30
0.0
 11
225.80075144679861
 21
35.493696562541118
 31
0.0
  0
LINE
  5
5618
  8
0
 10
219.30075144679861
 20
26.648991894251601
 30
0.0
 11
219.30075144679861
 21
23.648991894251591
 31
0.0
  0
LINE
  5
5619
  8
0
 10
219.30075144679861
 20
38.680495660786157
 30
0.0
 11
152.30075144679861
 21
38.680495660786157
 31
0.0
  0
LINE
  5
561A
  8
0
 10
213.30075144679861
 20
43.051520622851498
 30
0.0
 11
158.3007514467985
 21
43.051520622851498
 31
0.0
  0
LINE
  5
561B
  8
0
 10
206.65119449787429
 20
45.94773049251171
 30
0.0
 11
164.95030839572291
 21
45.94773049251171
 31
0.0
  0
LINE
  5
561C
  8
0
 10
199.80075144679861
 20
50.648991894251587
 30
0.0
 11
171.80075144679861
 21
50.648991894251587
 31
0.0
  0
LINE
  5
561D
  8
0
 10
219.30075144679861
 20
38.680495660786157
 30
0.0
 11
219.30075144679861
 21
39.521882741533553
 31
0.0
  0
LINE
  5
561E
  8
0
 10
219.30075144679861
 20
38.680495660786157
 30
0.0
 11
225.1597305261075
 21
36.427042168744272
 31
0.0
  0
LINE
  5
561F
  8
0
 10
213.30075144679861
 20
43.051520622851498
 30
0.0
 11
218.736227629187
 21
40.422082994017728
 31
0.0
  0
LINE
  5
5620
  8
0
 10
206.65119449787429
 20
45.94773049251171
 30
0.0
 11
212.52885056026659
 21
44.570742073125537
 31
0.0
  0
LINE
  5
5621
  8
0
 10
200.80075144679861
 20
49.051520622851498
 30
0.0
 11
170.8007514467985
 21
49.051520622851498
 31
0.0
  0
LINE
  5
5622
  8
0
 10
200.80075144679861
 20
49.051520622851498
 30
0.0
 11
205.9609149965886
 21
47.370660338060361
 31
0.0
  0
LINE
  5
5623
  8
0
 10
200.80075144679861
 20
49.648991894251587
 30
0.0
 11
200.80075144679861
 21
49.051520622851498
 31
0.0
  0
LINE
  5
5624
  8
0
 10
213.30075144679861
 20
43.051520622851498
 30
0.0
 11
213.30075144679861
 21
43.597104155604242
 31
0.0
  0
LINE
  5
5625
  8
0
 10
206.65119449787429
 20
45.94773049251171
 30
0.0
 11
206.65119449787429
 21
46.419832691914038
 31
0.0
  0
ARC
  5
5626
  8
0
 10
199.80075144679861
 20
49.648991894251587
 30
0.0
 40
1.0
 50
359.99999999999892
 51
90.0
  0
ARC
  5
5627
  8
0
 10
205.65119449787429
 20
46.419832691914038
 30
0.0
 40
1.0
 50
0.0
 51
71.957612741641853
  0
ARC
  5
5628
  8
0
 10
212.30075144679861
 20
43.597104155604242
 30
0.0
 40
1.0
 50
0.0
 51
76.814815600247044
  0
ARC
  5
5629
  8
0
 10
224.80075144679861
 20
35.493696562541118
 30
0.0
 40
1.0
 50
0.0
 51
68.962488974578235
  0
ARC
  5
562A
  8
0
 10
218.30075144679861
 20
39.521882741533553
 30
0.0
 40
1.0
 50
0.0
 51
64.18440202834887
  0
LINE
  5
562B
  8
0
 10
219.30075144679861
 20
23.648991894251591
 30
0.0
 11
152.30075144679861
 21
23.648991894251591
 31
0.0
  0
ARC
  5
562C
  8
0
 10
153.30075144679861
 20
39.521882741533553
 30
0.0
 40
1.0
 50
115.8155979716511
 51
180.0
  0
ARC
  5
562D
  8
0
 10
146.80075144679861
 20
35.493696562541118
 30
0.0
 40
1.0
 50
111.03751102542169
 51
180.0
  0
ARC
  5
562E
  8
0
 10
159.30075144679861
 20
43.597104155604242
 30
0.0
 40
1.0
 50
103.1851843997529
 51
180.0
  0
ARC
  5
562F
  8
0
 10
165.95030839572291
 20
46.419832691914038
 30
0.0
 40
1.0
 50
108.0423872583581
 51
180.0
  0
ARC
  5
5630
  8
0
 10
171.80075144679861
 20
49.648991894251587
 30
0.0
 40
1.0
 50
90.0
 51
180.00000000000099
  0
LINE
  5
5631
  8
0
 10
164.95030839572291
 20
45.94773049251171
 30
0.0
 11
164.95030839572291
 21
46.419832691914038
 31
0.0
  0
LINE
  5
5632
  8
0
 10
158.3007514467985
 20
43.051520622851498
 30
0.0
 11
158.3007514467985
 21
43.597104155604242
 31
0.0
  0
LINE
  5
5633
  8
0
 10
170.8007514467985
 20
49.648991894251587
 30
0.0
 11
170.8007514467985
 21
49.051520622851498
 31
0.0
  0
LINE
  5
5634
  8
0
 10
170.8007514467985
 20
49.051520622851498
 30
0.0
 11
165.64058789700849
 21
47.370660338060361
 31
0.0
  0
LINE
  5
5635
  8
0
 10
164.95030839572291
 20
45.94773049251171
 30
0.0
 11
159.0726523333305
 21
44.570742073125537
 31
0.0
  0
LINE
  5
5636
  8
0
 10
158.3007514467985
 20
43.051520622851498
 30
0.0
 11
152.8652752644104
 21
40.422082994017728
 31
0.0
  0
LINE
  5
5637
  8
0
 10
152.30075144679861
 20
38.680495660786157
 30
0.0
 11
146.44177236748959
 21
36.427042168744272
 31
0.0
  0
LINE
  5
5638
  8
0
 10
152.30075144679861
 20
38.680495660786157
 30
0.0
 11
152.30075144679861
 21
39.521882741533553
 31
0.0
  0
LINE
  5
5639
  8
0
 10
145.8007514467985
 20
26.648991894251601
 30
0.0
 11
145.8007514467985
 21
35.493696562541118
 31
0.0
  0
LINE
  5
563A
  8
0
 10
152.30075144679861
 20
26.648991894251601
 30
0.0
 11
152.30075144679861
 21
23.648991894251591
 31
0.0
  0
CIRCLE
  5
563C
  8
0
 10
63.522964543612943
 20
298.54180143694111
 30
0.0
 40
14.99999999999997
  0
CIRCLE
  5
563D
  8
0
 10
63.522964543612943
 20
298.54180143694111
 30
0.0
 40
20.850443051075668
  0
CIRCLE
  5
563E
  8
0
 10
63.522964543612943
 20
298.54180143694111
 30
0.0
 40
27.5
  0
CIRCLE
  5
563F
  8
0
 10
63.522964543612943
 20
298.54180143694111
 30
0.0
 40
33.5
  0
LINE
  5
5640
  8
0
 10
30.02296454361295
 20
26.648991894251601
 30
0.0
 11
30.02296454361295
 21
23.648991894251591
 31
0.0
  0
LINE
  5
5641
  8
0
 10
23.52296454361294
 20
26.648991894251601
 30
0.0
 11
23.52296454361294
 21
35.493696562541118
 31
0.0
  0
LINE
  5
5642
  8
0
 10
30.02296454361295
 20
38.680495660786157
 30
0.0
 11
30.02296454361295
 21
39.521882741533553
 31
0.0
  0
LINE
  5
5643
  8
0
 10
30.02296454361295
 20
38.680495660786157
 30
0.0
 11
24.163985464304002
 21
36.427042168744272
 31
0.0
  0
LINE
  5
5644
  8
0
 10
36.02296454361295
 20
43.051520622851498
 30
0.0
 11
30.587488361224811
 21
40.422082994017728
 31
0.0
  0
LINE
  5
5645
  8
0
 10
42.672521492537271
 20
45.94773049251171
 30
0.0
 11
36.794865430144903
 21
44.570742073125537
 31
0.0
  0
LINE
  5
5646
  8
0
 10
48.522964543612943
 20
49.051520622851498
 30
0.0
 11
43.362800993822923
 21
47.370660338060361
 31
0.0
  0
LINE
  5
5647
  8
0
 10
48.522964543612943
 20
49.648991894251587
 30
0.0
 11
48.522964543612943
 21
49.051520622851498
 31
0.0
  0
LINE
  5
5648
  8
0
 10
36.02296454361295
 20
43.051520622851498
 30
0.0
 11
36.02296454361295
 21
43.597104155604242
 31
0.0
  0
LINE
  5
5649
  8
0
 10
42.672521492537271
 20
45.94773049251171
 30
0.0
 11
42.672521492537271
 21
46.419832691914038
 31
0.0
  0
ARC
  5
564A
  8
0
 10
49.522964543612929
 20
49.648991894251587
 30
0.0
 40
1.0
 50
90.0
 51
180.00000000000099
  0
ARC
  5
564B
  8
0
 10
43.672521492537271
 20
46.419832691914038
 30
0.0
 40
1.0
 50
108.0423872583581
 51
180.0
  0
ARC
  5
564C
  8
0
 10
37.02296454361295
 20
43.597104155604242
 30
0.0
 40
1.0
 50
103.1851843997529
 51
180.0
  0
ARC
  5
564D
  8
0
 10
24.52296454361294
 20
35.493696562541118
 30
0.0
 40
1.0
 50
111.03751102542169
 51
180.0
  0
ARC
  5
564E
  8
0
 10
31.02296454361294
 20
39.521882741533553
 30
0.0
 40
1.0
 50
115.8155979716511
 51
180.0
  0
LINE
  5
564F
  8
0
 10
97.022964543612943
 20
23.648991894251591
 30
0.0
 11
30.02296454361295
 21
23.648991894251591
 31
0.0
  0
ARC
  5
5650
  8
0
 10
96.022964543612943
 20
39.521882741533553
 30
0.0
 40
1.0
 50
0.0
 51
64.18440202834887
  0
ARC
  5
5651
  8
0
 10
102.5229645436129
 20
35.493696562541118
 30
0.0
 40
1.0
 50
0.0
 51
68.962488974578235
  0
ARC
  5
5652
  8
0
 10
90.022964543612943
 20
43.597104155604242
 30
0.0
 40
1.0
 50
0.0
 51
76.814815600247044
  0
ARC
  5
5653
  8
0
 10
83.373407594688601
 20
46.419832691914038
 30
0.0
 40
1.0
 50
0.0
 51
71.957612741641853
  0
ARC
  5
5654
  8
0
 10
77.522964543612943
 20
49.648991894251587
 30
0.0
 40
1.0
 50
359.99999999999892
 51
90.0
  0
LINE
  5
5655
  8
0
 10
84.373407594688601
 20
45.94773049251171
 30
0.0
 11
84.373407594688601
 21
46.419832691914038
 31
0.0
  0
LINE
  5
5656
  8
0
 10
91.022964543612943
 20
43.051520622851498
 30
0.0
 11
91.022964543612943
 21
43.597104155604242
 31
0.0
  0
LINE
  5
5657
  8
0
 10
78.522964543612943
 20
49.648991894251587
 30
0.0
 11
78.522964543612943
 21
49.051520622851498
 31
0.0
  0
LINE
  5
5658
  8
0
 10
78.522964543612943
 20
49.051520622851498
 30
0.0
 11
83.683128093402928
 21
47.370660338060361
 31
0.0
  0
LINE
  5
5659
  8
0
 10
78.522964543612943
 20
49.051520622851498
 30
0.0
 11
48.522964543612943
 21
49.051520622851498
 31
0.0
  0
LINE
  5
565A
  8
0
 10
84.373407594688601
 20
45.94773049251171
 30
0.0
 11
90.251063657080948
 21
44.570742073125537
 31
0.0
  0
LINE
  5
565B
  8
0
 10
91.022964543612943
 20
43.051520622851498
 30
0.0
 11
96.458440726001072
 21
40.422082994017728
 31
0.0
  0
LINE
  5
565C
  8
0
 10
97.022964543612943
 20
38.680495660786157
 30
0.0
 11
102.8819436229219
 21
36.427042168744272
 31
0.0
  0
LINE
  5
565D
  8
0
 10
97.022964543612943
 20
38.680495660786157
 30
0.0
 11
97.022964543612943
 21
39.521882741533553
 31
0.0
  0
LINE
  5
565E
  8
0
 10
77.522964543612943
 20
50.648991894251587
 30
0.0
 11
49.522964543612929
 21
50.648991894251587
 31
0.0
  0
LINE
  5
565F
  8
0
 10
84.373407594688601
 20
45.94773049251171
 30
0.0
 11
42.672521492537271
 21
45.94773049251171
 31
0.0
  0
LINE
  5
5660
  8
0
 10
91.022964543612943
 20
43.051520622851498
 30
0.0
 11
36.02296454361295
 21
43.051520622851498
 31
0.0
  0
LINE
  5
5661
  8
0
 10
97.022964543612943
 20
38.680495660786157
 30
0.0
 11
30.02296454361295
 21
38.680495660786157
 31
0.0
  0
LINE
  5
5662
  8
1
 10
109.23725025789869
 20
298.54180143694111
 30
0.0
 11
17.80867882932716
 21
298.54180143694111
 31
0.0
  0
LINE
  5
5663
  8
1
 10
63.522964543612943
 20
344.25608715122689
 30
0.0
 11
63.522964543612943
 21
252.82751572265531
 31
0.0
  0
CIRCLE
  5
5664
  8
0
 10
63.522964543612943
 20
298.54180143694111
 30
0.0
 40
40.00000000000005
  0
LINE
  5
5665
  8
0
 10
97.022964543612943
 20
26.648991894251601
 30
0.0
 11
97.022964543612943
 21
23.648991894251591
 31
0.0
  0
LINE
  5
5666
  8
0
 10
103.5229645436129
 20
26.648991894251601
 30
0.0
 11
103.5229645436129
 21
35.493696562541118
 31
0.0
  0
LINE
  5
5667
  8
0
 10
103.5229645436129
 20
26.648991894251601
 30
0.0
 11
23.52296454361294
 21
26.648991894251601
 31
0.0
  0
LINE
  5
5677
  8
0
 10
58.022964543612261
 20
50.648991894251587
 30
0.0
 11
58.022964543612261
 21
53.648991894251367
 31
0.0
  0
LINE
  5
5678
  8
0
 10
69.022964543612261
 20
50.648991894251587
 30
0.0
 11
69.022964543612261
 21
53.648991894251367
 31
0.0
  0
ARC
  5
5679
  8
0
 10
63.522964543612723
 20
76.22078866610012
 30
0.0
 40
22.928203228139491
 50
72.412046224314139
 51
107.5879537756858
  0
ARC
  5
567A
  8
0
 10
53.130659698199217
 20
93.015017298518814
 30
0.0
 40
6.1339745957208196
 50
55.61575252878869
 51
115.6157525301451
  0
LINE
  5
567B
  8
0
 10
49.666558083039718
 20
98.077195124410508
 30
0.0
 11
52.022964543720491
 21
99.437667028804753
 31
0.0
  0
LINE
  5
567C
  8
0
 10
49.666558083039718
 20
87.79813893321078
 30
0.0
 11
52.022964543720491
 21
86.437667028816591
 31
0.0
  0
ARC
  5
567D
  8
0
 10
53.130659698199217
 20
92.860316759102261
 30
0.0
 40
6.1339745957208196
 50
244.3842474698549
 51
304.38424747121132
  0
ARC
  5
567E
  8
0
 10
63.522964543612723
 20
109.6545453915209
 30
0.0
 40
22.928203228139491
 50
252.41204622431411
 51
287.58795377568589
  0
LINE
  5
567F
  8
0
 10
49.666558083061538
 20
98.077195124410508
 30
0.0
 11
49.666558083061538
 21
87.798138933198075
 31
0.0
  0
LINE
  5
5680
  8
0
 10
56.594761313337358
 20
98.077195124410508
 30
0.0
 11
56.594761313337358
 21
87.79813893321078
 31
0.0
  0
LINE
  5
5681
  8
0
 10
70.451167773888045
 20
98.077195124410508
 30
0.0
 11
70.451167773888045
 21
87.79813893321078
 31
0.0
  0
LINE
  5
5682
  8
0
 10
77.379371004163872
 20
98.077195124410508
 30
0.0
 11
77.379371004163872
 21
87.798138933198075
 31
0.0
  0
ARC
  5
5683
  8
0
 10
73.915269389026207
 20
92.860316759102261
 30
0.0
 40
6.1339745957208196
 50
235.6157525287887
 51
295.61575253014507
  0
LINE
  5
5684
  8
0
 10
77.379371004185685
 20
87.79813893321078
 30
0.0
 11
75.022964543504941
 21
86.437667028816591
 31
0.0
  0
LINE
  5
5685
  8
0
 10
77.379371004185685
 20
98.077195124410508
 30
0.0
 11
75.022964543504941
 21
99.437667028804753
 31
0.0
  0
ARC
  5
5686
  8
0
 10
73.915269389026207
 20
93.015017298518814
 30
0.0
 40
6.1339745957208196
 50
64.384247469854884
 51
124.3842474712113
  0
LINE
  5
5687
  8
0
 10
52.022964543612702
 20
99.437667028804753
 30
0.0
 11
75.022964543504941
 21
99.437667028804753
 31
0.0
  0
LINE
  5
5688
  8
0
 10
75.022964543504941
 20
86.437667028816591
 30
0.0
 11
52.022964543720491
 21
86.437667028816591
 31
0.0
  0
LINE
  5
5689
  8
3
 10
70.440464543612961
 20
61.648991894251601
 30
0.0
 11
71.522964543612943
 21
59.774046895058291
 31
0.0
  0
LINE
  5
568A
  8
3
 10
56.605464543612911
 20
61.648991894251601
 30
0.0
 11
55.522964543612929
 21
59.774046895058291
 31
0.0
  0
LINE
  5
568B
  8
0
 10
55.522964543612929
 20
61.648991894251601
 30
0.0
 11
71.522964543612943
 21
61.648991894251601
 31
0.0
  0
LINE
  5
568C
  8
0
 10
71.522964543612943
 20
225.64899189425159
 30
0.0
 11
55.522964543612929
 21
225.64899189425159
 31
0.0
  0
LINE
  5
568D
  8
0
 10
69.522964543612943
 20
227.64899189425159
 30
0.0
 11
71.522964543612943
 21
225.64899189425159
 31
0.0
  0
LINE
  5
568E
  8
0
 10
55.522964543612929
 20
225.64899189425159
 30
0.0
 11
57.522964543612929
 21
227.64899189425159
 31
0.0
  0
LINE
  5
568F
  8
0
 10
55.522964543612929
 20
59.513144772088921
 30
0.0
 11
55.522964543612929
 21
86.437667028816591
 31
0.0
  0
LINE
  5
5690
  8
3
 10
56.605464543612911
 20
61.648991894251601
 30
0.0
 11
56.605464543612911
 21
86.437667028816335
 31
0.0
  0
LINE
  5
5691
  8
3
 10
70.440464543612961
 20
61.648991894251601
 30
0.0
 11
70.440464543612961
 21
86.437667028816335
 31
0.0
  0
LINE
  5
5692
  8
0
 10
71.522964543612943
 20
59.513144772088253
 30
0.0
 11
71.522964543612943
 21
86.437667028816335
 31
0.0
  0
LINE
  5
5693
  8
0
 10
57.522964543612929
 20
227.64899189425159
 30
0.0
 11
69.522964543612943
 21
227.64899189425159
 31
0.0
  0
ARC
  5
5694
  8
0
 10
67.522964543612488
 20
47.959726759461311
 30
0.0
 40
11.55341801262729
 50
69.743841999608421
 51
110.25615800039159
  0
LINE
  5
5695
  8
0
 10
71.522964543612474
 20
59.513144772088708
 30
0.0
 11
71.287670425964279
 21
59.648991894251353
 31
0.0
  0
LINE
  5
5696
  8
0
 10
71.522964543612474
 20
53.784839016413571
 30
0.0
 11
71.287670425964279
 21
53.64899189425067
 31
0.0
  0
ARC
  5
5697
  8
0
 10
67.522964543612488
 20
65.33825702904096
 30
0.0
 40
11.55341801262729
 50
249.74384199960841
 51
290.25615800039151
  0
LINE
  5
5698
  8
0
 10
71.522964543612474
 20
59.513144772088708
 30
0.0
 11
71.522964543612474
 21
53.784839016413571
 31
0.0
  0
LINE
  5
5699
  8
0
 10
63.522964543612488
 20
58.798613592272652
 30
0.0
 11
63.522964543612488
 21
54.499370196229393
 31
0.0
  0
LINE
  5
569A
  8
0
 10
55.522964543612488
 20
59.513144772088708
 30
0.0
 11
55.522964543612488
 21
53.784839016413571
 31
0.0
  0
LINE
  5
569B
  8
0
 10
55.522964543612488
 20
53.784839016413571
 30
0.0
 11
55.75825866126047
 21
53.64899189425067
 31
0.0
  0
ARC
  5
569C
  8
0
 10
59.522964543612488
 20
65.33825702904096
 30
0.0
 40
11.55341801262729
 50
249.74384199960841
 51
290.25615800039151
  0
LINE
  5
569D
  8
0
 10
55.522964543612488
 20
59.513144772088708
 30
0.0
 11
55.75825866126047
 21
59.648991894251353
 31
0.0
  0
ARC
  5
569E
  8
0
 10
59.522964543612488
 20
47.959726759461311
 30
0.0
 40
11.55341801262729
 50
69.743841999608421
 51
110.25615800039159
  0
LINE
  5
569F
  8
0
 10
71.287670425964279
 20
59.648991894251353
 30
0.0
 11
55.75825866126047
 21
59.648991894251353
 31
0.0
  0
LINE
  5
56A0
  8
0
 10
55.758258661259319
 20
53.648991894251367
 30
0.0
 11
71.28767042596543
 21
53.648991894251367
 31
0.0
  0
LINE
  5
56A1
  8
3
 10
70.440464543612961
 20
99.437667028804753
 30
0.0
 11
70.440464543612961
 21
226.7314918942516
 31
0.0
  0
LINE
  5
56A2
  8
0
 10
71.522964543612943
 20
99.437667028804753
 30
0.0
 11
71.522964543612943
 21
225.64899189425159
 31
0.0
  0
LINE
  5
56A3
  8
3
 10
56.605464543612911
 20
99.437667028804753
 30
0.0
 11
56.605464543612911
 21
226.7314918942516
 31
0.0
  0
LINE
  5
56A4
  8
0
 10
55.522964543612929
 20
99.437667028804753
 30
0.0
 11
55.522964543612929
 21
225.64899189425159
 31
0.0
  0
LINE
  5
56A5
  8
0
 10
191.30075144679861
 20
50.648991894251822
 30
0.0
 11
191.30075144679861
 21
53.648991894251587
 31
0.0
  0
LINE
  5
56A6
  8
0
 10
180.3007514467985
 20
50.648991894251822
 30
0.0
 11
180.3007514467985
 21
53.648991894251587
 31
0.0
  0
ARC
  5
56A7
  8
0
 10
191.8007514467993
 20
81.818864876912343
 30
0.0
 40
17.330127017333279
 50
69.743841997644466
 51
110.25615800235551
  0
LINE
  5
56A8
  8
0
 10
197.80075144681439
 20
99.148991894245682
 30
0.0
 11
197.30075144679941
 21
99.437667028849091
 31
0.0
  0
LINE
  5
56A9
  8
0
 10
197.80075144681439
 20
86.726342163387486
 30
0.0
 11
197.30075144679941
 21
86.437667028784077
 31
0.0
  0
ARC
  5
56AA
  8
0
 10
191.8007514467993
 20
104.0564691807208
 30
0.0
 40
17.330127017333279
 50
249.74384199764449
 51
290.25615800235551
  0
LINE
  5
56AB
  8
0
 10
197.80075144681439
 20
99.148991894245682
 30
0.0
 11
197.80075144679941
 21
86.726342163378831
 31
0.0
  0
LINE
  5
56AC
  8
0
 10
185.80075144679941
 20
87.798138933216705
 30
0.0
 11
185.80075144679941
 21
98.077195124416448
 31
0.0
  0
LINE
  5
56AD
  8
0
 10
173.8007514467844
 20
99.148991894245682
 30
0.0
 11
173.80075144679941
 21
86.726342163378831
 31
0.0
  0
ARC
  5
56AE
  8
0
 10
179.80075144679941
 20
104.0564691807208
 30
0.0
 40
17.330127017333279
 50
249.74384199764449
 51
290.25615800235551
  0
LINE
  5
56AF
  8
0
 10
173.8007514467844
 20
86.726342163387486
 30
0.0
 11
174.30075144679941
 21
86.437667028784077
 31
0.0
  0
LINE
  5
56B0
  8
0
 10
173.8007514467844
 20
99.148991894245682
 30
0.0
 11
174.30075144679941
 21
99.437667028849091
 31
0.0
  0
ARC
  5
56B1
  8
0
 10
179.80075144679941
 20
81.818864876912343
 30
0.0
 40
17.330127017333279
 50
69.743841997644466
 51
110.25615800235551
  0
LINE
  5
56B2
  8
0
 10
174.30075144673299
 20
99.437667028810651
 30
0.0
 11
197.30075144679941
 21
99.437667028849091
 31
0.0
  0
LINE
  5
56B3
  8
0
 10
197.30075144679941
 20
86.437667028784077
 30
0.0
 11
174.30075144673299
 21
86.437667028822517
 31
0.0
  0
ARC
  5
56B4
  8
0
 10
178.8725482165236
 20
55.423828374608092
 30
0.0
 40
4.0893163974808306
 50
55.61575253199382
 51
115.6157525321144
  0
ARC
  5
56B5
  8
0
 10
185.8007514467985
 20
44.227675951884969
 30
0.0
 40
15.28546882020385
 50
72.412046226030142
 51
107.5879537739699
  0
LINE
  5
56B6
  8
0
 10
176.56314713976499
 20
58.798613592273341
 30
0.0
 11
178.0360455644458
 21
59.648991894252042
 31
0.0
  0
LINE
  5
56B7
  8
0
 10
176.56314713976499
 20
54.499370196230288
 30
0.0
 11
178.0360455644458
 21
53.648991894251587
 31
0.0
  0
ARC
  5
56B8
  8
0
 10
178.8725482165236
 20
57.874155413895551
 30
0.0
 40
4.0893163974808306
 50
244.3842474678855
 51
304.38424746800621
  0
ARC
  5
56B9
  8
0
 10
185.8007514467985
 20
69.07030783661844
 30
0.0
 40
15.28546882020385
 50
252.4120462260301
 51
287.58795377396979
  0
LINE
  5
56BA
  8
0
 10
176.56314713976499
 20
58.798613592273341
 30
0.0
 11
176.56314713976499
 21
54.499370196230288
 31
0.0
  0
LINE
  5
56BB
  8
0
 10
181.18194929328081
 20
58.798613592273341
 30
0.0
 11
181.1819492932818
 21
54.499370196229847
 31
0.0
  0
LINE
  5
56BC
  8
0
 10
190.4195536003171
 20
58.798613592273341
 30
0.0
 11
190.41955360031611
 21
54.499370196229847
 31
0.0
  0
LINE
  5
56BD
  8
0
 10
195.03835575383289
 20
58.798613592273341
 30
0.0
 11
195.03835575383289
 21
54.499370196230288
 31
0.0
  0
ARC
  5
56BE
  8
0
 10
192.7289546770744
 20
57.874155413895551
 30
0.0
 40
4.0893163974808306
 50
235.61575253199379
 51
295.61575253211453
  0
LINE
  5
56BF
  8
0
 10
195.03835575383289
 20
54.499370196230288
 30
0.0
 11
193.5654573291522
 21
53.648991894251587
 31
0.0
  0
LINE
  5
56C0
  8
0
 10
195.03835575383289
 20
58.798613592273341
 30
0.0
 11
193.5654573291522
 21
59.648991894252042
 31
0.0
  0
ARC
  5
56C1
  8
0
 10
192.7289546770744
 20
55.423828374608092
 30
0.0
 40
4.0893163974808306
 50
64.384247467885544
 51
124.38424746800619
  0
LINE
  5
56C2
  8
0
 10
178.0360455644458
 20
59.648991894252042
 30
0.0
 11
193.5654573291522
 21
59.648991894251587
 31
0.0
  0
LINE
  5
56C3
  8
0
 10
193.5654573291522
 20
53.648991894251822
 30
0.0
 11
178.0360455644458
 21
53.648991894251822
 31
0.0
  0
LINE
  5
56C4
  8
0
 10
179.80075144679861
 20
227.64899189425171
 30
0.0
 11
191.8007514467985
 21
227.64899189425159
 31
0.0
  0
LINE
  5
56C5
  8
0
 10
193.80075144679861
 20
59.513144772088708
 30
0.0
 11
193.80075144679861
 21
86.437667028789733
 31
0.0
  0
LINE
  5
56C6
  8
3
 10
192.7182514467986
 20
61.648991894251822
 30
0.0
 11
192.7182514467986
 21
86.437667028791793
 31
0.0
  0
LINE
  5
56C7
  8
0
 10
191.8007514467985
 20
227.64899189425159
 30
0.0
 11
193.80075144679861
 21
225.64899189425159
 31
0.0
  0
LINE
  5
56C8
  8
0
 10
193.80075144679861
 20
225.64899189425159
 30
0.0
 11
177.80075144679861
 21
225.64899189425171
 31
0.0
  0
LINE
  5
56C9
  8
0
 10
177.80075144679861
 20
61.648991894251822
 30
0.0
 11
193.80075144679861
 21
61.648991894251822
 31
0.0
  0
LINE
  5
56CA
  8
3
 10
192.7182514467986
 20
61.648991894251822
 30
0.0
 11
193.80075144679861
 21
59.774046895058532
 31
0.0
  0
LINE
  5
56CB
  8
3
 10
178.88325144679851
 20
61.648991894251822
 30
0.0
 11
178.88325144679851
 21
86.437667028814758
 31
0.0
  0
LINE
  5
56CC
  8
0
 10
177.80075144679861
 20
59.513144772089149
 30
0.0
 11
177.80075144679861
 21
86.437667028816591
 31
0.0
  0
LINE
  5
56CD
  8
0
 10
177.80075144679861
 20
225.64899189425199
 30
0.0
 11
179.80075144679861
 21
227.64899189425171
 31
0.0
  0
LINE
  5
56CE
  8
3
 10
178.88325144679851
 20
61.648991894251822
 30
0.0
 11
177.80075144679861
 21
59.774046895058532
 31
0.0
  0
LINE
  5
56CF
  8
3
 10
178.88325144679851
 20
99.437667028818396
 30
0.0
 11
178.88325144679851
 21
226.7314918942518
 31
0.0
  0
LINE
  5
56D0
  8
0
 10
177.80075144679861
 20
99.437667028816563
 30
0.0
 11
177.80075144679861
 21
225.64899189425199
 31
0.0
  0
LINE
  5
56D1
  8
0
 10
193.80075144679861
 20
99.437667028843407
 30
0.0
 11
193.80075144679861
 21
225.64899189425159
 31
0.0
  0
LINE
  5
56D2
  8
3
 10
192.7182514467986
 20
99.437667028841588
 30
0.0
 11
192.7182514467986
 21
226.7314918942516
 31
0.0
  0
LINE
  5
56D3
  8
0
 10
70.451167773888287
 20
310.54180143694111
 30
0.0
 11
56.594761313337571
 21
310.54180143694111
 31
0.0
  0
LINE
  5
56D4
  8
0
 10
56.594761313337571
 20
310.54180143694111
 30
0.0
 11
49.666558083061773
 21
298.54180143694111
 31
0.0
  0
LINE
  5
56D5
  8
0
 10
49.666558083061773
 20
298.54180143694111
 30
0.0
 11
56.594761313337571
 21
286.54180143694111
 31
0.0
  0
LINE
  5
56D6
  8
0
 10
56.594761313337571
 20
286.54180143694111
 30
0.0
 11
70.451167773888287
 21
286.54180143694111
 31
0.0
  0
LINE
  5
56D7
  8
0
 10
70.451167773888287
 20
286.54180143694111
 30
0.0
 11
77.379371004164113
 21
298.54180143694111
 31
0.0
  0
LINE
  5
56D8
  8
0
 10
77.379371004164113
 20
298.54180143694111
 30
0.0
 11
70.451167773888287
 21
310.54180143694111
 31
0.0
  0
CIRCLE
  5
56D9
  8
0
 10
63.522964543612943
 20
298.54180143694111
 30
0.0
 40
11.5
  0
CIRCLE
  5
56DA
  8
0
 10
63.522964543612943
 20
298.54180143694111
 30
0.0
 40
8.0
  0
CIRCLE
  5
56DB
  8
3
 10
63.522964543612943
 20
298.54180143694111
 30
0.0
 40
6.9175000000000004
  0
LINE
  5
56DC
  8
1
 10
63.522964543612943
 20
232.64899189425159
 30
0.0
 11
63.522964543612943
 21
18.648991894251591
 31
0.0
  0
LINE
  5
56DD
  8
1
 10
185.80075144679861
 20
18.648991894251591
 30
0.0
 11
185.8007514468008
 21
230.64899189425159
 31
0.0
  0
TEXT
  5
5A54
  8
0
 62
     3
 10
0.0
 20
0.0
 30
0.0
 40
10.0
  1
LVAR80S16D
  7
STANDARD1
  0
ENDSEC
  0
EOF
