  0
SECTION
  2
HEADER
  9
$ACADVER
  1
AC1009
  9
$INSBASE
 10
0.0
 20
0.0
 30
0.0
  9
$EXTMIN
 10
0.0
 20
-2.960436562073669
 30
0.0
  9
$EXTMAX
 10
354.62106351507742
 20
385.87760358853092
 30
0.0
  9
$LIMMIN
 10
0.0
 20
0.0
  9
$LIMMAX
 10
375.0
 20
270.0
  9
$ORTHOMODE
 70
     1
  9
$REGENMODE
 70
     1
  9
$FILLMODE
 70
     1
  9
$QTEXTMODE
 70
     0
  9
$MIRRTEXT
 70
     0
  9
$DRAGMODE
 70
     2
  9
$LTSCALE
 40
6.0
  9
$OSMODE
 70
  3071
  9
$ATTMODE
 70
     1
  9
$TEXTSIZE
 40
0.2
  9
$TRACEWID
 40
0.05
  9
$TEXTSTYLE
  7
STANDARD
  9
$CLAYER
  8
0
  9
$CELTYPE
  6
BYLAYER
  9
$CECOLOR
 62
   256
  9
$DIMSCALE
 40
1.0
  9
$DIMASZ
 40
3.0
  9
$DIMEXO
 40
1.0
  9
$DIMDLI
 40
6.0
  9
$DIMRND
 40
0.0
  9
$DIMDLE
 40
0.0
  9
$DIMEXE
 40
1.0
  9
$DIMTP
 40
495.0
  9
$DIMTM
 40
0.0
  9
$DIMTXT
 40
3.0
  9
$DIMCEN
 40
0.0
  9
$DIMTSZ
 40
0.0
  9
$DIMTOL
 70
     0
  9
$DIMLIM
 70
     0
  9
$DIMTIH
 70
     0
  9
$DIMTOH
 70
     0
  9
$DIMSE1
 70
     0
  9
$DIMSE2
 70
     0
  9
$DIMTAD
 70
     1
  9
$DIMZIN
 70
     0
  9
$DIMBLK
  1

  9
$DIMASO
 70
     0
  9
$DIMSHO
 70
     0
  9
$DIMPOST
  1

  9
$DIMAPOST
  1

  9
$DIMALT
 70
     0
  9
$DIMALTD
 70
     2
  9
$DIMALTF
 40
25.399999999999999
  9
$DIMLFAC
 40
1.0
  9
$DIMTOFL
 70
     1
  9
$DIMTVP
 40
0.0
  9
$DIMTIX
 70
     1
  9
$DIMSOXD
 70
     0
  9
$DIMSAH
 70
     0
  9
$DIMBLK1
  1

  9
$DIMBLK2
  1

  9
$DIMSTYLE
  2
STANDARD
  9
$DIMCLRD
 70
     0
  9
$DIMCLRE
 70
     0
  9
$DIMCLRT
 70
     4
  9
$DIMTFAC
 40
1.0
  9
$DIMGAP
 40
1.0
  9
$LUNITS
 70
     2
  9
$LUPREC
 70
     4
  9
$SKETCHINC
 40
0.1
  9
$FILLETRAD
 40
2.0
  9
$AUNITS
 70
     0
  9
$AUPREC
 70
     0
  9
$MENU
  1
C:\R13\WIN\SUPPORT\ACAD-I
  9
$ELEVATION
 40
0.0
  9
$PELEVATION
 40
0.0
  9
$THICKNESS
 40
0.0
  9
$LIMCHECK
 70
     0
  9
$BLIPMODE
 70
     0
  9
$CHAMFERA
 40
0.0
  9
$CHAMFERB
 40
0.0
  9
$SKPOLY
 70
     0
  9
$TDCREATE
 40
2451962.6092199888
  9
$TDUPDATE
 40
2456597.6148731369
  9
$TDINDWG
 40
0.0201402315
  9
$TDUSRTIMER
 40
2456556.199537477
  9
$USRTIMER
 70
     1
  9
$ANGBASE
 50
0.0
  9
$ANGDIR
 70
     0
  9
$PDMODE
 70
     0
  9
$PDSIZE
 40
0.0
  9
$PLINEWID
 40
0.0
  9
$COORDS
 70
     1
  9
$SPLFRAME
 70
     0
  9
$SPLINETYPE
 70
     6
  9
$SPLINESEGS
 70
     8
  9
$ATTDIA
 70
     0
  9
$ATTREQ
 70
     1
  9
$HANDLING
 70
     1
  9
$HANDSEED
  5
9189
  9
$SURFTAB1
 70
     6
  9
$SURFTAB2
 70
     6
  9
$SURFTYPE
 70
     6
  9
$SURFU
 70
     6
  9
$SURFV
 70
     6
  9
$UCSNAME
  2

  9
$UCSORG
 10
0.0
 20
0.0
 30
0.0
  9
$UCSXDIR
 10
1.0
 20
0.0
 30
0.0
  9
$UCSYDIR
 10
0.0
 20
1.0
 30
0.0
  9
$PUCSNAME
  2

  9
$PUCSORG
 10
0.0
 20
0.0
 30
0.0
  9
$PUCSXDIR
 10
1.0
 20
0.0
 30
0.0
  9
$PUCSYDIR
 10
0.0
 20
1.0
 30
0.0
  9
$USERI1
 70
     4
  9
$USERI2
 70
     1
  9
$USERI3
 70
     0
  9
$USERI4
 70
     0
  9
$USERI5
 70
     0
  9
$USERR1
 40
1.0
  9
$USERR2
 40
3.0
  9
$USERR3
 40
3.0
  9
$USERR4
 40
3.0
  9
$USERR5
 40
10.0
  9
$WORLDVIEW
 70
     1
  9
$SHADEDGE
 70
     3
  9
$SHADEDIF
 70
    70
  9
$TILEMODE
 70
     1
  9
$MAXACTVP
 70
    16
  9
$PLIMCHECK
 70
     0
  9
$PEXTMIN
 10
1.0000000000000000E+020
 20
1.0000000000000000E+020
 30
1.0000000000000000E+020
  9
$PEXTMAX
 10
-1.0000000000000000E+020
 20
-1.0000000000000000E+020
 30
-1.0000000000000000E+020
  9
$PLIMMIN
 10
0.0
 20
0.0
  9
$PLIMMAX
 10
12.0
 20
9.0
  9
$UNITMODE
 70
     0
  9
$VISRETAIN
 70
     0
  9
$PLINEGEN
 70
     0
  9
$PSLTSCALE
 70
     0
  0
ENDSEC
  0
SECTION
  2
TABLES
  0
TABLE
  2
VPORT
 70
     1
  0
VPORT
  2
*ACTIVE
 70
     0
 10
0.0
 20
0.0
 11
1.0
 21
1.0
 12
187.49427839065231
 22
192.29391427185561
 13
0.0
 23
0.0
 14
10.0
 24
10.0
 15
10.0
 25
10.0
 16
0.0
 26
0.0
 36
1.0
 17
0.0
 27
0.0
 37
0.0
 40
395.02810714413158
 41
2.304913294797688
 42
50.0
 43
0.0
 44
0.0
 50
0.0
 51
0.0
 71
    16
 72
   100
 73
     1
 74
     0
 75
     0
 76
     0
 77
     0
 78
     0
  0
ENDTAB
  0
TABLE
  2
LTYPE
 70
     3
  0
LTYPE
  2
CONTINUOUS
 70
     0
  3
Solid Line
 72
    65
 73
     0
 40
0.0
  0
LTYPE
  2
PHANTOM2
 70
     0
  3
___ _ _ ___ _ _ ___ _ _ ___ _ _
 72
    65
 73
     6
 40
1.25
 49
0.625
 49
-0.125
 49
0.125
 49
-0.125
 49
0.125
 49
-0.125
  0
LTYPE
  2
CENTER
 70
     0
  3
____ _ ____ _ ____ _ ____ _ ____ _ ____ _ ____
 72
    65
 73
     4
 40
2.0
 49
1.25
 49
-0.25
 49
0.25
 49
-0.25
  0
ENDTAB
  0
TABLE
  2
LAYER
 70
     4
  0
LAYER
  2
0
 70
     0
 62
     7
  6
CONTINUOUS
  0
LAYER
  2
1
 70
     0
 62
     1
  6
CENTER
  0
LAYER
  2
3
 70
     0
 62
     3
  6
CONTINUOUS
  0
LAYER
  2
DEFPOINTS
 70
     0
 62
     7
  6
CONTINUOUS
  0
ENDTAB
  0
TABLE
  2
STYLE
 70
     3
  0
STYLE
  2
STANDARD
 70
     0
 40
0.0
 41
1.0
 50
0.0
 71
     0
 42
0.2
  3
SIMPLEX
  4
BIGFONT
  0
STYLE
  2
ANNOTATIVE
 70
     0
 40
0.0
 41
1.0
 50
0.0
 71
     0
 42
0.2
  3
txt
  4

  0
STYLE
  2
STANDARD1
 70
     0
 40
0.0
 41
1.0
 50
0.0
 71
     0
 42
3.0
  3
txt
  4

  0
ENDTAB
  0
TABLE
  2
VIEW
 70
     0
  0
ENDTAB
  0
TABLE
  2
UCS
 70
     0
  0
ENDTAB
  0
TABLE
  2
APPID
 70
    29
  0
APPID
  2
ACAD
 70
     0
  0
APPID
  2
ACADANNOTATIVE
 70
     0
  0
APPID
  2
GENIUS_GENOREF_13
 70
     0
  0
APPID
  2
GENIUS_GENOENT_13
 70
     0
  0
APPID
  2
GENIUS_GENBH_13
 70
     0
  0
APPID
  2
GENIUS_GENOBJ_13
 70
     0
  0
APPID
  2
GENIUS_GENODEF_13
 70
     0
  0
APPID
  2
GENIUS_GENOLIS_13
 70
     0
  0
APPID
  2
GENIUS_GENOBJ-NBEHI-BHF_13
 70
     0
  0
APPID
  2
GENIUS_GENOBJ-NBEHI-BHB_13
 70
     0
  0
APPID
  2
GENIUS_GENOBJ-F-PART_13
 70
     0
  0
APPID
  2
GENIUS_GEFSTDP_13
 70
     0
  0
APPID
  2
GENIUS_GENOBJ-N-RSSYM_13
 70
     0
  0
APPID
  2
GENIUS_GENSYMENT_13
 70
     0
  0
APPID
  2
GENIUS_GENOBJ-N-TIT_13
 70
     0
  0
APPID
  2
GENIUS_GENTITLE_13
 70
     0
  0
APPID
  2
GENIUS_GENZVEED_13
 70
     0
  0
APPID
  2
GENIUS_GENOBJ-N-LEADER_13
 70
     0
  0
APPID
  2
GENIUS_GENOBJ-N-FIL_13
 70
     0
  0
APPID
  2
GENIUS_GENOBJ-N-SEC_13
 70
     0
  0
APPID
  2
GENIUS_GENOBJ-N-CRS_13
 70
     0
  0
APPID
  2
GENIUS_GENOBJ-N-ZOO_13
 70
     0
  0
APPID
  2
GENIUS_GENZOO_13
 70
     0
  0
APPID
  2
GENIUS_GENOBJ-F-TOL_13
 70
     0
  0
APPID
  2
GENIUS_GENFIL_13
 70
     0
  0
APPID
  2
GENIUS_GENOBJ-N-CHA_13
 70
     0
  0
APPID
  2
ACAD_EXEMPT_FROM_CAD_STANDARDS
 70
     0
  0
APPID
  2
ACAD_MLEADERVER
 70
     0
  0
APPID
  2
ACAD_NAV_VCDISPLAY
 70
     0
  0
ENDTAB
  0
TABLE
  2
DIMSTYLE
 70
     2
  0
DIMSTYLE
  2
STANDARD
 70
     0
  3

  4

  5

  6

  7

 40
1.0
 41
0.18
 42
0.0625
 43
0.38
 44
0.18
 45
0.0
 46
0.0
 47
0.0
 48
0.0
140
0.18
141
0.09
142
0.0
143
25.399999999999999
144
1.0
145
0.0
146
1.0
147
0.09
 71
     0
 72
     0
 73
     1
 74
     1
 75
     0
 76
     0
 77
     0
 78
     0
170
     0
171
     2
172
     0
173
     0
174
     0
175
     0
176
     0
177
     0
178
     0
  0
DIMSTYLE
  2
ANNOTATIVE
 70
     0
  3

  4

  5

  6

  7

 40
1.0
 41
0.18
 42
0.0625
 43
0.38
 44
0.18
 45
0.0
 46
0.0
 47
0.0
 48
0.0
140
0.18
141
0.09
142
0.0
143
25.399999999999999
144
1.0
145
0.0
146
1.0
147
0.09
 71
     0
 72
     0
 73
     1
 74
     1
 75
     0
 76
     0
 77
     0
 78
     0
170
     0
171
     2
172
     0
173
     0
174
     0
175
     0
176
     0
177
     0
178
     0
  0
ENDTAB
  0
ENDSEC
  0
SECTION
  2
BLOCKS
  0
BLOCK
  8
0
  2
$MODEL_SPACE
 70
     0
 10
0.0
 20
0.0
 30
0.0
  3
$MODEL_SPACE
  1

  0
ENDBLK
  5
90AB
  8
0
  0
BLOCK
 67
     1
  8
0
  2
$PAPER_SPACE
 70
     0
 10
0.0
 20
0.0
 30
0.0
  3
$PAPER_SPACE
  1

  0
ENDBLK
  5
90A7
 67
     1
  8
0
  0
ENDSEC
  0
SECTION
  2
ENTITIES
  0
ARC
  5
8CF4
  8
0
 10
304.62106351507441
 20
57.450451633834327
 30
0.0
 40
12.25
 50
31.112020819731949
 51
46.120122896761757
  0
LINE
  5
8CF5
  8
0
 10
304.62106351507782
 20
123.15176435590951
 30
0.0
 11
304.62106351507782
 21
110.40860654940499
 31
0.0
  0
LINE
  5
8CF6
  8
0
 10
319.12106351507782
 20
108.78018545265989
 30
0.0
 11
290.12106351507941
 21
108.78018545265989
 31
0.0
  0
LINE
  5
8CF7
  8
0
 10
290.12106351507941
 20
124.78018545265959
 30
0.0
 11
319.12106351507617
 21
124.78018545265959
 31
0.0
  0
ARC
  5
8CF8
  8
0
 10
297.12106351507782
 20
102.8288515443957
 30
0.0
 40
21.662658773668529
 50
69.743841999600676
 51
110.2561580003993
  0
LINE
  5
8CF9
  8
0
 10
290.12106351507941
 20
124.78018545265959
 30
0.0
 11
289.62106351507799
 21
124.4915103180641
 31
0.0
  0
LINE
  5
8CFA
  8
0
 10
290.12106351507941
 20
108.78018545265989
 30
0.0
 11
289.62106351507799
 21
109.0688605872554
 31
0.0
  0
ARC
  5
8CFB
  8
0
 10
297.12106351507782
 20
130.73151936092361
 30
0.0
 40
21.662658773668529
 50
249.7438419996007
 51
290.25615800039941
  0
LINE
  5
8CFC
  8
0
 10
289.62106351507782
 20
124.4915103180641
 30
0.0
 11
289.62106351507799
 21
109.0688605872554
 31
0.0
  0
LINE
  5
8CFD
  8
0
 10
319.62106351507782
 20
124.4915103180641
 30
0.0
 11
319.62106351507771
 21
109.0688605872554
 31
0.0
  0
ARC
  5
8CFE
  8
0
 10
312.12106351507782
 20
130.73151936092361
 30
0.0
 40
21.662658773668529
 50
249.7438419996007
 51
290.25615800039941
  0
LINE
  5
8CFF
  8
0
 10
319.12106351507617
 20
108.78018545265989
 30
0.0
 11
319.62106351507771
 21
109.0688605872554
 31
0.0
  0
LINE
  5
8D00
  8
0
 10
319.12106351507617
 20
124.78018545265959
 30
0.0
 11
319.62106351507771
 21
124.4915103180641
 31
0.0
  0
ARC
  5
8D01
  8
0
 10
312.12106351507782
 20
102.8288515443957
 30
0.0
 40
21.662658773668529
 50
69.743841999600676
 51
110.2561580003993
  0
LINE
  5
8D02
  8
3
 10
295.97406351507738
 20
124.78018545265959
 30
0.0
 11
295.97406351507738
 21
239.63318545263681
 31
0.0
  0
LINE
  5
8D03
  8
0
 10
294.62106351507731
 20
124.78018545265959
 30
0.0
 11
294.62106351507731
 21
238.2801854526368
 31
0.0
  0
LINE
  5
8D04
  8
0
 10
314.62106351507742
 20
124.7801854526593
 30
0.0
 11
314.62106351507742
 21
238.2801854526364
 31
0.0
  0
LINE
  5
8D05
  8
3
 10
313.2680635150773
 20
124.78018545265959
 30
0.0
 11
313.2680635150773
 21
239.63318545263661
 31
0.0
  0
ARC
  5
8D06
  8
0
 10
304.62106351507441
 20
57.450451633834327
 30
0.0
 40
12.25
 50
133.8798771030489
 51
148.88797918026799
  0
LINE
  5
8D07
  8
0
 10
313.12106351507742
 20
66.280185452584462
 30
0.0
 11
296.12106351507742
 21
66.280185452612642
 31
0.0
  0
LINE
  5
8D08
  8
0
 10
313.12106351507742
 20
72.780185452598545
 30
0.0
 11
313.12106351507742
 21
66.280185452584462
 31
0.0
  0
LINE
  5
8D09
  8
0
 10
296.12106351507742
 20
72.780185452598545
 30
0.0
 11
296.12106351507742
 21
66.280185452612869
 31
0.0
  0
LINE
  5
8D0A
  8
0
 10
297.12106351507742
 20
240.78018545263669
 30
0.0
 11
312.12106351507742
 21
240.78018545263649
 31
0.0
  0
LINE
  5
8D0B
  8
0
 10
314.62106351507742
 20
82.780185452636744
 30
0.0
 11
314.62106351507742
 21
108.7801854526592
 31
0.0
  0
LINE
  5
8D0C
  8
3
 10
313.2680635150773
 20
86.780185452636729
 30
0.0
 11
313.2680635150773
 21
108.7801854526592
 31
0.0
  0
LINE
  5
8D0D
  8
3
 10
295.97406351507738
 20
86.780185452636729
 30
0.0
 11
295.97406351507738
 21
108.780185452659
 31
0.0
  0
LINE
  5
8D0E
  8
0
 10
294.62106351507731
 20
82.780185452636744
 30
0.0
 11
294.62106351507731
 21
108.7801854526592
 31
0.0
  0
LINE
  5
8D0F
  8
0
 10
294.62106351507731
 20
238.2801854526368
 30
0.0
 11
297.12106351507742
 21
240.78018545263669
 31
0.0
  0
LINE
  5
8D10
  8
0
 10
312.12106351507742
 20
240.78018545263649
 30
0.0
 11
314.62106351507742
 21
238.2801854526364
 31
0.0
  0
LINE
  5
8D11
  8
0
 10
294.62106351507731
 20
238.2801854526368
 30
0.0
 11
314.62106351507742
 21
238.2801854526364
 31
0.0
  0
LINE
  5
8D12
  8
0
 10
314.62106351507742
 20
86.780185452636729
 30
0.0
 11
294.62106351507731
 21
86.780185452636729
 31
0.0
  0
LINE
  5
8D13
  8
3
 10
295.97406351507738
 20
86.780185452636729
 30
0.0
 11
294.62106351507731
 21
84.436720709995868
 31
0.0
  0
LINE
  5
8D14
  8
3
 10
313.2680635150773
 20
86.780185452636729
 30
0.0
 11
314.62106351507742
 21
84.436720709995868
 31
0.0
  0
ARC
  5
8D15
  8
0
 10
304.62106351513131
 20
59.563307090013531
 30
0.0
 40
22.928203228139491
 50
72.412046224314381
 51
107.58795377568561
  0
ARC
  5
8D16
  8
0
 10
294.22875866971782
 20
76.357535722432203
 30
0.0
 40
6.1339745957208196
 50
55.615752528792818
 51
115.61575253015479
  0
LINE
  5
8D17
  8
0
 10
290.7646570545582
 20
81.419713548323685
 30
0.0
 11
293.12106351523897
 21
82.780185452717888
 31
0.0
  0
LINE
  5
8D18
  8
0
 10
290.7646570545582
 20
74.140657357112104
 30
0.0
 11
293.12106351523897
 21
72.780185452717902
 31
0.0
  0
ARC
  5
8D19
  8
0
 10
294.22875866971782
 20
79.2028351830036
 30
0.0
 40
6.1339745957208196
 50
244.38424746984521
 51
304.38424747120689
  0
ARC
  5
8D1A
  8
0
 10
304.62106351513131
 20
95.997063815422308
 30
0.0
 40
22.928203228139491
 50
252.41204622431439
 51
287.58795377568561
  0
LINE
  5
8D1B
  8
0
 10
290.76465705458008
 20
81.419713548323685
 30
0.0
 11
290.76465705458008
 21
74.140657357099371
 31
0.0
  0
LINE
  5
8D1C
  8
0
 10
297.6928602848559
 20
81.419713548323685
 30
0.0
 11
297.6928602848559
 21
74.140657357112104
 31
0.0
  0
LINE
  5
8D1D
  8
0
 10
311.54926674540661
 20
81.419713548323685
 30
0.0
 11
311.54926674540661
 21
74.140657357112104
 31
0.0
  0
LINE
  5
8D1E
  8
0
 10
318.47746997568242
 20
81.419713548323685
 30
0.0
 11
318.47746997568242
 21
74.140657357099371
 31
0.0
  0
ARC
  5
8D1F
  8
0
 10
315.0133683605448
 20
79.2028351830036
 30
0.0
 40
6.1339745957208196
 50
235.61575252879311
 51
295.61575253015491
  0
LINE
  5
8D20
  8
0
 10
318.4774699757042
 20
74.140657357112104
 30
0.0
 11
316.12106351502348
 21
72.780185452717902
 31
0.0
  0
LINE
  5
8D21
  8
0
 10
318.4774699757042
 20
81.419713548323685
 30
0.0
 11
316.12106351502348
 21
82.780185452717888
 31
0.0
  0
ARC
  5
8D22
  8
0
 10
315.0133683605448
 20
76.357535722432203
 30
0.0
 40
6.1339745957208196
 50
64.384247469845135
 51
124.3842474712072
  0
LINE
  5
8D23
  8
0
 10
293.1210635151312
 20
82.780185452717888
 30
0.0
 11
316.12106351502348
 21
82.780185452717888
 31
0.0
  0
LINE
  5
8D24
  8
0
 10
316.12106351502348
 20
72.780185452717902
 30
0.0
 11
293.12106351523897
 21
72.780185452717902
 31
0.0
  0
LINE
  5
8D25
  8
0
 10
354.62106351507742
 20
39.780185452636687
 30
0.0
 11
254.6210635150774
 21
39.780185452636751
 31
0.0
  0
LINE
  5
8D26
  8
0
 10
354.62106351507742
 20
39.780185452636751
 30
0.0
 11
354.62106351507742
 21
48.960381549918132
 31
0.0
  0
LINE
  5
8D28
  8
0
 10
321.12106351507742
 20
63.780185452636672
 30
0.0
 11
288.12106351507742
 21
63.780185452636751
 31
0.0
  0
LINE
  5
8D2A
  8
DEFPOINTS
 10
322.12106351507742
 20
62.780185452636687
 30
0.0
 11
322.12106351507742
 21
62.780185452636729
 31
0.0
  0
LINE
  5
8D2B
  8
DEFPOINTS
 10
328.62106351507742
 20
60.041610798118569
 30
0.0
 11
328.62106351507742
 21
59.780185452636729
 31
0.0
  0
LINE
  5
8D2C
  8
DEFPOINTS
 10
334.62106351507742
 20
57.059426232580599
 30
0.0
 11
334.62106351507742
 21
56.78018545263668
 31
0.0
  0
LINE
  5
8D2D
  8
DEFPOINTS
 10
341.62106351507742
 20
54.025884039882357
 30
0.0
 11
341.62106351507742
 21
53.780185452636751
 31
0.0
  0
LINE
  5
8D2E
  8
DEFPOINTS
 10
349.62106351507742
 20
50.99940904623228
 30
0.0
 11
349.62106351507742
 21
50.780185452636687
 31
0.0
  0
LINE
  5
8D2F
  8
DEFPOINTS
 10
322.12106351507742
 20
62.780185452636729
 30
0.0
 11
327.91514936391468
 21
60.997389806840488
 31
0.0
  0
LINE
  5
8D30
  8
DEFPOINTS
 10
328.62106351507742
 20
59.780185452636729
 30
0.0
 11
333.93729128109408
 21
58.00810953063106
 31
0.0
  0
LINE
  5
8D31
  8
DEFPOINTS
 10
334.62106351507742
 20
56.78018545263668
 30
0.0
 11
340.89578464297477
 21
54.987407987523127
 31
0.0
  0
LINE
  5
8D32
  8
DEFPOINTS
 10
341.62106351507742
 20
53.780185452636751
 30
0.0
 11
348.86359914011359
 21
51.96955154637763
 31
0.0
  0
ARC
  5
8D33
  8
DEFPOINTS
 10
348.62106351507742
 20
50.99940904623228
 30
0.0
 40
1.0
 50
0.0
 51
75.963756532073305
  0
ARC
  5
8D34
  8
DEFPOINTS
 10
340.62106351507742
 20
54.025884039882357
 30
0.0
 40
1.0
 50
0.0
 51
74.054604099077096
  0
ARC
  5
8D35
  8
DEFPOINTS
 10
333.62106351507742
 20
57.059426232580599
 30
0.0
 40
1.0
 50
0.0
 51
71.565051177077706
  0
ARC
  5
8D36
  8
DEFPOINTS
 10
327.62106351507742
 20
60.041610798118569
 30
0.0
 40
1.0
 50
0.0
 51
72.897271030947451
  0
ARC
  5
8D37
  8
DEFPOINTS
 10
321.12106351507742
 20
62.780185452636687
 30
0.0
 40
1.0
 50
0.0
 51
89.999999999999986
  0
LINE
  5
8D38
  8
DEFPOINTS
 10
349.62106351507742
 20
50.780185452636687
 30
0.0
 11
353.81717965021562
 21
49.940962225609077
 31
0.0
  0
ARC
  5
8D39
  8
DEFPOINTS
 10
353.62106351507742
 20
48.960381549918132
 30
0.0
 40
1.0
 50
359.9999999999996
 51
78.690067525979941
  0
ARC
  5
8D3A
  8
DEFPOINTS
 10
255.6210635150774
 20
48.960381549918132
 30
0.0
 40
1.0
 50
101.30993247402
 51
180.0000000000004
  0
LINE
  5
8D3B
  8
DEFPOINTS
 10
259.62106351507742
 20
50.780185452636687
 30
0.0
 11
255.42494737993911
 21
49.940962225609077
 31
0.0
  0
ARC
  5
8D3C
  8
DEFPOINTS
 10
288.12106351507742
 20
62.780185452636687
 30
0.0
 40
1.0
 50
90.000000000000057
 51
180.0
  0
ARC
  5
8D3D
  8
DEFPOINTS
 10
281.62106351507742
 20
60.041610798118569
 30
0.0
 40
1.0
 50
107.10272896905251
 51
180.0
  0
ARC
  5
8D3E
  8
DEFPOINTS
 10
275.62106351507742
 20
57.059426232580599
 30
0.0
 40
1.0
 50
108.43494882292219
 51
180.0
  0
ARC
  5
8D3F
  8
DEFPOINTS
 10
268.62106351507742
 20
54.025884039882357
 30
0.0
 40
1.0
 50
105.9453959009229
 51
180.0
  0
ARC
  5
8D40
  8
DEFPOINTS
 10
260.62106351507742
 20
50.99940904623228
 30
0.0
 40
1.0
 50
104.0362434679267
 51
180.0
  0
LINE
  5
8D41
  8
DEFPOINTS
 10
267.62106351507731
 20
53.780185452636751
 30
0.0
 11
260.37852789004091
 21
51.96955154637763
 31
0.0
  0
LINE
  5
8D42
  8
DEFPOINTS
 10
274.62106351507742
 20
56.78018545263668
 30
0.0
 11
268.3463423871799
 21
54.987407987523127
 31
0.0
  0
LINE
  5
8D43
  8
DEFPOINTS
 10
280.62106351507742
 20
59.780185452636729
 30
0.0
 11
275.30483574906037
 21
58.00810953063106
 31
0.0
  0
LINE
  5
8D44
  8
DEFPOINTS
 10
287.12106351507742
 20
62.780185452636729
 30
0.0
 11
281.32697766623983
 21
60.997389806840488
 31
0.0
  0
LINE
  5
8D45
  8
DEFPOINTS
 10
259.62106351507742
 20
50.99940904623228
 30
0.0
 11
259.62106351507742
 21
50.780185452636687
 31
0.0
  0
LINE
  5
8D46
  8
DEFPOINTS
 10
267.62106351507731
 20
54.025884039882357
 30
0.0
 11
267.62106351507731
 21
53.780185452636751
 31
0.0
  0
LINE
  5
8D47
  8
DEFPOINTS
 10
274.62106351507742
 20
57.059426232580599
 30
0.0
 11
274.62106351507742
 21
56.78018545263668
 31
0.0
  0
LINE
  5
8D48
  8
DEFPOINTS
 10
280.62106351507742
 20
60.041610798118569
 30
0.0
 11
280.62106351507742
 21
59.780185452636729
 31
0.0
  0
LINE
  5
8D49
  8
DEFPOINTS
 10
287.12106351507742
 20
62.780185452636687
 30
0.0
 11
287.12106351507742
 21
62.780185452636729
 31
0.0
  0
LINE
  5
8D4B
  8
0
 10
254.6210635150774
 20
39.780185452636751
 30
0.0
 11
254.6210635150774
 21
48.960381549918132
 31
0.0
  0
LINE
  5
8D4C
  8
DEFPOINTS
 10
259.62106351507742
 20
50.780185452636687
 30
0.0
 11
349.62106351507742
 21
50.780185452636687
 31
0.0
  0
LINE
  5
8D4D
  8
DEFPOINTS
 10
267.62106351507731
 20
53.780185452636751
 30
0.0
 11
341.62106351507742
 21
53.780185452636751
 31
0.0
  0
LINE
  5
8D4E
  8
DEFPOINTS
 10
274.62106351507742
 20
56.78018545263668
 30
0.0
 11
334.62106351507742
 21
56.78018545263668
 31
0.0
  0
LINE
  5
8D4F
  8
DEFPOINTS
 10
328.62106351507742
 20
59.780185452636729
 30
0.0
 11
280.62106351507742
 21
59.780185452636729
 31
0.0
  0
LINE
  5
8D50
  8
DEFPOINTS
 10
287.12106351507742
 20
62.780185452636729
 30
0.0
 11
322.12106351507742
 21
62.780185452636729
 31
0.0
  0
LINE
  5
8D51
  8
0
 10
313.12106351507742
 20
72.780185452598658
 30
0.0
 11
313.12106351507742
 21
66.280185452584561
 31
0.0
  0
LINE
  5
8D52
  8
0
 10
296.12106351507742
 20
72.780185452598658
 30
0.0
 11
296.12106351507742
 21
66.280185452612969
 31
0.0
  0
LINE
  5
8D53
  8
1
 10
304.62106351507742
 20
250.7801854526368
 30
0.0
 11
304.62106351507708
 21
29.780185452636719
 31
0.0
  0
LINE
  5
8D54
  8
1
 10
129.19789261903179
 20
250.7801854526368
 30
0.0
 11
129.19789261903151
 21
29.780185452636719
 31
0.0
  0
LINE
  5
8D55
  8
1
 10
189.19789261903171
 20
325.87760358853092
 30
0.0
 11
69.197892619031791
 21
325.87760358853092
 31
0.0
  0
LINE
  5
8D56
  8
1
 10
129.19789261903179
 20
385.87760358853092
 30
0.0
 11
129.19789261903179
 21
265.8776035885308
 31
0.0
  0
ARC
  5
8D57
  8
0
 10
129.19789261902881
 20
57.450451633834419
 30
0.0
 40
12.25
 50
31.1120208197311
 51
46.120122896763512
  0
LINE
  5
8D58
  8
3
 10
137.8448926190317
 20
86.780185452636857
 30
0.0
 11
139.19789261903179
 21
84.436720709995939
 31
0.0
  0
LINE
  5
8D59
  8
3
 10
120.5508926190318
 20
86.780185452636857
 30
0.0
 11
119.1978926190318
 21
84.436720709995939
 31
0.0
  0
LINE
  5
8D5A
  8
0
 10
139.19789261903179
 20
86.780185452636857
 30
0.0
 11
119.1978926190318
 21
86.780185452636857
 31
0.0
  0
LINE
  5
8D5B
  8
0
 10
119.1978926190318
 20
238.2801854526368
 30
0.0
 11
139.19789261903179
 21
238.2801854526366
 31
0.0
  0
LINE
  5
8D5C
  8
0
 10
136.69789261903179
 20
240.7801854526366
 30
0.0
 11
139.19789261903179
 21
238.2801854526366
 31
0.0
  0
LINE
  5
8D5D
  8
0
 10
119.1978926190318
 20
238.2801854526368
 30
0.0
 11
121.6978926190318
 21
240.7801854526368
 31
0.0
  0
LINE
  5
8D5E
  8
0
 10
119.1978926190318
 20
82.780185452636843
 30
0.0
 11
119.1978926190318
 21
108.7801854526593
 31
0.0
  0
LINE
  5
8D5F
  8
3
 10
120.5508926190318
 20
86.780185452636857
 30
0.0
 11
120.5508926190318
 21
108.7801854526591
 31
0.0
  0
LINE
  5
8D60
  8
3
 10
137.8448926190317
 20
86.780185452636857
 30
0.0
 11
137.8448926190317
 21
108.7801854526593
 31
0.0
  0
LINE
  5
8D61
  8
0
 10
139.19789261903179
 20
82.780185452636843
 30
0.0
 11
139.19789261903179
 21
108.7801854526593
 31
0.0
  0
LINE
  5
8D62
  8
0
 10
121.6978926190318
 20
240.7801854526368
 30
0.0
 11
136.69789261903179
 21
240.7801854526366
 31
0.0
  0
ARC
  5
8D63
  8
0
 10
135.19789261906499
 20
65.16138330071945
 30
0.0
 40
17.330127017333279
 50
69.743841997634831
 51
110.2561580023651
  0
LINE
  5
8D64
  8
0
 10
141.19789261907999
 20
82.491510318052775
 30
0.0
 11
140.69789261906499
 21
82.780185452656184
 31
0.0
  0
LINE
  5
8D65
  8
0
 10
141.19789261907999
 20
73.068860587182726
 30
0.0
 11
140.69789261906499
 21
72.780185452579332
 31
0.0
  0
ARC
  5
8D66
  8
0
 10
135.19789261906499
 20
90.398987604516066
 30
0.0
 40
17.330127017333279
 50
249.7438419976348
 51
290.25615800236528
  0
LINE
  5
8D67
  8
0
 10
141.19789261907999
 20
82.491510318052775
 30
0.0
 11
141.19789261906499
 21
73.068860587174086
 31
0.0
  0
LINE
  5
8D68
  8
0
 10
129.19789261906499
 20
74.14065735701196
 30
0.0
 11
129.19789261906499
 21
81.419713548223541
 31
0.0
  0
LINE
  5
8D69
  8
0
 10
117.19789261904999
 20
82.491510318052775
 30
0.0
 11
117.197892619065
 21
73.068860587174086
 31
0.0
  0
ARC
  5
8D6A
  8
0
 10
123.197892619065
 20
90.398987604516066
 30
0.0
 40
17.330127017333279
 50
249.7438419976348
 51
290.25615800236528
  0
LINE
  5
8D6B
  8
0
 10
117.19789261904999
 20
73.068860587182726
 30
0.0
 11
117.697892619065
 21
72.780185452579332
 31
0.0
  0
LINE
  5
8D6C
  8
0
 10
117.19789261904999
 20
82.491510318052775
 30
0.0
 11
117.697892619065
 21
82.780185452656184
 31
0.0
  0
ARC
  5
8D6D
  8
0
 10
123.197892619065
 20
65.16138330071945
 30
0.0
 40
17.330127017333279
 50
69.743841997634831
 51
110.2561580023651
  0
LINE
  5
8D6E
  8
0
 10
117.69789261899859
 20
82.780185452617786
 30
0.0
 11
140.69789261906499
 21
82.780185452656184
 31
0.0
  0
LINE
  5
8D6F
  8
0
 10
140.69789261906499
 20
72.780185452579332
 30
0.0
 11
117.69789261899859
 21
72.780185452617772
 31
0.0
  0
LINE
  5
8D70
  8
0
 10
120.6978926190318
 20
72.780185452598658
 30
0.0
 11
120.6978926190318
 21
66.280185452612969
 31
0.0
  0
LINE
  5
8D71
  8
0
 10
137.69789261903179
 20
72.780185452598658
 30
0.0
 11
137.69789261903179
 21
66.280185452584561
 31
0.0
  0
LINE
  5
8D72
  8
0
 10
137.69789261903179
 20
66.280185452584561
 30
0.0
 11
120.6978926190318
 21
66.280185452612756
 31
0.0
  0
ARC
  5
8D73
  8
0
 10
129.19789261902881
 20
57.450451633834419
 30
0.0
 40
12.25
 50
133.8798771030483
 51
148.8879791802685
  0
LINE
  5
8D74
  8
0
 10
143.6978926190325
 20
108.78018545265959
 30
0.0
 11
114.697892619032
 21
108.7801854526593
 31
0.0
  0
LINE
  5
8D75
  8
0
 10
114.697892619032
 20
124.78018545265979
 30
0.0
 11
143.6978926190327
 21
124.7801854526594
 31
0.0
  0
LINE
  5
8D76
  8
0
 10
143.69789261903199
 20
124.78018545265979
 30
0.0
 11
146.51840069472061
 21
123.15176435590961
 31
0.0
  0
ARC
  5
8D77
  8
0
 10
142.1882736757982
 20
116.8240420727886
 30
0.0
 40
7.6674682452751766
 50
64.384247470460195
 51
124.3842474680055
  0
ARC
  5
8D78
  8
0
 10
142.1882736757982
 20
116.8240420727886
 30
0.0
 40
7.6674682452751766
 50
55.61575253199446
 51
55.61575253199446
  0
ARC
  5
8D79
  8
0
 10
142.1882736757982
 20
116.7363288325306
 30
0.0
 40
7.6674682452751766
 50
304.38424746800558
 51
304.38424746800558
  0
ARC
  5
8D7A
  8
0
 10
142.1882736757982
 20
116.7363288325306
 30
0.0
 40
7.6674682452751766
 50
235.6157525319945
 51
295.6157525295398
  0
LINE
  5
8D7B
  8
0
 10
143.69789261903199
 20
108.7801854526593
 30
0.0
 11
146.51840069472061
 21
110.4086065494097
 31
0.0
  0
LINE
  5
8D7C
  8
0
 10
146.51840069472041
 20
123.15176435590961
 30
0.0
 11
146.51840069500409
 21
110.40860654957341
 31
0.0
  0
LINE
  5
8D7D
  8
0
 10
137.85814665687619
 20
110.4086065494331
 30
0.0
 11
137.85814665672231
 21
123.15176435590961
 31
0.0
  0
ARC
  5
8D7E
  8
0
 10
129.1978926191054
 20
137.72911462464791
 30
0.0
 40
28.660254037392811
 50
252.41204622557021
 51
287.5879537741294
  0
LINE
  5
8D7F
  8
0
 10
120.53763858118781
 20
110.4086065494331
 30
0.0
 11
120.5376385813417
 21
123.15176435590961
 31
0.0
  0
LINE
  5
8D80
  8
0
 10
111.8773845433436
 20
123.15176435590961
 30
0.0
 11
111.8773845430598
 21
110.40860654957341
 31
0.0
  0
LINE
  5
8D81
  8
0
 10
114.697892619032
 20
108.7801854526593
 30
0.0
 11
111.8773845433434
 21
110.4086065494097
 31
0.0
  0
ARC
  5
8D82
  8
0
 10
116.20751156226579
 20
116.7363288325306
 30
0.0
 40
7.6674682452751766
 50
244.3842474704602
 51
304.38424746800558
  0
ARC
  5
8D83
  8
0
 10
116.20751156226579
 20
116.7363288325306
 30
0.0
 40
7.6674682452751766
 50
235.6157525319945
 51
235.6157525319945
  0
ARC
  5
8D84
  8
0
 10
129.1978926191054
 20
95.831256280671155
 30
0.0
 40
28.660254037392811
 50
72.412046225870498
 51
107.58795377442981
  0
ARC
  5
8D85
  8
0
 10
116.20751156226579
 20
116.8240420727886
 30
0.0
 40
7.6674682452751766
 50
124.3842474680055
 51
124.3842474680055
  0
ARC
  5
8D86
  8
0
 10
116.20751156226579
 20
116.8240420727886
 30
0.0
 40
7.6674682452751766
 50
55.61575253199446
 51
115.6157525295398
  0
LINE
  5
8D87
  8
0
 10
114.697892619032
 20
124.78018545265979
 30
0.0
 11
111.8773845433434
 21
123.15176435590961
 31
0.0
  0
LINE
  5
8D88
  8
3
 10
137.8448926190317
 20
124.78018545265959
 30
0.0
 11
137.8448926190317
 21
239.63318545263661
 31
0.0
  0
LINE
  5
8D89
  8
0
 10
139.19789261903179
 20
124.7801854526594
 30
0.0
 11
139.19789261903179
 21
238.2801854526366
 31
0.0
  0
LINE
  5
8D8A
  8
0
 10
119.1978926190318
 20
124.78018545265959
 30
0.0
 11
119.1978926190318
 21
238.2801854526368
 31
0.0
  0
LINE
  5
8D8B
  8
3
 10
120.5508926190318
 20
124.78018545265959
 30
0.0
 11
120.5508926190318
 21
239.63318545263689
 31
0.0
  0
CIRCLE
  5
8D8C
  8
0
 10
129.19789261903179
 20
325.87760358853092
 30
0.0
 40
10.0
  0
CIRCLE
  5
8D8D
  8
3
 10
129.19789261903179
 20
325.87760358853092
 30
0.0
 40
8.6470000000000002
  0
LINE
  5
8D8E
  8
0
 10
120.53763858118759
 20
310.87760358853092
 30
0.0
 11
137.85814665687619
 21
310.87760358853092
 31
0.0
  0
LINE
  5
8D8F
  8
0
 10
137.85814665687619
 20
310.87760358853092
 30
0.0
 11
146.51840069472061
 21
325.87760358853092
 31
0.0
  0
LINE
  5
8D90
  8
0
 10
146.51840069472061
 20
325.87760358853092
 30
0.0
 11
137.85814665687599
 21
340.8776035885308
 31
0.0
  0
LINE
  5
8D91
  8
0
 10
137.85814665687599
 20
340.8776035885308
 30
0.0
 11
120.53763858118759
 21
340.8776035885308
 31
0.0
  0
LINE
  5
8D92
  8
0
 10
120.53763858118759
 20
340.8776035885308
 30
0.0
 11
111.8773845433431
 21
325.87760358853109
 31
0.0
  0
LINE
  5
8D93
  8
0
 10
111.8773845433431
 20
325.87760358853109
 30
0.0
 11
120.53763858118759
 21
310.87760358853092
 31
0.0
  0
CIRCLE
  5
8D94
  8
0
 10
129.19789261903179
 20
325.87760358853092
 30
0.0
 40
14.5
  0
CIRCLE
  5
8D95
  8
DEFPOINTS
 10
129.19789261903179
 20
325.87760358853092
 30
0.0
 40
17.499999999999979
  0
CIRCLE
  5
8D96
  8
DEFPOINTS
 10
129.19789261903179
 20
325.87760358853092
 30
0.0
 40
23.999999999999989
  0
CIRCLE
  5
8D97
  8
DEFPOINTS
 10
129.19789261903179
 20
325.87760358853092
 30
0.0
 40
30.0
  0
CIRCLE
  5
8D98
  8
DEFPOINTS
 10
129.19789261903179
 20
325.87760358853092
 30
0.0
 40
37.0
  0
CIRCLE
  5
8D99
  8
DEFPOINTS
 10
129.19789261903179
 20
325.87760358853092
 30
0.0
 40
45.0
  0
CIRCLE
  5
8D9A
  8
DEFPOINTS
 10
129.19789261903179
 20
325.87760358853092
 30
0.0
 40
50.0
  0
LINE
  5
8D9B
  8
DEFPOINTS
 10
111.6978926190318
 20
62.780185452636729
 30
0.0
 11
146.69789261903179
 21
62.780185452636729
 31
0.0
  0
LINE
  5
8D9C
  8
DEFPOINTS
 10
153.19789261903179
 20
59.780185452636729
 30
0.0
 11
105.1978926190318
 21
59.780185452636729
 31
0.0
  0
LINE
  5
8D9D
  8
DEFPOINTS
 10
99.197892619031791
 20
56.78018545263668
 30
0.0
 11
159.19789261903179
 21
56.78018545263668
 31
0.0
  0
LINE
  5
8D9E
  8
DEFPOINTS
 10
92.197892619031776
 20
53.780185452636751
 30
0.0
 11
166.19789261903179
 21
53.780185452636751
 31
0.0
  0
LINE
  5
8D9F
  8
DEFPOINTS
 10
84.197892619031805
 20
50.780185452636687
 30
0.0
 11
174.19789261903179
 21
50.780185452636687
 31
0.0
  0
LINE
  5
8DA0
  8
0
 10
79.197892619031805
 20
39.780185452636751
 30
0.0
 11
79.197892619031805
 21
48.960381549918132
 31
0.0
  0
LINE
  5
8DA2
  8
DEFPOINTS
 10
111.6978926190318
 20
62.780185452636687
 30
0.0
 11
111.6978926190318
 21
62.780185452636729
 31
0.0
  0
LINE
  5
8DA3
  8
DEFPOINTS
 10
105.1978926190318
 20
60.041610798118569
 30
0.0
 11
105.1978926190318
 21
59.780185452636729
 31
0.0
  0
LINE
  5
8DA4
  8
DEFPOINTS
 10
99.197892619031791
 20
57.059426232580599
 30
0.0
 11
99.197892619031791
 21
56.78018545263668
 31
0.0
  0
LINE
  5
8DA5
  8
DEFPOINTS
 10
92.197892619031776
 20
54.025884039882357
 30
0.0
 11
92.197892619031776
 21
53.780185452636751
 31
0.0
  0
LINE
  5
8DA6
  8
DEFPOINTS
 10
84.197892619031805
 20
50.99940904623228
 30
0.0
 11
84.197892619031805
 21
50.780185452636687
 31
0.0
  0
LINE
  5
8DA7
  8
DEFPOINTS
 10
111.6978926190318
 20
62.780185452636729
 30
0.0
 11
105.90380677019419
 21
60.997389806840488
 31
0.0
  0
LINE
  5
8DA8
  8
DEFPOINTS
 10
105.1978926190318
 20
59.780185452636729
 30
0.0
 11
99.881664853015081
 21
58.00810953063106
 31
0.0
  0
LINE
  5
8DA9
  8
DEFPOINTS
 10
99.197892619031791
 20
56.78018545263668
 30
0.0
 11
92.923171491134326
 21
54.987407987523127
 31
0.0
  0
LINE
  5
8DAA
  8
DEFPOINTS
 10
92.197892619031776
 20
53.780185452636751
 30
0.0
 11
84.955356993995338
 21
51.96955154637763
 31
0.0
  0
ARC
  5
8DAB
  8
DEFPOINTS
 10
85.197892619031805
 20
50.99940904623228
 30
0.0
 40
1.0
 50
104.0362434679267
 51
180.0
  0
ARC
  5
8DAC
  8
DEFPOINTS
 10
93.197892619031805
 20
54.025884039882357
 30
0.0
 40
1.0
 50
105.9453959009229
 51
180.0
  0
ARC
  5
8DAD
  8
DEFPOINTS
 10
100.1978926190318
 20
57.059426232580599
 30
0.0
 40
1.0
 50
108.43494882292219
 51
180.0
  0
ARC
  5
8DAE
  8
DEFPOINTS
 10
106.1978926190318
 20
60.041610798118569
 30
0.0
 40
1.0
 50
107.10272896905251
 51
180.0
  0
ARC
  5
8DAF
  8
DEFPOINTS
 10
112.6978926190318
 20
62.780185452636687
 30
0.0
 40
1.0
 50
90.000000000000057
 51
180.0
  0
LINE
  5
8DB0
  8
DEFPOINTS
 10
84.197892619031805
 20
50.780185452636687
 30
0.0
 11
80.001776483893551
 21
49.940962225609077
 31
0.0
  0
ARC
  5
8DB1
  8
DEFPOINTS
 10
80.197892619031805
 20
48.960381549918132
 30
0.0
 40
1.0
 50
101.30993247402
 51
180.0000000000004
  0
ARC
  5
8DB2
  8
DEFPOINTS
 10
178.19789261903179
 20
48.960381549918132
 30
0.0
 40
1.0
 50
359.9999999999996
 51
78.690067525979941
  0
LINE
  5
8DB3
  8
DEFPOINTS
 10
174.19789261903179
 20
50.780185452636687
 30
0.0
 11
178.39400875416999
 21
49.940962225609077
 31
0.0
  0
ARC
  5
8DB4
  8
DEFPOINTS
 10
145.69789261903179
 20
62.780185452636687
 30
0.0
 40
1.0
 50
0.0
 51
89.999999999999986
  0
ARC
  5
8DB5
  8
DEFPOINTS
 10
152.19789261903179
 20
60.041610798118569
 30
0.0
 40
1.0
 50
0.0
 51
72.897271030947451
  0
ARC
  5
8DB6
  8
DEFPOINTS
 10
158.19789261903179
 20
57.059426232580599
 30
0.0
 40
1.0
 50
0.0
 51
71.565051177077706
  0
ARC
  5
8DB7
  8
DEFPOINTS
 10
165.19789261903179
 20
54.025884039882357
 30
0.0
 40
1.0
 50
0.0
 51
74.054604099077096
  0
ARC
  5
8DB8
  8
DEFPOINTS
 10
173.19789261903179
 20
50.99940904623228
 30
0.0
 40
1.0
 50
0.0
 51
75.963756532073305
  0
LINE
  5
8DB9
  8
DEFPOINTS
 10
166.19789261903179
 20
53.780185452636751
 30
0.0
 11
173.44042824406819
 21
51.96955154637763
 31
0.0
  0
LINE
  5
8DBA
  8
DEFPOINTS
 10
159.19789261903179
 20
56.78018545263668
 30
0.0
 11
165.4726137469292
 21
54.987407987523127
 31
0.0
  0
LINE
  5
8DBB
  8
DEFPOINTS
 10
153.19789261903179
 20
59.780185452636729
 30
0.0
 11
158.5141203850485
 21
58.00810953063106
 31
0.0
  0
LINE
  5
8DBC
  8
DEFPOINTS
 10
146.69789261903179
 20
62.780185452636729
 30
0.0
 11
152.4919784678693
 21
60.997389806840488
 31
0.0
  0
LINE
  5
8DBD
  8
DEFPOINTS
 10
174.19789261903179
 20
50.99940904623228
 30
0.0
 11
174.19789261903179
 21
50.780185452636687
 31
0.0
  0
LINE
  5
8DBE
  8
DEFPOINTS
 10
166.19789261903179
 20
54.025884039882357
 30
0.0
 11
166.19789261903179
 21
53.780185452636751
 31
0.0
  0
LINE
  5
8DBF
  8
DEFPOINTS
 10
159.19789261903179
 20
57.059426232580599
 30
0.0
 11
159.19789261903179
 21
56.78018545263668
 31
0.0
  0
LINE
  5
8DC0
  8
DEFPOINTS
 10
153.19789261903179
 20
60.041610798118569
 30
0.0
 11
153.19789261903179
 21
59.780185452636729
 31
0.0
  0
LINE
  5
8DC1
  8
DEFPOINTS
 10
146.69789261903179
 20
62.780185452636687
 30
0.0
 11
146.69789261903179
 21
62.780185452636729
 31
0.0
  0
LINE
  5
8DC3
  8
0
 10
145.69789261903179
 20
63.780185452636672
 30
0.0
 11
112.6978926190318
 21
63.780185452636751
 31
0.0
  0
LINE
  5
8DC5
  8
0
 10
179.19789261903179
 20
39.780185452636751
 30
0.0
 11
179.19789261903179
 21
48.960381549918132
 31
0.0
  0
LINE
  5
8DC6
  8
0
 10
179.19789261903179
 20
39.780185452636687
 30
0.0
 11
79.197892619031805
 21
39.780185452636751
 31
0.0
  0
TEXT
  5
912C
  8
0
 62
     3
 10
0.0
 20
0.0
 30
0.0
 40
10.0
  1
LVE100L20C
  7
STANDARD1
  0
ENDSEC
  0
EOF
