  0
SECTION
  2
HEADER
  9
$ACADVER
  1
AC1009
  9
$INSBASE
 10
0.0
 20
0.0
 30
0.0
  9
$EXTMIN
 10
0.0
 20
-2.960436562073669
 30
0.0
  9
$EXTMAX
 10
454.13376243973829
 20
465.27176480138053
 30
0.0
  9
$LIMMIN
 10
0.0
 20
0.0
  9
$LIMMAX
 10
375.0
 20
270.0
  9
$ORTHOMODE
 70
     1
  9
$REGENMODE
 70
     1
  9
$FILLMODE
 70
     1
  9
$QTEXTMODE
 70
     0
  9
$MIRRTEXT
 70
     0
  9
$DRAGMODE
 70
     2
  9
$LTSCALE
 40
6.0
  9
$OSMODE
 70
  3071
  9
$ATTMODE
 70
     1
  9
$TEXTSIZE
 40
0.2
  9
$TRACEWID
 40
0.05
  9
$TEXTSTYLE
  7
STANDARD
  9
$CLAYER
  8
0
  9
$CELTYPE
  6
BYLAYER
  9
$CECOLOR
 62
   256
  9
$DIMSCALE
 40
1.0
  9
$DIMASZ
 40
3.0
  9
$DIMEXO
 40
1.0
  9
$DIMDLI
 40
6.0
  9
$DIMRND
 40
0.0
  9
$DIMDLE
 40
0.0
  9
$DIMEXE
 40
1.0
  9
$DIMTP
 40
495.0
  9
$DIMTM
 40
0.0
  9
$DIMTXT
 40
3.0
  9
$DIMCEN
 40
0.0
  9
$DIMTSZ
 40
0.0
  9
$DIMTOL
 70
     0
  9
$DIMLIM
 70
     0
  9
$DIMTIH
 70
     0
  9
$DIMTOH
 70
     0
  9
$DIMSE1
 70
     0
  9
$DIMSE2
 70
     0
  9
$DIMTAD
 70
     1
  9
$DIMZIN
 70
     0
  9
$DIMBLK
  1

  9
$DIMASO
 70
     0
  9
$DIMSHO
 70
     0
  9
$DIMPOST
  1

  9
$DIMAPOST
  1

  9
$DIMALT
 70
     0
  9
$DIMALTD
 70
     2
  9
$DIMALTF
 40
25.399999999999999
  9
$DIMLFAC
 40
1.0
  9
$DIMTOFL
 70
     1
  9
$DIMTVP
 40
0.0
  9
$DIMTIX
 70
     1
  9
$DIMSOXD
 70
     0
  9
$DIMSAH
 70
     0
  9
$DIMBLK1
  1

  9
$DIMBLK2
  1

  9
$DIMSTYLE
  2
STANDARD
  9
$DIMCLRD
 70
     0
  9
$DIMCLRE
 70
     0
  9
$DIMCLRT
 70
     4
  9
$DIMTFAC
 40
1.0
  9
$DIMGAP
 40
1.0
  9
$LUNITS
 70
     2
  9
$LUPREC
 70
     4
  9
$SKETCHINC
 40
0.1
  9
$FILLETRAD
 40
2.0
  9
$AUNITS
 70
     0
  9
$AUPREC
 70
     0
  9
$MENU
  1
C:\R13\WIN\SUPPORT\ACAD-I
  9
$ELEVATION
 40
0.0
  9
$PELEVATION
 40
0.0
  9
$THICKNESS
 40
0.0
  9
$LIMCHECK
 70
     0
  9
$BLIPMODE
 70
     0
  9
$CHAMFERA
 40
0.0
  9
$CHAMFERB
 40
0.0
  9
$SKPOLY
 70
     0
  9
$TDCREATE
 40
2451963.4637674768
  9
$TDUPDATE
 40
2456597.6150062159
  9
$TDINDWG
 40
0.0341775463
  9
$TDUSRTIMER
 40
2456555.2817386459
  9
$USRTIMER
 70
     1
  9
$ANGBASE
 50
0.0
  9
$ANGDIR
 70
     0
  9
$PDMODE
 70
     0
  9
$PDSIZE
 40
0.0
  9
$PLINEWID
 40
0.0
  9
$COORDS
 70
     1
  9
$SPLFRAME
 70
     0
  9
$SPLINETYPE
 70
     6
  9
$SPLINESEGS
 70
     8
  9
$ATTDIA
 70
     0
  9
$ATTREQ
 70
     1
  9
$HANDLING
 70
     1
  9
$HANDSEED
  5
AD75
  9
$SURFTAB1
 70
     6
  9
$SURFTAB2
 70
     6
  9
$SURFTYPE
 70
     6
  9
$SURFU
 70
     6
  9
$SURFV
 70
     6
  9
$UCSNAME
  2

  9
$UCSORG
 10
0.0
 20
0.0
 30
0.0
  9
$UCSXDIR
 10
1.0
 20
0.0
 30
0.0
  9
$UCSYDIR
 10
0.0
 20
1.0
 30
0.0
  9
$PUCSNAME
  2

  9
$PUCSORG
 10
0.0
 20
0.0
 30
0.0
  9
$PUCSXDIR
 10
1.0
 20
0.0
 30
0.0
  9
$PUCSYDIR
 10
0.0
 20
1.0
 30
0.0
  9
$USERI1
 70
     4
  9
$USERI2
 70
     1
  9
$USERI3
 70
     0
  9
$USERI4
 70
     0
  9
$USERI5
 70
     0
  9
$USERR1
 40
1.0
  9
$USERR2
 40
3.0
  9
$USERR3
 40
3.0
  9
$USERR4
 40
3.0
  9
$USERR5
 40
10.0
  9
$WORLDVIEW
 70
     1
  9
$SHADEDGE
 70
     3
  9
$SHADEDIF
 70
    70
  9
$TILEMODE
 70
     1
  9
$MAXACTVP
 70
    16
  9
$PLIMCHECK
 70
     0
  9
$PEXTMIN
 10
1.0000000000000000E+020
 20
1.0000000000000000E+020
 30
1.0000000000000000E+020
  9
$PEXTMAX
 10
-1.0000000000000000E+020
 20
-1.0000000000000000E+020
 30
-1.0000000000000000E+020
  9
$PLIMMIN
 10
0.0
 20
0.0
  9
$PLIMMAX
 10
12.0
 20
9.0
  9
$UNITMODE
 70
     0
  9
$VISRETAIN
 70
     0
  9
$PLINEGEN
 70
     0
  9
$PSLTSCALE
 70
     0
  0
ENDSEC
  0
SECTION
  2
TABLES
  0
TABLE
  2
VPORT
 70
     1
  0
VPORT
  2
*ACTIVE
 70
     0
 10
0.0
 20
0.0
 11
1.0
 21
1.0
 12
227.0668822772316
 22
232.1764030882679
 13
0.0
 23
0.0
 14
10.0
 24
10.0
 15
10.0
 25
10.0
 16
0.0
 26
0.0
 36
1.0
 17
0.0
 27
0.0
 37
0.0
 40
475.65591652184742
 41
2.304913294797688
 42
50.0
 43
0.0
 44
0.0
 50
0.0
 51
0.0
 71
    16
 72
   100
 73
     1
 74
     0
 75
     0
 76
     0
 77
     0
 78
     0
  0
ENDTAB
  0
TABLE
  2
LTYPE
 70
     3
  0
LTYPE
  2
CONTINUOUS
 70
     0
  3
Solid Line
 72
    65
 73
     0
 40
0.0
  0
LTYPE
  2
PHANTOM2
 70
     0
  3
___ _ _ ___ _ _ ___ _ _ ___ _ _
 72
    65
 73
     6
 40
1.25
 49
0.625
 49
-0.125
 49
0.125
 49
-0.125
 49
0.125
 49
-0.125
  0
LTYPE
  2
CENTER
 70
     0
  3
____ _ ____ _ ____ _ ____ _ ____ _ ____ _ ____
 72
    65
 73
     4
 40
2.0
 49
1.25
 49
-0.25
 49
0.25
 49
-0.25
  0
ENDTAB
  0
TABLE
  2
LAYER
 70
     4
  0
LAYER
  2
0
 70
     0
 62
     7
  6
CONTINUOUS
  0
LAYER
  2
1
 70
     0
 62
     1
  6
CENTER
  0
LAYER
  2
3
 70
     0
 62
     3
  6
CONTINUOUS
  0
LAYER
  2
DEFPOINTS
 70
     0
 62
     7
  6
CONTINUOUS
  0
ENDTAB
  0
TABLE
  2
STYLE
 70
     3
  0
STYLE
  2
STANDARD
 70
     0
 40
0.0
 41
1.0
 50
0.0
 71
     0
 42
0.2
  3
SIMPLEX
  4
BIGFONT
  0
STYLE
  2
ANNOTATIVE
 70
     0
 40
0.0
 41
1.0
 50
0.0
 71
     0
 42
0.2
  3
txt
  4

  0
STYLE
  2
STANDARD1
 70
     0
 40
0.0
 41
1.0
 50
0.0
 71
     0
 42
3.0
  3
txt
  4

  0
ENDTAB
  0
TABLE
  2
VIEW
 70
     0
  0
ENDTAB
  0
TABLE
  2
UCS
 70
     0
  0
ENDTAB
  0
TABLE
  2
APPID
 70
    29
  0
APPID
  2
ACAD
 70
     0
  0
APPID
  2
ACADANNOTATIVE
 70
     0
  0
APPID
  2
GENIUS_GENOREF_13
 70
     0
  0
APPID
  2
GENIUS_GENOENT_13
 70
     0
  0
APPID
  2
GENIUS_GENBH_13
 70
     0
  0
APPID
  2
GENIUS_GENOBJ_13
 70
     0
  0
APPID
  2
GENIUS_GENODEF_13
 70
     0
  0
APPID
  2
GENIUS_GENOLIS_13
 70
     0
  0
APPID
  2
GENIUS_GENOBJ-NBEHI-BHF_13
 70
     0
  0
APPID
  2
GENIUS_GENOBJ-NBEHI-BHB_13
 70
     0
  0
APPID
  2
GENIUS_GENOBJ-F-PART_13
 70
     0
  0
APPID
  2
GENIUS_GEFSTDP_13
 70
     0
  0
APPID
  2
GENIUS_GENOBJ-N-RSSYM_13
 70
     0
  0
APPID
  2
GENIUS_GENSYMENT_13
 70
     0
  0
APPID
  2
GENIUS_GENOBJ-N-TIT_13
 70
     0
  0
APPID
  2
GENIUS_GENTITLE_13
 70
     0
  0
APPID
  2
GENIUS_GENZVEED_13
 70
     0
  0
APPID
  2
GENIUS_GENOBJ-N-LEADER_13
 70
     0
  0
APPID
  2
GENIUS_GENOBJ-N-FIL_13
 70
     0
  0
APPID
  2
GENIUS_GENOBJ-N-SEC_13
 70
     0
  0
APPID
  2
GENIUS_GENOBJ-N-CRS_13
 70
     0
  0
APPID
  2
GENIUS_GENOBJ-N-ZOO_13
 70
     0
  0
APPID
  2
GENIUS_GENZOO_13
 70
     0
  0
APPID
  2
GENIUS_GENOBJ-F-TOL_13
 70
     0
  0
APPID
  2
GENIUS_GENFIL_13
 70
     0
  0
APPID
  2
GENIUS_GENOBJ-N-CHA_13
 70
     0
  0
APPID
  2
ACAD_EXEMPT_FROM_CAD_STANDARDS
 70
     0
  0
APPID
  2
ACAD_MLEADERVER
 70
     0
  0
APPID
  2
ACAD_NAV_VCDISPLAY
 70
     0
  0
ENDTAB
  0
TABLE
  2
DIMSTYLE
 70
     2
  0
DIMSTYLE
  2
STANDARD
 70
     0
  3

  4

  5

  6

  7

 40
1.0
 41
0.18
 42
0.0625
 43
0.38
 44
0.18
 45
0.0
 46
0.0
 47
0.0
 48
0.0
140
0.18
141
0.09
142
0.0
143
25.399999999999999
144
1.0
145
0.0
146
1.0
147
0.09
 71
     0
 72
     0
 73
     1
 74
     1
 75
     0
 76
     0
 77
     0
 78
     0
170
     0
171
     2
172
     0
173
     0
174
     0
175
     0
176
     0
177
     0
178
     0
  0
DIMSTYLE
  2
ANNOTATIVE
 70
     0
  3

  4

  5

  6

  7

 40
1.0
 41
0.18
 42
0.0625
 43
0.38
 44
0.18
 45
0.0
 46
0.0
 47
0.0
 48
0.0
140
0.18
141
0.09
142
0.0
143
25.399999999999999
144
1.0
145
0.0
146
1.0
147
0.09
 71
     0
 72
     0
 73
     1
 74
     1
 75
     0
 76
     0
 77
     0
 78
     0
170
     0
171
     2
172
     0
173
     0
174
     0
175
     0
176
     0
177
     0
178
     0
  0
ENDTAB
  0
ENDSEC
  0
SECTION
  2
BLOCKS
  0
BLOCK
  8
0
  2
$MODEL_SPACE
 70
     0
 10
0.0
 20
0.0
 30
0.0
  3
$MODEL_SPACE
  1

  0
ENDBLK
  5
AC97
  8
0
  0
BLOCK
 67
     1
  8
0
  2
$PAPER_SPACE
 70
     0
 10
0.0
 20
0.0
 30
0.0
  3
$PAPER_SPACE
  1

  0
ENDBLK
  5
AC93
 67
     1
  8
0
  0
ENDSEC
  0
SECTION
  2
ENTITIES
  0
CIRCLE
  5
A873
  8
0
 10
221.6637956229799
 20
392.77176480138093
 30
0.0
 40
10.0
  0
CIRCLE
  5
A874
  8
3
 10
221.6637956229799
 20
392.77176480138093
 30
0.0
 40
8.6470000000000002
  0
LINE
  5
A875
  8
0
 10
213.00354158513571
 20
377.7717648013807
 30
0.0
 11
230.32404966082439
 21
377.7717648013807
 31
0.0
  0
LINE
  5
A876
  8
0
 10
230.32404966082439
 20
377.7717648013807
 30
0.0
 11
238.98430369866861
 21
392.77176480138093
 31
0.0
  0
LINE
  5
A877
  8
0
 10
238.98430369866861
 20
392.77176480138093
 30
0.0
 11
230.3240496608241
 21
407.77176480138058
 31
0.0
  0
LINE
  5
A878
  8
0
 10
230.3240496608241
 20
407.77176480138058
 30
0.0
 11
213.00354158513571
 21
407.77176480138058
 31
0.0
  0
LINE
  5
A879
  8
0
 10
213.00354158513571
 20
407.77176480138058
 30
0.0
 11
204.34328754729131
 21
392.77176480138093
 31
0.0
  0
LINE
  5
A87A
  8
0
 10
204.34328754729131
 20
392.77176480138093
 30
0.0
 11
213.00354158513571
 21
377.7717648013807
 31
0.0
  0
CIRCLE
  5
A87B
  8
0
 10
221.6637956229799
 20
392.77176480138093
 30
0.0
 40
14.5
  0
LINE
  5
A87C
  8
1
 10
294.16379562297971
 20
392.77176480138093
 30
0.0
 11
149.1637956229799
 21
392.77176480138093
 31
0.0
  0
LINE
  5
A87D
  8
1
 10
221.6637956229799
 20
465.27176480138053
 30
0.0
 11
221.6637956229799
 21
320.27176480138081
 31
0.0
  0
CIRCLE
  5
A87E
  8
0
 10
221.6637956229799
 20
392.77176480138093
 30
0.0
 40
20.999999999999879
  0
CIRCLE
  5
A87F
  8
0
 10
221.6637956229799
 20
392.77176480138093
 30
0.0
 40
34.999999999999829
  0
CIRCLE
  5
A880
  8
0
 10
221.6637956229799
 20
392.77176480138093
 30
0.0
 40
41.499999999999901
  0
CIRCLE
  5
A881
  8
0
 10
221.6637956229799
 20
392.77176480138093
 30
0.0
 40
48.499999999999901
  0
CIRCLE
  5
A882
  8
0
 10
221.6637956229799
 20
392.77176480138093
 30
0.0
 40
55.499999999999503
  0
CIRCLE
  5
A883
  8
0
 10
221.6637956229799
 20
392.77176480138093
 30
0.0
 40
62.499999999999929
  0
ARC
  5
A884
  8
0
 10
391.63376243973562
 20
95.422024228252695
 30
0.0
 40
12.25
 50
20.698334926538941
 51
46.120122896762268
  0
LINE
  5
A885
  8
0
 10
391.6337624397392
 20
161.123336950328
 30
0.0
 11
391.6337624397392
 21
148.3801791438234
 31
0.0
  0
LINE
  5
A886
  8
0
 10
406.13376243973909
 20
146.75175804707831
 30
0.0
 11
377.13376243974062
 21
146.75175804707831
 31
0.0
  0
LINE
  5
A887
  8
0
 10
377.13376243974062
 20
162.7517580470782
 30
0.0
 11
406.13376243973732
 21
162.7517580470782
 31
0.0
  0
ARC
  5
A888
  8
0
 10
384.1337624397392
 20
140.80042413881421
 30
0.0
 40
21.662658773668529
 50
69.743841999600491
 51
110.2561580003994
  0
LINE
  5
A889
  8
0
 10
377.13376243974062
 20
162.7517580470782
 30
0.0
 11
376.6337624397392
 21
162.46308291248269
 31
0.0
  0
LINE
  5
A88A
  8
0
 10
377.13376243974062
 20
146.75175804707831
 30
0.0
 11
376.6337624397392
 21
147.04043318167371
 31
0.0
  0
ARC
  5
A88B
  8
0
 10
384.1337624397392
 20
168.70309195534199
 30
0.0
 40
21.662658773668529
 50
249.74384199960051
 51
290.25615800039952
  0
LINE
  5
A88C
  8
0
 10
376.6337624397392
 20
162.46308291248269
 30
0.0
 11
376.6337624397392
 21
147.04043318167371
 31
0.0
  0
LINE
  5
A88D
  8
0
 10
406.63376243973909
 20
162.46308291248269
 30
0.0
 11
406.63376243973858
 21
147.04043318167371
 31
0.0
  0
ARC
  5
A88E
  8
0
 10
399.1337624397392
 20
168.70309195534199
 30
0.0
 40
21.662658773668529
 50
249.74384199960051
 51
290.25615800039952
  0
LINE
  5
A88F
  8
0
 10
406.13376243973732
 20
146.75175804707831
 30
0.0
 11
406.63376243973858
 21
147.04043318167371
 31
0.0
  0
LINE
  5
A890
  8
0
 10
406.13376243973732
 20
162.7517580470782
 30
0.0
 11
406.63376243973858
 21
162.46308291248269
 31
0.0
  0
ARC
  5
A891
  8
0
 10
399.1337624397392
 20
140.80042413881421
 30
0.0
 40
21.662658773668529
 50
69.743841999600491
 51
110.2561580003994
  0
LINE
  5
A892
  8
3
 10
382.98676243973853
 20
162.7517580470782
 30
0.0
 11
382.98676243973853
 21
277.60475804705533
 31
0.0
  0
LINE
  5
A893
  8
0
 10
381.63376243973852
 20
162.7517580470782
 30
0.0
 11
381.63376243973852
 21
276.2517580470552
 31
0.0
  0
LINE
  5
A894
  8
0
 10
401.6337624397384
 20
162.75175804707791
 30
0.0
 11
401.6337624397384
 21
276.25175804705498
 31
0.0
  0
LINE
  5
A895
  8
3
 10
400.2807624397384
 20
162.7517580470782
 30
0.0
 11
400.2807624397384
 21
277.60475804705499
 31
0.0
  0
ARC
  5
A896
  8
0
 10
391.63376243973562
 20
95.422024228252695
 30
0.0
 40
12.25
 50
133.87987710304901
 51
159.30166507346101
  0
LINE
  5
A897
  8
0
 10
400.1337624397384
 20
104.2517580470028
 30
0.0
 11
383.13376243973852
 21
104.251758047031
 31
0.0
  0
LINE
  5
A898
  8
0
 10
400.1337624397384
 20
110.75175804701691
 30
0.0
 11
400.1337624397384
 21
104.2517580470028
 31
0.0
  0
LINE
  5
A899
  8
0
 10
383.13376243973852
 20
110.75175804701691
 30
0.0
 11
383.13376243973852
 21
104.2517580470312
 31
0.0
  0
LINE
  5
A89A
  8
0
 10
384.13376243973852
 20
278.7517580470552
 30
0.0
 11
399.13376243973852
 21
278.75175804705498
 31
0.0
  0
LINE
  5
A89B
  8
0
 10
401.6337624397384
 20
120.75175804705511
 30
0.0
 11
401.6337624397384
 21
146.7517580470776
 31
0.0
  0
LINE
  5
A89C
  8
3
 10
400.2807624397384
 20
124.75175804707359
 30
0.0
 11
400.2807624397384
 21
146.7517580470776
 31
0.0
  0
LINE
  5
A89D
  8
3
 10
382.98676243973853
 20
124.75175804707359
 30
0.0
 11
382.98676243973853
 21
146.7517580470774
 31
0.0
  0
LINE
  5
A89E
  8
0
 10
381.63376243973852
 20
120.75175804705511
 30
0.0
 11
381.63376243973852
 21
146.7517580470776
 31
0.0
  0
LINE
  5
A89F
  8
0
 10
381.63376243973852
 20
276.2517580470552
 30
0.0
 11
384.13376243973852
 21
278.7517580470552
 31
0.0
  0
LINE
  5
A8A0
  8
0
 10
399.13376243973852
 20
278.75175804705498
 30
0.0
 11
401.6337624397384
 21
276.25175804705498
 31
0.0
  0
LINE
  5
A8A1
  8
0
 10
381.63376243973852
 20
276.2517580470552
 30
0.0
 11
401.6337624397384
 21
276.25175804705498
 31
0.0
  0
LINE
  5
A8A2
  8
0
 10
401.6337624397384
 20
124.75175804707359
 30
0.0
 11
381.63376243973852
 21
124.75175804707359
 31
0.0
  0
LINE
  5
A8A3
  8
3
 10
382.98676243973853
 20
124.75175804707359
 30
0.0
 11
381.63376243973852
 21
122.4082933044327
 31
0.0
  0
LINE
  5
A8A4
  8
3
 10
400.2807624397384
 20
124.75175804707359
 30
0.0
 11
401.6337624397384
 21
122.4082933044327
 31
0.0
  0
ARC
  5
A8A5
  8
0
 10
391.63376243979252
 20
97.534879684431914
 30
0.0
 40
22.928203228139491
 50
72.412046224314381
 51
107.58795377568561
  0
ARC
  5
A8A6
  8
0
 10
381.24145759437903
 20
114.32910831685059
 30
0.0
 40
6.1339745957208196
 50
55.615752528793557
 51
115.61575253015489
  0
LINE
  5
A8A7
  8
0
 10
377.77735597921952
 20
119.3912861427421
 30
0.0
 11
380.13376243990018
 21
120.75175804713631
 31
0.0
  0
LINE
  5
A8A8
  8
0
 10
377.77735597921952
 20
112.1122299515304
 30
0.0
 11
380.13376243990018
 21
110.75175804713631
 31
0.0
  0
ARC
  5
A8A9
  8
0
 10
381.24145759437903
 20
117.174407777422
 30
0.0
 40
6.1339745957208196
 50
244.38424746984509
 51
304.38424747120638
  0
ARC
  5
A8AA
  8
0
 10
391.63376243979252
 20
133.96863640984071
 30
0.0
 40
22.928203228139491
 50
252.41204622431439
 51
287.58795377568561
  0
LINE
  5
A8AB
  8
0
 10
377.77735597924118
 20
119.3912861427421
 30
0.0
 11
377.77735597924118
 21
112.1122299515177
 31
0.0
  0
LINE
  5
A8AC
  8
0
 10
384.70555920951722
 20
119.3912861427421
 30
0.0
 11
384.70555920951722
 21
112.1122299515304
 31
0.0
  0
LINE
  5
A8AD
  8
0
 10
398.56196567006782
 20
119.3912861427421
 30
0.0
 11
398.56196567006782
 21
112.1122299515304
 31
0.0
  0
LINE
  5
A8AE
  8
0
 10
405.49016890034358
 20
119.3912861427421
 30
0.0
 11
405.49016890034358
 21
112.1122299515177
 31
0.0
  0
ARC
  5
A8AF
  8
0
 10
402.02606728520578
 20
117.174407777422
 30
0.0
 40
6.1339745957208196
 50
235.61575252879359
 51
295.61575253015491
  0
LINE
  5
A8B0
  8
0
 10
405.49016890036552
 20
112.1122299515304
 30
0.0
 11
403.13376243968452
 21
110.75175804713631
 31
0.0
  0
LINE
  5
A8B1
  8
0
 10
405.49016890036552
 20
119.3912861427421
 30
0.0
 11
403.13376243968452
 21
120.75175804713631
 31
0.0
  0
ARC
  5
A8B2
  8
0
 10
402.02606728520578
 20
114.32910831685059
 30
0.0
 40
6.1339745957208196
 50
64.384247469845079
 51
124.38424747120639
  0
LINE
  5
A8B3
  8
0
 10
380.13376243979252
 20
120.75175804713631
 30
0.0
 11
403.13376243968452
 21
120.75175804713631
 31
0.0
  0
LINE
  5
A8B4
  8
0
 10
403.13376243968452
 20
110.75175804713631
 30
0.0
 11
380.13376243990018
 21
110.75175804713631
 31
0.0
  0
LINE
  5
A8B5
  8
0
 10
454.13376243973829
 20
53.751758047055063
 30
0.0
 11
329.13376243973858
 21
53.75175804705512
 31
0.0
  0
LINE
  5
A8B6
  8
0
 10
454.13376243973829
 20
53.751758047055063
 30
0.0
 11
454.13376243973829
 21
69.870964136100184
 31
0.0
  0
LINE
  5
A8B8
  8
0
 10
412.63376243973829
 20
99.751758047055077
 30
0.0
 11
370.63376243973852
 21
99.751758047055134
 31
0.0
  0
LINE
  5
A8B9
  8
DEFPOINTS
 10
412.63376243973829
 20
99.751758047055077
 30
0.0
 11
426.63376243973818
 21
77.751758047055063
 31
0.0
  0
LINE
  5
A8BA
  8
DEFPOINTS
 10
426.63376243973818
 20
77.751758047055063
 30
0.0
 11
432.38044172037308
 21
76.288966957438859
 31
0.0
  0
LINE
  5
A8BB
  8
DEFPOINTS
 10
447.13376243973818
 20
71.642667137964139
 30
0.0
 11
447.13376243973818
 21
71.652782317918408
 31
0.0
  0
LINE
  5
A8BC
  8
DEFPOINTS
 10
440.13376243973829
 20
73.424485319782335
 30
0.0
 11
440.13376243973829
 21
73.434600499736547
 31
0.0
  0
LINE
  5
A8BD
  8
DEFPOINTS
 10
433.1337624397384
 20
75.206303501600502
 30
0.0
 11
433.1337624397384
 21
75.319869783515941
 31
0.0
  0
LINE
  5
A8BE
  8
DEFPOINTS
 10
453.26001671941208
 20
70.8629620478238
 30
0.0
 11
447.13376243973818
 21
71.642667137964139
 31
0.0
  0
LINE
  5
A8BF
  8
DEFPOINTS
 10
446.26001671941231
 20
72.644780229642024
 30
0.0
 11
440.13376243973829
 21
73.424485319782335
 31
0.0
  0
LINE
  5
A8C0
  8
DEFPOINTS
 10
439.26001671941231
 20
74.426598411460219
 30
0.0
 11
433.1337624397384
 21
75.206303501600502
 31
0.0
  0
ARC
  5
A8C1
  8
DEFPOINTS
 10
432.13376243973829
 20
75.319869783515941
 30
0.0
 40
1.0
 50
0.0
 51
75.718904264028865
  0
ARC
  5
A8C2
  8
DEFPOINTS
 10
439.13376243973818
 20
73.434600499736547
 30
0.0
 40
1.0
 50
0.0
 51
82.746805387274634
  0
ARC
  5
A8C3
  8
DEFPOINTS
 10
446.13376243973829
 20
71.652782317918408
 30
0.0
 40
1.0
 50
0.0000000000016284
 51
82.746805387274634
  0
ARC
  5
A8C4
  8
DEFPOINTS
 10
453.13376243973829
 20
69.870964136100184
 30
0.0
 40
1.0
 50
359.9999999999996
 51
82.746805387274634
  0
LINE
  5
A8C5
  8
DEFPOINTS
 10
447.13376243973818
 20
71.642667137964139
 30
0.0
 11
336.13376243973948
 21
71.642667137964253
 31
0.0
  0
LINE
  5
A8C6
  8
DEFPOINTS
 10
440.13376243973829
 20
73.424485319782335
 30
0.0
 11
343.1337624397392
 21
73.424485319782406
 31
0.0
  0
LINE
  5
A8C7
  8
DEFPOINTS
 10
433.1337624397384
 20
75.206303501600502
 30
0.0
 11
350.1337624397392
 21
75.206303501600615
 31
0.0
  0
LINE
  5
A8C8
  8
DEFPOINTS
 10
426.63376243973818
 20
77.751758047055063
 30
0.0
 11
356.63376243973892
 21
77.751758047055091
 31
0.0
  0
ARC
  5
A8C9
  8
DEFPOINTS
 10
330.1337624397384
 20
69.870964136100184
 30
0.0
 40
1.0
 50
97.253194612725352
 51
180.0000000000004
  0
ARC
  5
A8CA
  8
DEFPOINTS
 10
337.13376243973858
 20
71.652782317918408
 30
0.0
 40
1.0
 50
97.253194612725352
 51
179.9999999999979
  0
ARC
  5
A8CB
  8
DEFPOINTS
 10
344.13376243973852
 20
73.434600499736547
 30
0.0
 40
1.0
 50
97.253194612725352
 51
180.0
  0
ARC
  5
A8CC
  8
DEFPOINTS
 10
351.13376243973852
 20
75.319869783515941
 30
0.0
 40
1.0
 50
104.28109573597111
 51
180.0
  0
LINE
  5
A8CD
  8
DEFPOINTS
 10
344.00750816006462
 20
74.426598411460219
 30
0.0
 11
350.13376243973852
 21
75.206303501600502
 31
0.0
  0
LINE
  5
A8CE
  8
DEFPOINTS
 10
337.00750816006462
 20
72.644780229642024
 30
0.0
 11
343.13376243973858
 21
73.424485319782335
 31
0.0
  0
LINE
  5
A8CF
  8
DEFPOINTS
 10
330.00750816006439
 20
70.8629620478238
 30
0.0
 11
336.13376243973858
 21
71.642667137964139
 31
0.0
  0
LINE
  5
A8D0
  8
DEFPOINTS
 10
350.13376243973852
 20
75.206303501600502
 30
0.0
 11
350.13376243973852
 21
75.319869783515941
 31
0.0
  0
LINE
  5
A8D1
  8
DEFPOINTS
 10
343.13376243973858
 20
73.424485319782335
 30
0.0
 11
343.13376243973858
 21
73.434600499736547
 31
0.0
  0
LINE
  5
A8D2
  8
DEFPOINTS
 10
336.13376243973858
 20
71.642667137964139
 30
0.0
 11
336.13376243973858
 21
71.652782317918408
 31
0.0
  0
LINE
  5
A8D3
  8
DEFPOINTS
 10
356.63376243973852
 20
77.751758047055063
 30
0.0
 11
350.88708315910372
 21
76.288966957438859
 31
0.0
  0
LINE
  5
A8D4
  8
DEFPOINTS
 10
370.63376243973852
 20
99.751758047055077
 30
0.0
 11
356.63376243973852
 21
77.751758047055063
 31
0.0
  0
LINE
  5
A8D6
  8
0
 10
329.13376243973858
 20
53.751758047055063
 30
0.0
 11
329.13376243973818
 21
69.870964136100184
 31
0.0
  0
LINE
  5
A8D8
  8
1
 10
391.63376243973852
 20
43.751758047055077
 30
0.0
 11
391.63376243973852
 21
288.7517580470552
 31
0.0
  0
LINE
  5
A8D9
  8
1
 10
221.6637956229799
 20
43.751758047055077
 30
0.0
 11
221.6637956229799
 21
288.7517580470552
 31
0.0
  0
ARC
  5
A8DB
  8
0
 10
221.66379562297701
 20
95.422024228252809
 30
0.0
 40
12.25
 50
20.698334926538081
 51
46.120122896763171
  0
LINE
  5
A8DC
  8
3
 10
230.3107956229799
 20
124.75175804707369
 30
0.0
 11
231.6637956229799
 21
122.4082933044329
 31
0.0
  0
LINE
  5
A8DD
  8
3
 10
213.01679562298
 20
124.75175804707369
 30
0.0
 11
211.6637956229799
 21
122.4082933044329
 31
0.0
  0
LINE
  5
A8DE
  8
0
 10
231.6637956229799
 20
124.75175804707369
 30
0.0
 11
211.6637956229799
 21
124.75175804707369
 31
0.0
  0
LINE
  5
A8DF
  8
0
 10
211.6637956229799
 20
276.2517580470552
 30
0.0
 11
231.6637956229799
 21
276.25175804705498
 31
0.0
  0
LINE
  5
A8E0
  8
0
 10
229.1637956229799
 20
278.75175804705498
 30
0.0
 11
231.6637956229799
 21
276.25175804705498
 31
0.0
  0
LINE
  5
A8E1
  8
0
 10
211.6637956229799
 20
276.2517580470552
 30
0.0
 11
214.16379562297999
 21
278.7517580470552
 31
0.0
  0
LINE
  5
A8E2
  8
0
 10
211.6637956229799
 20
120.7517580470552
 30
0.0
 11
211.6637956229799
 21
146.75175804707769
 31
0.0
  0
LINE
  5
A8E3
  8
3
 10
213.01679562298
 20
124.75175804707369
 30
0.0
 11
213.01679562298
 21
146.7517580470774
 31
0.0
  0
LINE
  5
A8E4
  8
3
 10
230.3107956229799
 20
124.75175804707369
 30
0.0
 11
230.3107956229799
 21
146.75175804707769
 31
0.0
  0
LINE
  5
A8E5
  8
0
 10
231.6637956229799
 20
120.7517580470552
 30
0.0
 11
231.6637956229799
 21
146.75175804707769
 31
0.0
  0
LINE
  5
A8E6
  8
0
 10
214.16379562297999
 20
278.7517580470552
 30
0.0
 11
229.1637956229799
 21
278.75175804705498
 31
0.0
  0
ARC
  5
A8E7
  8
0
 10
227.6637956230131
 20
103.1329558951378
 30
0.0
 40
17.330127017333279
 50
69.74384199763557
 51
110.2561580023644
  0
LINE
  5
A8E8
  8
0
 10
233.66379562302811
 20
120.46308291247099
 30
0.0
 11
233.1637956230131
 21
120.7517580470745
 31
0.0
  0
LINE
  5
A8E9
  8
0
 10
233.66379562302811
 20
111.0404331816011
 30
0.0
 11
233.1637956230131
 21
110.75175804699769
 31
0.0
  0
ARC
  5
A8EA
  8
0
 10
227.6637956230131
 20
128.37056019893441
 30
0.0
 40
17.330127017333279
 50
249.7438419976356
 51
290.25615800236437
  0
LINE
  5
A8EB
  8
0
 10
233.66379562302811
 20
120.46308291247099
 30
0.0
 11
233.6637956230131
 21
111.04043318159241
 31
0.0
  0
LINE
  5
A8EC
  8
0
 10
221.6637956230131
 20
112.11222995143029
 30
0.0
 11
221.6637956230131
 21
119.3912861426419
 31
0.0
  0
LINE
  5
A8ED
  8
0
 10
209.66379562299809
 20
120.46308291247099
 30
0.0
 11
209.6637956230131
 21
111.04043318159241
 31
0.0
  0
ARC
  5
A8EE
  8
0
 10
215.6637956230131
 20
128.37056019893441
 30
0.0
 40
17.330127017333279
 50
249.7438419976356
 51
290.25615800236437
  0
LINE
  5
A8EF
  8
0
 10
209.66379562299809
 20
111.0404331816011
 30
0.0
 11
210.1637956230131
 21
110.75175804699769
 31
0.0
  0
LINE
  5
A8F0
  8
0
 10
209.66379562299809
 20
120.46308291247099
 30
0.0
 11
210.1637956230131
 21
120.7517580470745
 31
0.0
  0
ARC
  5
A8F1
  8
0
 10
215.6637956230131
 20
103.1329558951378
 30
0.0
 40
17.330127017333279
 50
69.74384199763557
 51
110.2561580023644
  0
LINE
  5
A8F2
  8
0
 10
210.16379562294671
 20
120.75175804703611
 30
0.0
 11
233.1637956230131
 21
120.7517580470745
 31
0.0
  0
LINE
  5
A8F3
  8
0
 10
233.1637956230131
 20
110.75175804699769
 30
0.0
 11
210.16379562294671
 21
110.75175804703611
 31
0.0
  0
LINE
  5
A8F4
  8
0
 10
213.1637956229799
 20
110.75175804701701
 30
0.0
 11
213.1637956229799
 21
104.2517580470313
 31
0.0
  0
LINE
  5
A8F5
  8
0
 10
230.1637956229799
 20
110.75175804701701
 30
0.0
 11
230.1637956229799
 21
104.2517580470028
 31
0.0
  0
LINE
  5
A8F6
  8
0
 10
230.1637956229799
 20
104.2517580470028
 30
0.0
 11
213.1637956229799
 21
104.2517580470311
 31
0.0
  0
ARC
  5
A8F7
  8
0
 10
221.66379562297701
 20
95.422024228252809
 30
0.0
 40
12.25
 50
133.87987710304779
 51
159.30166507346181
  0
LINE
  5
A8F8
  8
0
 10
236.16379562298059
 20
146.75175804707791
 30
0.0
 11
207.1637956229801
 21
146.75175804707769
 31
0.0
  0
LINE
  5
A8F9
  8
0
 10
207.1637956229801
 20
162.75175804707851
 30
0.0
 11
236.1637956229809
 21
162.75175804707811
 31
0.0
  0
LINE
  5
A8FA
  8
0
 10
236.1637956229801
 20
162.75175804707851
 30
0.0
 11
238.98430369866881
 21
161.12333695032811
 31
0.0
  0
ARC
  5
A8FB
  8
0
 10
234.65417667974631
 20
154.79561466720719
 30
0.0
 40
7.6674682452751766
 50
64.384247470459201
 51
124.3842474680058
  0
ARC
  5
A8FC
  8
0
 10
234.65417667974631
 20
154.79561466720719
 30
0.0
 40
7.6674682452751766
 50
55.615752531994197
 51
55.615752531994197
  0
ARC
  5
A8FD
  8
0
 10
234.65417667974631
 20
154.70790142694901
 30
0.0
 40
7.6674682452751766
 50
304.38424746800581
 51
304.38424746800581
  0
ARC
  5
A8FE
  8
0
 10
234.65417667974631
 20
154.70790142694901
 30
0.0
 40
7.6674682452751766
 50
235.61575253199419
 51
295.61575252954083
  0
LINE
  5
A8FF
  8
0
 10
236.1637956229801
 20
146.75175804707769
 30
0.0
 11
238.98430369866881
 21
148.38017914382809
 31
0.0
  0
LINE
  5
A900
  8
0
 10
238.98430369866861
 20
161.12333695032811
 30
0.0
 11
238.98430369895229
 21
148.3801791439918
 31
0.0
  0
LINE
  5
A901
  8
0
 10
230.32404966082439
 20
148.38017914385151
 30
0.0
 11
230.3240496606704
 21
161.12333695032811
 31
0.0
  0
ARC
  5
A902
  8
0
 10
221.6637956230536
 20
175.70068721906631
 30
0.0
 40
28.660254037392811
 50
252.41204622557001
 51
287.5879537741294
  0
LINE
  5
A903
  8
0
 10
213.00354158513591
 20
148.38017914385151
 30
0.0
 11
213.0035415852899
 21
161.12333695032811
 31
0.0
  0
LINE
  5
A904
  8
0
 10
204.34328754729179
 20
161.12333695032811
 30
0.0
 11
204.34328754700809
 21
148.3801791439918
 31
0.0
  0
LINE
  5
A905
  8
0
 10
207.1637956229801
 20
146.75175804707769
 30
0.0
 11
204.3432875472916
 21
148.38017914382809
 31
0.0
  0
ARC
  5
A906
  8
0
 10
208.67341456621401
 20
154.70790142694901
 30
0.0
 40
7.6674682452751766
 50
244.3842474704592
 51
304.38424746800581
  0
ARC
  5
A907
  8
0
 10
208.67341456621401
 20
154.70790142694901
 30
0.0
 40
7.6674682452751766
 50
235.61575253199419
 51
235.61575253199419
  0
ARC
  5
A908
  8
0
 10
221.6637956230536
 20
133.8028288750898
 30
0.0
 40
28.660254037392811
 50
72.412046225870625
 51
107.58795377443001
  0
ARC
  5
A909
  8
0
 10
208.67341456621401
 20
154.79561466720719
 30
0.0
 40
7.6674682452751766
 50
124.3842474680058
 51
124.3842474680058
  0
ARC
  5
A90A
  8
0
 10
208.67341456621401
 20
154.79561466720719
 30
0.0
 40
7.6674682452751766
 50
55.615752531994197
 51
115.6157525295408
  0
LINE
  5
A90B
  8
0
 10
207.1637956229801
 20
162.75175804707851
 30
0.0
 11
204.3432875472916
 21
161.12333695032811
 31
0.0
  0
LINE
  5
A90C
  8
3
 10
230.3107956229799
 20
162.75175804707831
 30
0.0
 11
230.3107956229799
 21
277.60475804705499
 31
0.0
  0
LINE
  5
A90D
  8
0
 10
231.6637956229799
 20
162.75175804707811
 30
0.0
 11
231.6637956229799
 21
276.25175804705498
 31
0.0
  0
LINE
  5
A90E
  8
0
 10
211.6637956229799
 20
162.75175804707831
 30
0.0
 11
211.6637956229799
 21
276.2517580470552
 31
0.0
  0
LINE
  5
A90F
  8
3
 10
213.01679562298
 20
162.75175804707831
 30
0.0
 11
213.01679562298
 21
277.60475804705533
 31
0.0
  0
LINE
  5
A910
  8
0
 10
159.1637956229799
 20
53.751758047055063
 30
0.0
 11
159.16379562297971
 21
69.870964136100184
 31
0.0
  0
LINE
  5
A912
  8
DEFPOINTS
 10
200.6637956229799
 20
99.751758047055077
 30
0.0
 11
186.6637956229799
 21
77.751758047055063
 31
0.0
  0
LINE
  5
A913
  8
DEFPOINTS
 10
186.6637956229799
 20
77.751758047055063
 30
0.0
 11
180.917116342345
 21
76.288966957438859
 31
0.0
  0
LINE
  5
A914
  8
DEFPOINTS
 10
166.1637956229799
 20
71.642667137964139
 30
0.0
 11
166.1637956229799
 21
71.652782317918451
 31
0.0
  0
LINE
  5
A915
  8
DEFPOINTS
 10
173.16379562297979
 20
73.424485319782335
 30
0.0
 11
173.16379562297979
 21
73.434600499736547
 31
0.0
  0
LINE
  5
A916
  8
DEFPOINTS
 10
180.1637956229799
 20
75.206303501600502
 30
0.0
 11
180.1637956229799
 21
75.319869783515941
 31
0.0
  0
LINE
  5
A917
  8
DEFPOINTS
 10
160.03754134330569
 20
70.8629620478238
 30
0.0
 11
166.1637956229799
 21
71.642667137964139
 31
0.0
  0
LINE
  5
A918
  8
DEFPOINTS
 10
167.0375413433058
 20
72.644780229642024
 30
0.0
 11
173.16379562297979
 21
73.424485319782335
 31
0.0
  0
LINE
  5
A919
  8
DEFPOINTS
 10
174.037541343306
 20
74.426598411460219
 30
0.0
 11
180.1637956229799
 21
75.206303501600502
 31
0.0
  0
ARC
  5
A91A
  8
DEFPOINTS
 10
181.16379562297979
 20
75.319869783515941
 30
0.0
 40
1.0
 50
104.28109573597111
 51
180.0
  0
ARC
  5
A91B
  8
DEFPOINTS
 10
174.1637956229799
 20
73.434600499736547
 30
0.0
 40
1.0
 50
97.253194612725352
 51
180.0
  0
ARC
  5
A91C
  8
DEFPOINTS
 10
167.1637956229799
 20
71.652782317918408
 30
0.0
 40
1.0
 50
97.253194612725352
 51
179.9999999999979
  0
ARC
  5
A91D
  8
DEFPOINTS
 10
160.16379562297971
 20
69.870964136100184
 30
0.0
 40
1.0
 50
97.253194612725352
 51
180.0000000000004
  0
LINE
  5
A91E
  8
DEFPOINTS
 10
256.66379562297971
 20
77.751758047055063
 30
0.0
 11
186.66379562297999
 21
77.751758047055091
 31
0.0
  0
LINE
  5
A91F
  8
DEFPOINTS
 10
263.16379562297971
 20
75.206303501600502
 30
0.0
 11
180.16379562298059
 21
75.206303501600615
 31
0.0
  0
LINE
  5
A920
  8
DEFPOINTS
 10
270.16379562297971
 20
73.424485319782335
 30
0.0
 11
173.16379562298059
 21
73.424485319782406
 31
0.0
  0
LINE
  5
A921
  8
DEFPOINTS
 10
277.16379562297971
 20
71.642667137964139
 30
0.0
 11
166.16379562298081
 21
71.642667137964253
 31
0.0
  0
ARC
  5
A922
  8
DEFPOINTS
 10
283.16379562297988
 20
69.870964136100184
 30
0.0
 40
1.0
 50
359.9999999999996
 51
82.746805387274634
  0
ARC
  5
A923
  8
DEFPOINTS
 10
276.16379562297971
 20
71.652782317918408
 30
0.0
 40
1.0
 50
0.0000000000016284
 51
82.746805387274634
  0
ARC
  5
A924
  8
DEFPOINTS
 10
269.16379562297971
 20
73.434600499736547
 30
0.0
 40
1.0
 50
0.0
 51
82.746805387274634
  0
ARC
  5
A925
  8
DEFPOINTS
 10
262.16379562297971
 20
75.319869783515941
 30
0.0
 40
1.0
 50
0.0
 51
75.718904264028865
  0
LINE
  5
A926
  8
DEFPOINTS
 10
269.29004990265372
 20
74.426598411460219
 30
0.0
 11
263.16379562297971
 21
75.206303501600502
 31
0.0
  0
LINE
  5
A927
  8
DEFPOINTS
 10
276.29004990265372
 20
72.644780229642024
 30
0.0
 11
270.16379562297971
 21
73.424485319782335
 31
0.0
  0
LINE
  5
A928
  8
DEFPOINTS
 10
283.29004990265389
 20
70.8629620478238
 30
0.0
 11
277.16379562297971
 21
71.642667137964139
 31
0.0
  0
LINE
  5
A929
  8
DEFPOINTS
 10
263.16379562297971
 20
75.206303501600502
 30
0.0
 11
263.16379562297971
 21
75.319869783515941
 31
0.0
  0
LINE
  5
A92A
  8
DEFPOINTS
 10
270.16379562297971
 20
73.424485319782335
 30
0.0
 11
270.16379562297971
 21
73.434600499736547
 31
0.0
  0
LINE
  5
A92B
  8
DEFPOINTS
 10
277.16379562297971
 20
71.642667137964139
 30
0.0
 11
277.16379562297971
 21
71.652782317918451
 31
0.0
  0
LINE
  5
A92C
  8
DEFPOINTS
 10
256.66379562297971
 20
77.751758047055063
 30
0.0
 11
262.4104749036145
 21
76.288966957438859
 31
0.0
  0
LINE
  5
A92D
  8
DEFPOINTS
 10
242.6637956229799
 20
99.751758047055077
 30
0.0
 11
256.66379562297971
 21
77.751758047055063
 31
0.0
  0
LINE
  5
A92E
  8
0
 10
242.6637956229799
 20
99.751758047055077
 30
0.0
 11
200.6637956229799
 21
99.751758047055134
 31
0.0
  0
LINE
  5
A931
  8
0
 10
284.16379562297971
 20
53.751758047055063
 30
0.0
 11
284.16379562297988
 21
69.870964136100184
 31
0.0
  0
LINE
  5
A932
  8
0
 10
284.16379562297971
 20
53.751758047055063
 30
0.0
 11
159.1637956229799
 21
53.75175804705512
 31
0.0
  0
TEXT
  5
AD18
  8
0
 62
     3
 10
0.0
 20
0.0
 30
0.0
 40
10.0
  1
LVE125L20C-SUS
  7
STANDARD1
  0
ENDSEC
  0
EOF
