  0
SECTION
  2
HEADER
  9
$ACADVER
  1
AC1009
  9
$INSBASE
 10
0.0
 20
0.0
 30
0.0
  9
$EXTMIN
 10
0.0
 20
-2.960436562073669
 30
0.0
  9
$EXTMAX
 10
407.77052891517371
 20
392.33787644397768
 30
0.0
  9
$LIMMIN
 10
0.0
 20
0.0
  9
$LIMMAX
 10
375.0
 20
270.0
  9
$ORTHOMODE
 70
     1
  9
$REGENMODE
 70
     1
  9
$FILLMODE
 70
     1
  9
$QTEXTMODE
 70
     0
  9
$MIRRTEXT
 70
     0
  9
$DRAGMODE
 70
     2
  9
$LTSCALE
 40
6.0
  9
$OSMODE
 70
  3071
  9
$ATTMODE
 70
     1
  9
$TEXTSIZE
 40
0.2
  9
$TRACEWID
 40
0.05
  9
$TEXTSTYLE
  7
STANDARD
  9
$CLAYER
  8
0
  9
$CELTYPE
  6
BYLAYER
  9
$CECOLOR
 62
   256
  9
$DIMSCALE
 40
1.0
  9
$DIMASZ
 40
3.0
  9
$DIMEXO
 40
1.0
  9
$DIMDLI
 40
6.0
  9
$DIMRND
 40
0.0
  9
$DIMDLE
 40
0.0
  9
$DIMEXE
 40
1.0
  9
$DIMTP
 40
495.0
  9
$DIMTM
 40
0.0
  9
$DIMTXT
 40
3.0
  9
$DIMCEN
 40
0.0
  9
$DIMTSZ
 40
0.0
  9
$DIMTOL
 70
     0
  9
$DIMLIM
 70
     0
  9
$DIMTIH
 70
     0
  9
$DIMTOH
 70
     0
  9
$DIMSE1
 70
     0
  9
$DIMSE2
 70
     0
  9
$DIMTAD
 70
     1
  9
$DIMZIN
 70
     0
  9
$DIMBLK
  1

  9
$DIMASO
 70
     0
  9
$DIMSHO
 70
     0
  9
$DIMPOST
  1

  9
$DIMAPOST
  1

  9
$DIMALT
 70
     0
  9
$DIMALTD
 70
     2
  9
$DIMALTF
 40
25.399999999999999
  9
$DIMLFAC
 40
1.0
  9
$DIMTOFL
 70
     1
  9
$DIMTVP
 40
0.0
  9
$DIMTIX
 70
     1
  9
$DIMSOXD
 70
     0
  9
$DIMSAH
 70
     0
  9
$DIMBLK1
  1

  9
$DIMBLK2
  1

  9
$DIMSTYLE
  2
STANDARD
  9
$DIMCLRD
 70
     0
  9
$DIMCLRE
 70
     0
  9
$DIMCLRT
 70
     4
  9
$DIMTFAC
 40
1.0
  9
$DIMGAP
 40
1.0
  9
$LUNITS
 70
     2
  9
$LUPREC
 70
     4
  9
$SKETCHINC
 40
0.1
  9
$FILLETRAD
 40
2.0
  9
$AUNITS
 70
     0
  9
$AUPREC
 70
     0
  9
$MENU
  1
C:\R13\WIN\SUPPORT\ACAD-I
  9
$ELEVATION
 40
0.0
  9
$PELEVATION
 40
0.0
  9
$THICKNESS
 40
0.0
  9
$LIMCHECK
 70
     0
  9
$BLIPMODE
 70
     0
  9
$CHAMFERA
 40
0.0
  9
$CHAMFERB
 40
0.0
  9
$SKPOLY
 70
     0
  9
$TDCREATE
 40
2451963.4650897449
  9
$TDUPDATE
 40
2456597.6150415982
  9
$TDINDWG
 40
0.0509754977
  9
$TDUSRTIMER
 40
2456555.2839838201
  9
$USRTIMER
 70
     1
  9
$ANGBASE
 50
0.0
  9
$ANGDIR
 70
     0
  9
$PDMODE
 70
     0
  9
$PDSIZE
 40
0.0
  9
$PLINEWID
 40
0.0
  9
$COORDS
 70
     1
  9
$SPLFRAME
 70
     0
  9
$SPLINETYPE
 70
     6
  9
$SPLINESEGS
 70
     8
  9
$ATTDIA
 70
     0
  9
$ATTREQ
 70
     1
  9
$HANDLING
 70
     1
  9
$HANDSEED
  5
B104
  9
$SURFTAB1
 70
     6
  9
$SURFTAB2
 70
     6
  9
$SURFTYPE
 70
     6
  9
$SURFU
 70
     6
  9
$SURFV
 70
     6
  9
$UCSNAME
  2

  9
$UCSORG
 10
0.0
 20
0.0
 30
0.0
  9
$UCSXDIR
 10
1.0
 20
0.0
 30
0.0
  9
$UCSYDIR
 10
0.0
 20
1.0
 30
0.0
  9
$PUCSNAME
  2

  9
$PUCSORG
 10
0.0
 20
0.0
 30
0.0
  9
$PUCSXDIR
 10
1.0
 20
0.0
 30
0.0
  9
$PUCSYDIR
 10
0.0
 20
1.0
 30
0.0
  9
$USERI1
 70
     4
  9
$USERI2
 70
     1
  9
$USERI3
 70
     0
  9
$USERI4
 70
     0
  9
$USERI5
 70
     0
  9
$USERR1
 40
1.0
  9
$USERR2
 40
3.0
  9
$USERR3
 40
3.0
  9
$USERR4
 40
3.0
  9
$USERR5
 40
10.0
  9
$WORLDVIEW
 70
     1
  9
$SHADEDGE
 70
     3
  9
$SHADEDIF
 70
    70
  9
$TILEMODE
 70
     1
  9
$MAXACTVP
 70
    16
  9
$PLIMCHECK
 70
     0
  9
$PEXTMIN
 10
1.0000000000000000E+020
 20
1.0000000000000000E+020
 30
1.0000000000000000E+020
  9
$PEXTMAX
 10
-1.0000000000000000E+020
 20
-1.0000000000000000E+020
 30
-1.0000000000000000E+020
  9
$PLIMMIN
 10
0.0
 20
0.0
  9
$PLIMMAX
 10
12.0
 20
9.0
  9
$UNITMODE
 70
     0
  9
$VISRETAIN
 70
     0
  9
$PLINEGEN
 70
     0
  9
$PSLTSCALE
 70
     0
  0
ENDSEC
  0
SECTION
  2
TABLES
  0
TABLE
  2
VPORT
 70
     1
  0
VPORT
  2
*ACTIVE
 70
     0
 10
0.0
 20
0.0
 11
1.0
 21
1.0
 12
203.8852654070017
 22
195.5430575493219
 13
0.0
 23
0.0
 14
10.0
 24
10.0
 15
10.0
 25
10.0
 16
0.0
 26
0.0
 36
1.0
 17
0.0
 27
0.0
 37
0.0
 40
401.58076227565221
 41
2.304913294797688
 42
50.0
 43
0.0
 44
0.0
 50
0.0
 51
0.0
 71
    16
 72
   100
 73
     1
 74
     0
 75
     0
 76
     0
 77
     0
 78
     0
  0
ENDTAB
  0
TABLE
  2
LTYPE
 70
     3
  0
LTYPE
  2
CONTINUOUS
 70
     0
  3
Solid Line
 72
    65
 73
     0
 40
0.0
  0
LTYPE
  2
PHANTOM2
 70
     0
  3
___ _ _ ___ _ _ ___ _ _ ___ _ _
 72
    65
 73
     6
 40
1.25
 49
0.625
 49
-0.125
 49
0.125
 49
-0.125
 49
0.125
 49
-0.125
  0
LTYPE
  2
CENTER
 70
     0
  3
____ _ ____ _ ____ _ ____ _ ____ _ ____ _ ____
 72
    65
 73
     4
 40
2.0
 49
1.25
 49
-0.25
 49
0.25
 49
-0.25
  0
ENDTAB
  0
TABLE
  2
LAYER
 70
     4
  0
LAYER
  2
0
 70
     0
 62
     7
  6
CONTINUOUS
  0
LAYER
  2
1
 70
     0
 62
     1
  6
CENTER
  0
LAYER
  2
3
 70
     0
 62
     3
  6
CONTINUOUS
  0
LAYER
  2
DEFPOINTS
 70
     0
 62
     7
  6
CONTINUOUS
  0
ENDTAB
  0
TABLE
  2
STYLE
 70
     3
  0
STYLE
  2
STANDARD
 70
     0
 40
0.0
 41
1.0
 50
0.0
 71
     0
 42
0.2
  3
SIMPLEX
  4
BIGFONT
  0
STYLE
  2
ANNOTATIVE
 70
     0
 40
0.0
 41
1.0
 50
0.0
 71
     0
 42
0.2
  3
txt
  4

  0
STYLE
  2
STANDARD1
 70
     0
 40
0.0
 41
1.0
 50
0.0
 71
     0
 42
3.0
  3
txt
  4

  0
ENDTAB
  0
TABLE
  2
VIEW
 70
     0
  0
ENDTAB
  0
TABLE
  2
UCS
 70
     0
  0
ENDTAB
  0
TABLE
  2
APPID
 70
    29
  0
APPID
  2
ACAD
 70
     0
  0
APPID
  2
ACADANNOTATIVE
 70
     0
  0
APPID
  2
GENIUS_GENOREF_13
 70
     0
  0
APPID
  2
GENIUS_GENOENT_13
 70
     0
  0
APPID
  2
GENIUS_GENBH_13
 70
     0
  0
APPID
  2
GENIUS_GENOBJ_13
 70
     0
  0
APPID
  2
GENIUS_GENODEF_13
 70
     0
  0
APPID
  2
GENIUS_GENOLIS_13
 70
     0
  0
APPID
  2
GENIUS_GENOBJ-NBEHI-BHF_13
 70
     0
  0
APPID
  2
GENIUS_GENOBJ-NBEHI-BHB_13
 70
     0
  0
APPID
  2
GENIUS_GENOBJ-F-PART_13
 70
     0
  0
APPID
  2
GENIUS_GEFSTDP_13
 70
     0
  0
APPID
  2
GENIUS_GENOBJ-N-RSSYM_13
 70
     0
  0
APPID
  2
GENIUS_GENSYMENT_13
 70
     0
  0
APPID
  2
GENIUS_GENOBJ-N-TIT_13
 70
     0
  0
APPID
  2
GENIUS_GENTITLE_13
 70
     0
  0
APPID
  2
GENIUS_GENZVEED_13
 70
     0
  0
APPID
  2
GENIUS_GENOBJ-N-LEADER_13
 70
     0
  0
APPID
  2
GENIUS_GENOBJ-N-FIL_13
 70
     0
  0
APPID
  2
GENIUS_GENOBJ-N-SEC_13
 70
     0
  0
APPID
  2
GENIUS_GENOBJ-N-CRS_13
 70
     0
  0
APPID
  2
GENIUS_GENOBJ-N-ZOO_13
 70
     0
  0
APPID
  2
GENIUS_GENZOO_13
 70
     0
  0
APPID
  2
GENIUS_GENOBJ-F-TOL_13
 70
     0
  0
APPID
  2
GENIUS_GENFIL_13
 70
     0
  0
APPID
  2
GENIUS_GENOBJ-N-CHA_13
 70
     0
  0
APPID
  2
ACAD_EXEMPT_FROM_CAD_STANDARDS
 70
     0
  0
APPID
  2
ACAD_MLEADERVER
 70
     0
  0
APPID
  2
ACAD_NAV_VCDISPLAY
 70
     0
  0
ENDTAB
  0
TABLE
  2
DIMSTYLE
 70
     2
  0
DIMSTYLE
  2
STANDARD
 70
     0
  3

  4

  5

  6

  7

 40
1.0
 41
0.18
 42
0.0625
 43
0.38
 44
0.18
 45
0.0
 46
0.0
 47
0.0
 48
0.0
140
0.18
141
0.09
142
0.0
143
25.399999999999999
144
1.0
145
0.0
146
1.0
147
0.09
 71
     0
 72
     0
 73
     1
 74
     1
 75
     0
 76
     0
 77
     0
 78
     0
170
     0
171
     2
172
     0
173
     0
174
     0
175
     0
176
     0
177
     0
178
     0
  0
DIMSTYLE
  2
ANNOTATIVE
 70
     0
  3

  4

  5

  6

  7

 40
1.0
 41
0.18
 42
0.0625
 43
0.38
 44
0.18
 45
0.0
 46
0.0
 47
0.0
 48
0.0
140
0.18
141
0.09
142
0.0
143
25.399999999999999
144
1.0
145
0.0
146
1.0
147
0.09
 71
     0
 72
     0
 73
     1
 74
     1
 75
     0
 76
     0
 77
     0
 78
     0
170
     0
171
     2
172
     0
173
     0
174
     0
175
     0
176
     0
177
     0
178
     0
  0
ENDTAB
  0
ENDSEC
  0
SECTION
  2
BLOCKS
  0
BLOCK
  8
0
  2
$MODEL_SPACE
 70
     0
 10
0.0
 20
0.0
 30
0.0
  3
$MODEL_SPACE
  1

  0
ENDBLK
  5
B026
  8
0
  0
BLOCK
 67
     1
  8
0
  2
$PAPER_SPACE
 70
     0
 10
0.0
 20
0.0
 30
0.0
  3
$PAPER_SPACE
  1

  0
ENDBLK
  5
B022
 67
     1
  8
0
  0
ENDSEC
  0
SECTION
  2
ENTITIES
  0
CIRCLE
  5
ABBD
  8
3
 10
175.3005620984151
 20
319.83787644397762
 30
0.0
 40
10.375999999999999
  0
CIRCLE
  5
ABBE
  8
0
 10
175.3005620984151
 20
319.83787644397762
 30
0.0
 40
12.0
  0
CIRCLE
  5
ABBF
  8
0
 10
175.3005620984151
 20
319.83787644397762
 30
0.0
 40
17.0
  0
LINE
  5
ABC0
  8
0
 10
164.90825726145479
 20
337.83787642932668
 30
0.0
 11
185.6928669522799
 21
337.83787642932668
 31
0.0
  0
LINE
  5
ABC1
  8
0
 10
185.69286693537251
 20
337.83787642931202
 30
0.0
 11
196.0851717807887
 21
319.83787642932663
 31
0.0
  0
LINE
  5
ABC2
  8
0
 10
196.0851717723157
 20
319.83787644398018
 30
0.0
 11
185.6928669269069
 21
301.83787644398041
 31
0.0
  0
LINE
  5
ABC3
  8
0
 10
185.69286693536159
 20
301.83787645863413
 30
0.0
 11
164.9082572445364
 21
301.83787645863413
 31
0.0
  0
LINE
  5
ABC4
  8
0
 10
164.90825726145661
 20
301.83787645863413
 30
0.0
 11
154.51595241604039
 21
319.83787645863413
 31
0.0
  0
LINE
  5
ABC5
  8
0
 10
154.5159524245133
 20
319.83787644398018
 30
0.0
 11
164.90825726992219
 21
337.83787644398041
 31
0.0
  0
ARC
  5
ABC6
  8
0
 10
345.27052891517383
 20
69.227842700511033
 30
0.0
 40
12.25
 50
20.655369424003879
 51
46.062160114254702
  0
ARC
  5
ABC7
  8
0
 10
345.27052891517383
 20
69.227842700511033
 30
0.0
 40
12.25
 50
133.93783988574529
 51
159.34463057599609
  0
LINE
  5
ABC8
  8
0
 10
336.77052891517383
 20
84.548982082713565
 30
0.0
 11
336.77052891517383
 21
78.048982082727633
 31
0.0
  0
LINE
  5
ABC9
  8
0
 10
353.77052891517383
 20
84.548982082713565
 30
0.0
 11
353.77052891517383
 21
78.048982082699453
 31
0.0
  0
LINE
  5
ABCA
  8
0
 10
336.27052891517383
 20
192.54898208277109
 30
0.0
 11
354.27052891517383
 21
192.54898208277081
 31
0.0
  0
LINE
  5
ABCB
  8
0
 10
357.27052891517383
 20
94.260306948125844
 30
0.0
 11
357.27052891517383
 21
118.54898208277081
 31
0.0
  0
LINE
  5
ABCC
  8
3
 10
355.64652891517397
 20
99.548982082769129
 30
0.0
 11
355.64652891517397
 21
118.54898208277061
 31
0.0
  0
LINE
  5
ABCD
  8
3
 10
334.89452891517391
 20
99.548982082769129
 30
0.0
 11
334.89452891517391
 21
118.54898208277081
 31
0.0
  0
LINE
  5
ABCE
  8
0
 10
333.27052891517383
 20
94.260306948063757
 30
0.0
 11
333.27052891517383
 21
118.54898208277081
 31
0.0
  0
LINE
  5
ABCF
  8
0
 10
333.27052891517383
 20
189.5489820827712
 30
0.0
 11
336.27052891517383
 21
192.54898208277109
 31
0.0
  0
LINE
  5
ABD0
  8
0
 10
354.27052891517383
 20
192.54898208277081
 30
0.0
 11
357.27052891517383
 21
189.54898208277081
 31
0.0
  0
LINE
  5
ABD1
  8
0
 10
333.27052891517383
 20
189.5489820827712
 30
0.0
 11
357.27052891517383
 21
189.54898208277081
 31
0.0
  0
LINE
  5
ABD2
  8
0
 10
357.27052891517383
 20
99.548982082769129
 30
0.0
 11
333.27052891517383
 21
99.548982082769129
 31
0.0
  0
LINE
  5
ABD3
  8
3
 10
334.89452891517391
 20
99.548982082769129
 30
0.0
 11
333.27052891517383
 21
96.736131571277213
 31
0.0
  0
LINE
  5
ABD4
  8
3
 10
355.6465289151738
 20
99.548982082769129
 30
0.0
 11
357.27052891517383
 21
96.736131571277213
 31
0.0
  0
LINE
  5
ABD5
  8
0
 10
356.77052891511988
 20
84.548982082751976
 30
0.0
 11
333.77052891533549
 21
84.548982082751976
 31
0.0
  0
LINE
  5
ABD6
  8
0
 10
333.77052891522771
 20
94.548982082752005
 30
0.0
 11
356.77052891511988
 21
94.548982082752005
 31
0.0
  0
ARC
  5
ABD7
  8
0
 10
355.66283376064121
 20
88.126332352466292
 30
0.0
 40
6.1339745957208196
 50
64.384247469840744
 51
124.3842474712083
  0
LINE
  5
ABD8
  8
0
 10
359.12693537580083
 20
93.188510178357774
 30
0.0
 11
356.77052891511988
 21
94.548982082752005
 31
0.0
  0
LINE
  5
ABD9
  8
0
 10
359.12693537580083
 20
85.909453987146208
 30
0.0
 11
356.77052891511988
 21
84.548982082751976
 31
0.0
  0
ARC
  5
ABDA
  8
0
 10
355.66283376064121
 20
90.971631813037675
 30
0.0
 40
6.1339745957208196
 50
235.6157525287887
 51
295.61575253015928
  0
LINE
  5
ABDB
  8
0
 10
359.12693537577888
 20
93.188510178357774
 30
0.0
 11
359.12693537577888
 21
85.90945398713346
 31
0.0
  0
LINE
  5
ABDC
  8
0
 10
352.19873214550307
 20
93.188510178357774
 30
0.0
 11
352.19873214550307
 21
85.909453987146208
 31
0.0
  0
LINE
  5
ABDD
  8
0
 10
338.3423256849523
 20
93.188510178357774
 30
0.0
 11
338.3423256849523
 21
85.909453987146208
 31
0.0
  0
LINE
  5
ABDE
  8
0
 10
331.41412245467649
 20
93.188510178357774
 30
0.0
 11
331.41412245467649
 21
85.90945398713346
 31
0.0
  0
ARC
  5
ABDF
  8
0
 10
345.27052891522771
 20
107.7658604454564
 30
0.0
 40
22.928203228139491
 50
252.41204622431439
 51
287.58795377568561
  0
ARC
  5
ABE0
  8
0
 10
334.87822406981428
 20
90.971631813037675
 30
0.0
 40
6.1339745957208196
 50
244.38424746984069
 51
304.38424747121132
  0
LINE
  5
ABE1
  8
0
 10
331.41412245465472
 20
85.909453987146208
 30
0.0
 11
333.77052891533549
 21
84.548982082751976
 31
0.0
  0
LINE
  5
ABE2
  8
0
 10
331.41412245465472
 20
93.188510178357774
 30
0.0
 11
333.77052891533549
 21
94.548982082752005
 31
0.0
  0
ARC
  5
ABE3
  8
0
 10
334.87822406981428
 20
88.126332352466292
 30
0.0
 40
6.1339745957208196
 50
55.615752528791567
 51
115.6157525301592
  0
ARC
  5
ABE4
  8
0
 10
345.27052891522771
 20
71.332103720047485
 30
0.0
 40
22.928203228139491
 50
72.412046224314381
 51
107.58795377568561
  0
LINE
  5
ABE5
  8
0
 10
336.77052891517383
 20
78.048982082699453
 30
0.0
 11
353.77052891517383
 21
78.048982082699453
 31
0.0
  0
LINE
  5
ABE6
  8
0
 10
327.27052892982482
 20
136.9716318220396
 30
0.0
 11
327.27052892982482
 21
119.1263323435016
 31
0.0
  0
LINE
  5
ABE7
  8
0
 10
328.27052891517388
 20
137.54898208277061
 30
0.0
 11
327.27052892982482
 21
136.9716318220396
 31
0.0
  0
ARC
  5
ABE8
  8
0
 10
336.27052892249912
 20
110.9764413147275
 30
0.0
 40
25.995190507312159
 50
69.743841999652659
 51
110.2561580003473
  0
ARC
  5
ABE9
  8
0
 10
336.27052892249912
 20
145.12152285081379
 30
0.0
 40
25.995190507312159
 50
249.74384199965269
 51
290.25615800034723
  0
LINE
  5
ABEA
  8
0
 10
328.27052891517388
 20
118.54898208277061
 30
0.0
 11
327.27052892982482
 21
119.1263323435016
 31
0.0
  0
LINE
  5
ABEB
  8
0
 10
362.27052891517371
 20
118.54898208277061
 30
0.0
 11
363.27052890052278
 21
119.1263323435016
 31
0.0
  0
ARC
  5
ABEC
  8
0
 10
354.2705289078483
 20
145.12152285081379
 30
0.0
 40
25.995190507312159
 50
249.74384199965269
 51
290.25615800034723
  0
ARC
  5
ABED
  8
0
 10
354.2705289078483
 20
110.9764413147275
 30
0.0
 40
25.995190507312159
 50
69.743841999652659
 51
110.2561580003473
  0
LINE
  5
ABEE
  8
0
 10
362.27052891517371
 20
137.54898208277061
 30
0.0
 11
363.27052890052278
 21
136.9716318220396
 31
0.0
  0
LINE
  5
ABEF
  8
0
 10
328.27052891517388
 20
137.54898208277061
 30
0.0
 11
362.27052891517371
 21
137.54898208277061
 31
0.0
  0
LINE
  5
ABF0
  8
0
 10
363.27052890052278
 20
136.9716318220396
 30
0.0
 11
363.27052890052278
 21
119.1263323435016
 31
0.0
  0
LINE
  5
ABF1
  8
0
 10
328.27052891517388
 20
118.54898208277061
 30
0.0
 11
362.27052891517371
 21
118.54898208277061
 31
0.0
  0
LINE
  5
ABF2
  8
0
 10
345.27052891517383
 20
135.36393666876731
 30
0.0
 11
345.27052891517383
 21
120.7340274967741
 31
0.0
  0
LINE
  5
ABF3
  8
0
 10
357.27052891517383
 20
137.54898208277061
 30
0.0
 11
357.27052891517383
 21
189.54898208277081
 31
0.0
  0
LINE
  5
ABF4
  8
3
 10
355.64652891517397
 20
137.54898208277061
 30
0.0
 11
355.64652891517397
 21
191.17298208277089
 31
0.0
  0
LINE
  5
ABF5
  8
0
 10
333.27052891517383
 20
137.54898208277061
 30
0.0
 11
333.27052891517383
 21
189.5489820827712
 31
0.0
  0
LINE
  5
ABF6
  8
3
 10
334.89452891517391
 20
137.54898208277041
 30
0.0
 11
334.89452891517391
 21
191.17298208277111
 31
0.0
  0
ARC
  5
ABF7
  8
0
 10
175.30056209841521
 20
69.227842700511033
 30
0.0
 40
12.25
 50
20.655369424003869
 51
46.062160114254702
  0
LINE
  5
ABF8
  8
3
 10
185.6765620984151
 20
99.548982082769129
 30
0.0
 11
187.3005620984151
 21
96.736131571277213
 31
0.0
  0
LINE
  5
ABF9
  8
3
 10
164.92456209841509
 20
99.548982082769129
 30
0.0
 11
163.30056209841521
 21
96.736131571277213
 31
0.0
  0
LINE
  5
ABFA
  8
0
 10
187.30056209841521
 20
99.548982082769129
 30
0.0
 11
163.30056209841521
 21
99.548982082769129
 31
0.0
  0
LINE
  5
ABFB
  8
0
 10
163.30056209841521
 20
189.5489820827712
 30
0.0
 11
187.30056209841521
 21
189.54898208277081
 31
0.0
  0
LINE
  5
ABFC
  8
0
 10
184.30056209841521
 20
192.54898208277081
 30
0.0
 11
187.30056209841521
 21
189.54898208277081
 31
0.0
  0
LINE
  5
ABFD
  8
0
 10
163.30056209841521
 20
189.5489820827712
 30
0.0
 11
166.30056209841521
 21
192.54898208277109
 31
0.0
  0
LINE
  5
ABFE
  8
0
 10
163.30056209841521
 20
94.260306948157194
 30
0.0
 11
163.30056209841521
 21
118.54898208277039
 31
0.0
  0
LINE
  5
ABFF
  8
3
 10
164.92456209841509
 20
99.548982082769129
 30
0.0
 11
164.92456209841509
 21
118.54898208277061
 31
0.0
  0
LINE
  5
AC00
  8
3
 10
185.6765620984151
 20
99.548982082769129
 30
0.0
 11
185.6765620984151
 21
118.54898208277039
 31
0.0
  0
LINE
  5
AC01
  8
0
 10
187.3005620984151
 20
94.260306948195577
 30
0.0
 11
187.30056209841521
 21
118.54898208277039
 31
0.0
  0
LINE
  5
AC02
  8
0
 10
166.30056209841521
 20
192.54898208277109
 30
0.0
 11
184.30056209841521
 21
192.54898208277081
 31
0.0
  0
LINE
  5
AC03
  8
0
 10
183.80056209841521
 20
84.548982082713565
 30
0.0
 11
183.80056209841521
 21
78.048982082699453
 31
0.0
  0
LINE
  5
AC04
  8
0
 10
166.80056209841521
 20
84.548982082713565
 30
0.0
 11
166.80056209841521
 21
78.048982082727633
 31
0.0
  0
LINE
  5
AC05
  8
0
 10
186.8005620984483
 20
84.548982082694238
 30
0.0
 11
163.80056209838199
 21
84.548982082732664
 31
0.0
  0
LINE
  5
AC06
  8
0
 10
163.80056209838199
 20
94.548982082732664
 30
0.0
 11
186.8005620984483
 21
94.548982082771076
 31
0.0
  0
ARC
  5
AC07
  8
0
 10
169.30056209844841
 20
76.930179930833901
 30
0.0
 40
17.330127017333279
 50
69.743841997632984
 51
110.256158002367
  0
LINE
  5
AC08
  8
0
 10
163.30056209843329
 20
94.260306948167681
 30
0.0
 11
163.8005620984483
 21
94.548982082771076
 31
0.0
  0
LINE
  5
AC09
  8
0
 10
163.30056209843329
 20
84.837657217297618
 30
0.0
 11
163.8005620984483
 21
84.548982082694238
 31
0.0
  0
ARC
  5
AC0A
  8
0
 10
169.30056209844841
 20
102.1677842346309
 30
0.0
 40
17.330127017333279
 50
249.7438419976329
 51
290.25615800236699
  0
LINE
  5
AC0B
  8
0
 10
163.30056209843329
 20
94.260306948167681
 30
0.0
 11
163.30056209844841
 21
84.837657217288978
 31
0.0
  0
LINE
  5
AC0C
  8
0
 10
175.30056209844841
 20
85.909453987126895
 30
0.0
 11
175.30056209844841
 21
93.188510178338433
 31
0.0
  0
LINE
  5
AC0D
  8
0
 10
187.3005620984633
 20
94.260306948167681
 30
0.0
 11
187.30056209844841
 21
84.837657217288978
 31
0.0
  0
ARC
  5
AC0E
  8
0
 10
181.3005620984483
 20
102.1677842346309
 30
0.0
 40
17.330127017333279
 50
249.7438419976329
 51
290.25615800236699
  0
LINE
  5
AC0F
  8
0
 10
187.3005620984633
 20
84.837657217297618
 30
0.0
 11
186.8005620984483
 21
84.548982082694238
 31
0.0
  0
LINE
  5
AC10
  8
0
 10
187.3005620984633
 20
94.260306948167681
 30
0.0
 11
186.8005620984483
 21
94.548982082771076
 31
0.0
  0
ARC
  5
AC11
  8
0
 10
181.3005620984483
 20
76.930179930833901
 30
0.0
 40
17.330127017333279
 50
69.743841997632984
 51
110.256158002367
  0
ARC
  5
AC12
  8
0
 10
175.30056209841521
 20
69.227842700511033
 30
0.0
 40
12.25
 50
133.9378398855564
 51
159.34463057599609
  0
LINE
  5
AC13
  8
0
 10
166.80056209841521
 20
78.048982082727633
 30
0.0
 11
183.80056209841521
 21
78.048982082699453
 31
0.0
  0
LINE
  5
AC14
  8
0
 10
196.08517177231431
 20
135.36393666876731
 30
0.0
 11
196.08517177231431
 21
120.7340274967741
 31
0.0
  0
LINE
  5
AC15
  8
0
 10
192.3005620984151
 20
137.54898208277061
 30
0.0
 11
196.08517177231431
 21
135.36393666876731
 31
0.0
  0
ARC
  5
AC16
  8
0
 10
190.88901935383939
 20
127.77066993518611
 30
0.0
 40
9.2009618868538041
 50
64.384247467929214
 51
124.38424746793859
  0
ARC
  5
AC17
  8
0
 10
190.88901935383939
 20
128.32729423035539
 30
0.0
 40
9.2009618868538041
 50
235.61575253206149
 51
295.6157525320707
  0
LINE
  5
AC18
  8
0
 10
192.3005620984151
 20
118.54898208277061
 30
0.0
 11
196.08517177231431
 21
120.7340274967741
 31
0.0
  0
LINE
  5
AC19
  8
0
 10
158.30056209841521
 20
118.54898208277061
 30
0.0
 11
154.515952424516
 21
120.7340274967741
 31
0.0
  0
ARC
  5
AC1A
  8
0
 10
159.7121048429909
 20
128.32729423035539
 30
0.0
 40
9.2009618868538041
 50
244.38424746792921
 51
304.38424746793862
  0
ARC
  5
AC1B
  8
0
 10
175.3005620984172
 20
153.5186371610184
 30
0.0
 40
34.392304817516766
 50
252.4120462260662
 51
287.5879537739338
  0
ARC
  5
AC1C
  8
0
 10
159.7121048429909
 20
127.77066993518611
 30
0.0
 40
9.2009618868538041
 50
55.615752532061393
 51
115.6157525320707
  0
ARC
  5
AC1D
  8
0
 10
175.3005620984172
 20
102.5793270045228
 30
0.0
 40
34.392304817516766
 50
72.412046226066224
 51
107.58795377393371
  0
LINE
  5
AC1E
  8
0
 10
185.69286693536839
 20
135.36393666876731
 30
0.0
 11
185.69286693536839
 21
120.7340274967741
 31
0.0
  0
LINE
  5
AC1F
  8
0
 10
164.9082572614661
 20
135.36393666876731
 30
0.0
 11
164.9082572614661
 21
120.7340274967741
 31
0.0
  0
LINE
  5
AC20
  8
0
 10
158.30056209841521
 20
137.54898208277061
 30
0.0
 11
154.515952424516
 21
135.36393666876731
 31
0.0
  0
LINE
  5
AC21
  8
0
 10
154.515952424516
 20
135.36393666876731
 30
0.0
 11
154.515952424516
 21
120.7340274967741
 31
0.0
  0
LINE
  5
AC22
  8
0
 10
158.30056209841521
 20
118.54898208277061
 30
0.0
 11
192.3005620984151
 21
118.54898208277061
 31
0.0
  0
LINE
  5
AC23
  8
0
 10
158.3005620984153
 20
137.54898208277061
 30
0.0
 11
192.3005620984151
 21
137.54898208277061
 31
0.0
  0
LINE
  5
AC24
  8
0
 10
187.30056209841521
 20
137.54898208277061
 30
0.0
 11
187.30056209841521
 21
189.54898208277081
 31
0.0
  0
LINE
  5
AC25
  8
3
 10
185.6765620984151
 20
137.54898208277061
 30
0.0
 11
185.6765620984151
 21
191.17298208277089
 31
0.0
  0
LINE
  5
AC26
  8
3
 10
164.92456209841509
 20
137.54898208277061
 30
0.0
 11
164.92456209841509
 21
191.17298208277111
 31
0.0
  0
LINE
  5
AC27
  8
0
 10
163.30056209841521
 20
137.54898208277041
 30
0.0
 11
163.30056209841521
 21
189.5489820827712
 31
0.0
  0
LINE
  5
AC37
  8
0
 10
237.8005620984151
 20
27.54898208277098
 30
0.0
 11
112.8005620984152
 21
27.54898208277109
 31
0.0
  0
LINE
  5
AC38
  8
0
 10
237.8005620984151
 20
27.54898208277098
 30
0.0
 11
237.80056209841521
 21
43.668188171816162
 31
0.0
  0
LINE
  5
AC3B
  8
0
 10
196.30056209841521
 20
73.548982082770991
 30
0.0
 11
154.3005620984151
 21
73.548982082770991
 31
0.0
  0
LINE
  5
AC3C
  8
DEFPOINTS
 10
196.3005620984151
 20
73.548982082770991
 30
0.0
 11
210.3005620984151
 21
51.548982082770969
 31
0.0
  0
LINE
  5
AC3D
  8
DEFPOINTS
 10
210.3005620984151
 20
51.548982082770969
 30
0.0
 11
216.04724137905001
 21
50.086190993154773
 31
0.0
  0
LINE
  5
AC3E
  8
DEFPOINTS
 10
230.8005620984151
 20
45.439891173680039
 30
0.0
 11
230.8005620984151
 21
45.450006353634308
 31
0.0
  0
LINE
  5
AC3F
  8
DEFPOINTS
 10
223.8005620984151
 20
47.221709355498199
 30
0.0
 11
223.8005620984151
 21
47.231824535452461
 31
0.0
  0
LINE
  5
AC40
  8
DEFPOINTS
 10
216.8005620984151
 20
49.003527537316458
 30
0.0
 11
216.8005620984151
 21
49.117093819231847
 31
0.0
  0
LINE
  5
AC41
  8
DEFPOINTS
 10
236.92681637808909
 20
44.66018608353977
 30
0.0
 11
230.8005620984151
 21
45.439891173680039
 31
0.0
  0
LINE
  5
AC42
  8
DEFPOINTS
 10
229.926816378089
 20
46.442004265357923
 30
0.0
 11
223.8005620984151
 21
47.221709355498199
 31
0.0
  0
LINE
  5
AC43
  8
DEFPOINTS
 10
222.926816378089
 20
48.223822447176083
 30
0.0
 11
216.8005620984151
 21
49.003527537316458
 31
0.0
  0
ARC
  5
AC44
  8
DEFPOINTS
 10
215.8005620984151
 20
49.117093819231847
 30
0.0
 40
1.0
 50
0.0
 51
75.71890426402895
  0
ARC
  5
AC45
  8
DEFPOINTS
 10
222.8005620984151
 20
47.231824535452461
 30
0.0
 40
1.0
 50
0.0
 51
82.746805387274634
  0
ARC
  5
AC46
  8
DEFPOINTS
 10
229.8005620984151
 20
45.450006353634308
 30
0.0
 40
1.0
 50
0.0000000000016284
 51
82.746805387274634
  0
ARC
  5
AC47
  8
DEFPOINTS
 10
236.80056209841521
 20
43.668188171816162
 30
0.0
 40
1.0
 50
359.9999999999992
 51
82.746805387274634
  0
LINE
  5
AC48
  8
DEFPOINTS
 10
230.8005620984151
 20
45.439891173680039
 30
0.0
 11
119.80056209841599
 21
45.439891173680152
 31
0.0
  0
LINE
  5
AC49
  8
DEFPOINTS
 10
223.8005620984151
 20
47.221709355498199
 30
0.0
 11
126.80056209841599
 21
47.221709355498319
 31
0.0
  0
LINE
  5
AC4A
  8
DEFPOINTS
 10
216.8005620984151
 20
49.003527537316458
 30
0.0
 11
133.8005620984157
 21
49.003527537316458
 31
0.0
  0
LINE
  5
AC4B
  8
DEFPOINTS
 10
210.3005620984151
 20
51.548982082770969
 30
0.0
 11
140.30056209841541
 21
51.54898208277109
 31
0.0
  0
ARC
  5
AC4C
  8
DEFPOINTS
 10
113.800562098415
 20
43.668188171816162
 30
0.0
 40
1.0
 50
97.253194612725352
 51
180.0000000000008
  0
ARC
  5
AC4D
  8
DEFPOINTS
 10
120.8005620984152
 20
45.450006353634308
 30
0.0
 40
1.0
 50
97.253194612725352
 51
179.99999999999841
  0
ARC
  5
AC4E
  8
DEFPOINTS
 10
127.8005620984152
 20
47.231824535452461
 30
0.0
 40
1.0
 50
97.253194612725352
 51
180.0
  0
ARC
  5
AC4F
  8
DEFPOINTS
 10
134.8005620984151
 20
49.117093819231847
 30
0.0
 40
1.0
 50
104.28109573597099
 51
180.0
  0
LINE
  5
AC50
  8
DEFPOINTS
 10
127.6743078187412
 20
48.223822447176083
 30
0.0
 11
133.8005620984151
 21
49.003527537316458
 31
0.0
  0
LINE
  5
AC51
  8
DEFPOINTS
 10
120.6743078187412
 20
46.442004265357923
 30
0.0
 11
126.8005620984152
 21
47.221709355498199
 31
0.0
  0
LINE
  5
AC52
  8
DEFPOINTS
 10
113.6743078187411
 20
44.66018608353977
 30
0.0
 11
119.8005620984152
 21
45.439891173680039
 31
0.0
  0
LINE
  5
AC53
  8
DEFPOINTS
 10
133.8005620984151
 20
49.003527537316458
 30
0.0
 11
133.8005620984151
 21
49.117093819231847
 31
0.0
  0
LINE
  5
AC54
  8
DEFPOINTS
 10
126.8005620984152
 20
47.221709355498199
 30
0.0
 11
126.8005620984152
 21
47.231824535452461
 31
0.0
  0
LINE
  5
AC55
  8
DEFPOINTS
 10
119.8005620984152
 20
45.439891173680039
 30
0.0
 11
119.8005620984152
 21
45.450006353634308
 31
0.0
  0
LINE
  5
AC56
  8
DEFPOINTS
 10
140.30056209841521
 20
51.548982082770969
 30
0.0
 11
134.55388281778031
 21
50.086190993154773
 31
0.0
  0
LINE
  5
AC57
  8
DEFPOINTS
 10
154.3005620984151
 20
73.548982082770991
 30
0.0
 11
140.30056209841521
 21
51.548982082770969
 31
0.0
  0
LINE
  5
AC59
  8
0
 10
112.8005620984152
 20
27.54898208277098
 30
0.0
 11
112.800562098415
 21
43.668188171816162
 31
0.0
  0
LINE
  5
AC5B
  8
1
 10
175.3005620984151
 20
17.54898208277103
 30
0.0
 11
175.30056209841521
 21
202.54898208277109
 31
0.0
  0
LINE
  5
AC5C
  8
1
 10
345.27052891517383
 20
17.54898208277103
 30
0.0
 11
345.27052891517383
 21
202.54898208277109
 31
0.0
  0
LINE
  5
AC5E
  8
0
 10
282.77052891517383
 20
27.54898208277098
 30
0.0
 11
282.77052891517371
 21
43.668188171816162
 31
0.0
  0
LINE
  5
AC60
  8
DEFPOINTS
 10
324.27052891517383
 20
73.548982082770991
 30
0.0
 11
310.27052891517383
 21
51.548982082770969
 31
0.0
  0
LINE
  5
AC61
  8
DEFPOINTS
 10
310.27052891517383
 20
51.548982082770969
 30
0.0
 11
304.52384963453892
 21
50.086190993154773
 31
0.0
  0
LINE
  5
AC62
  8
DEFPOINTS
 10
289.77052891517383
 20
45.439891173680039
 30
0.0
 11
289.77052891517383
 21
45.450006353634308
 31
0.0
  0
LINE
  5
AC63
  8
DEFPOINTS
 10
296.77052891517383
 20
47.221709355498199
 30
0.0
 11
296.77052891517383
 21
47.231824535452461
 31
0.0
  0
LINE
  5
AC64
  8
DEFPOINTS
 10
303.77052891517383
 20
49.003527537316458
 30
0.0
 11
303.77052891517388
 21
49.117093819231847
 31
0.0
  0
LINE
  5
AC65
  8
DEFPOINTS
 10
283.64427463549981
 20
44.66018608353977
 30
0.0
 11
289.77052891517383
 21
45.439891173680039
 31
0.0
  0
LINE
  5
AC66
  8
DEFPOINTS
 10
290.64427463549993
 20
46.442004265357923
 30
0.0
 11
296.77052891517383
 21
47.221709355498199
 31
0.0
  0
LINE
  5
AC67
  8
DEFPOINTS
 10
297.64427463549993
 20
48.223822447176083
 30
0.0
 11
303.77052891517383
 21
49.003527537316458
 31
0.0
  0
ARC
  5
AC68
  8
DEFPOINTS
 10
304.77052891517388
 20
49.117093819231847
 30
0.0
 40
1.0
 50
104.28109573597099
 51
180.0
  0
ARC
  5
AC69
  8
DEFPOINTS
 10
297.77052891517383
 20
47.231824535452461
 30
0.0
 40
1.0
 50
97.253194612725352
 51
180.0
  0
ARC
  5
AC6A
  8
DEFPOINTS
 10
290.77052891517383
 20
45.450006353634308
 30
0.0
 40
1.0
 50
97.253194612725352
 51
179.99999999999841
  0
ARC
  5
AC6B
  8
DEFPOINTS
 10
283.7705289151736
 20
43.668188171816162
 30
0.0
 40
1.0
 50
97.253194612725352
 51
180.0000000000008
  0
LINE
  5
AC6C
  8
DEFPOINTS
 10
380.27052891517371
 20
51.548982082770969
 30
0.0
 11
310.27052891517411
 21
51.54898208277109
 31
0.0
  0
LINE
  5
AC6D
  8
DEFPOINTS
 10
386.77052891517371
 20
49.003527537316458
 30
0.0
 11
303.77052891517451
 21
49.003527537316458
 31
0.0
  0
LINE
  5
AC6E
  8
DEFPOINTS
 10
393.77052891517371
 20
47.221709355498199
 30
0.0
 11
296.77052891517462
 21
47.221709355498319
 31
0.0
  0
LINE
  5
AC6F
  8
DEFPOINTS
 10
400.7705289151736
 20
45.439891173680039
 30
0.0
 11
289.77052891517479
 21
45.439891173680152
 31
0.0
  0
ARC
  5
AC70
  8
DEFPOINTS
 10
406.77052891517371
 20
43.668188171816162
 30
0.0
 40
1.0
 50
359.9999999999992
 51
82.746805387274634
  0
ARC
  5
AC71
  8
DEFPOINTS
 10
399.77052891517371
 20
45.450006353634308
 30
0.0
 40
1.0
 50
0.0000000000016284
 51
82.746805387274634
  0
ARC
  5
AC72
  8
DEFPOINTS
 10
392.77052891517371
 20
47.231824535452461
 30
0.0
 40
1.0
 50
0.0
 51
82.746805387274634
  0
ARC
  5
AC73
  8
DEFPOINTS
 10
385.7705289151736
 20
49.117093819231847
 30
0.0
 40
1.0
 50
0.0
 51
75.71890426402895
  0
LINE
  5
AC74
  8
DEFPOINTS
 10
392.89678319484761
 20
48.223822447176083
 30
0.0
 11
386.77052891517371
 21
49.003527537316458
 31
0.0
  0
LINE
  5
AC75
  8
DEFPOINTS
 10
399.89678319484773
 20
46.442004265357923
 30
0.0
 11
393.77052891517371
 21
47.221709355498199
 31
0.0
  0
LINE
  5
AC76
  8
DEFPOINTS
 10
406.89678319484761
 20
44.66018608353977
 30
0.0
 11
400.7705289151736
 21
45.439891173680039
 31
0.0
  0
LINE
  5
AC77
  8
DEFPOINTS
 10
386.77052891517371
 20
49.003527537316458
 30
0.0
 11
386.77052891517371
 21
49.117093819231847
 31
0.0
  0
LINE
  5
AC78
  8
DEFPOINTS
 10
393.77052891517371
 20
47.221709355498199
 30
0.0
 11
393.77052891517371
 21
47.231824535452461
 31
0.0
  0
LINE
  5
AC79
  8
DEFPOINTS
 10
400.7705289151736
 20
45.439891173680039
 30
0.0
 11
400.7705289151736
 21
45.450006353634308
 31
0.0
  0
LINE
  5
AC7A
  8
DEFPOINTS
 10
380.27052891517371
 20
51.548982082770969
 30
0.0
 11
386.01720819580862
 21
50.086190993154773
 31
0.0
  0
LINE
  5
AC7B
  8
DEFPOINTS
 10
366.27052891517371
 20
73.548982082770991
 30
0.0
 11
380.27052891517371
 21
51.548982082770969
 31
0.0
  0
LINE
  5
AC7C
  8
0
 10
366.27052891517371
 20
73.548982082770991
 30
0.0
 11
324.27052891517383
 21
73.548982082770991
 31
0.0
  0
LINE
  5
AC7E
  8
0
 10
407.77052891517371
 20
27.54898208277098
 30
0.0
 11
407.77052891517371
 21
43.668188171816162
 31
0.0
  0
LINE
  5
AC7F
  8
0
 10
407.77052891517371
 20
27.54898208277098
 30
0.0
 11
282.77052891517383
 21
27.54898208277109
 31
0.0
  0
CIRCLE
  5
AC80
  8
0
 10
175.3005620984151
 20
319.83787644397762
 30
0.0
 40
62.499999999999929
  0
CIRCLE
  5
AC81
  8
0
 10
175.3005620984151
 20
319.83787644397762
 30
0.0
 40
55.499999999999503
  0
CIRCLE
  5
AC82
  8
0
 10
175.30056209841521
 20
319.83787644397762
 30
0.0
 40
48.499999999999901
  0
CIRCLE
  5
AC83
  8
0
 10
175.30056209841521
 20
319.83787644397762
 30
0.0
 40
41.499999999999901
  0
CIRCLE
  5
AC84
  8
0
 10
175.3005620984151
 20
319.83787644397762
 30
0.0
 40
34.999999999999829
  0
CIRCLE
  5
AC85
  8
0
 10
175.3005620984151
 20
319.83787644397762
 30
0.0
 40
20.999999999999879
  0
LINE
  5
AC86
  8
1
 10
175.3005620984151
 20
392.33787644397768
 30
0.0
 11
175.3005620984151
 21
247.33787644397759
 31
0.0
  0
LINE
  5
AC87
  8
1
 10
247.8005620984151
 20
319.83787644397762
 30
0.0
 11
102.8005620984152
 21
319.83787644397762
 31
0.0
  0
TEXT
  5
B0A7
  8
0
 62
     3
 10
0.0
 20
0.0
 30
0.0
 40
10.0
  1
LVE125L24A-SUS
  7
STANDARD1
  0
ENDSEC
  0
EOF
