  0
SECTION
  2
HEADER
  9
$ACADVER
  1
AC1009
  9
$INSBASE
 10
0.0
 20
0.0
 30
0.0
  9
$EXTMIN
 10
0.0
 20
-2.960436562073669
 30
0.0
  9
$EXTMAX
 10
433.41918749604997
 20
481.4230657389781
 30
0.0
  9
$LIMMIN
 10
0.0
 20
0.0
  9
$LIMMAX
 10
375.0
 20
270.0
  9
$ORTHOMODE
 70
     0
  9
$REGENMODE
 70
     1
  9
$FILLMODE
 70
     1
  9
$QTEXTMODE
 70
     0
  9
$MIRRTEXT
 70
     0
  9
$DRAGMODE
 70
     2
  9
$LTSCALE
 40
6.0
  9
$OSMODE
 70
  3071
  9
$ATTMODE
 70
     1
  9
$TEXTSIZE
 40
0.2
  9
$TRACEWID
 40
0.05
  9
$TEXTSTYLE
  7
STANDARD
  9
$CLAYER
  8
0
  9
$CELTYPE
  6
BYLAYER
  9
$CECOLOR
 62
   256
  9
$DIMSCALE
 40
1.0
  9
$DIMASZ
 40
3.0
  9
$DIMEXO
 40
1.0
  9
$DIMDLI
 40
6.0
  9
$DIMRND
 40
0.0
  9
$DIMDLE
 40
0.0
  9
$DIMEXE
 40
1.0
  9
$DIMTP
 40
495.0
  9
$DIMTM
 40
0.0
  9
$DIMTXT
 40
3.0
  9
$DIMCEN
 40
0.0
  9
$DIMTSZ
 40
0.0
  9
$DIMTOL
 70
     0
  9
$DIMLIM
 70
     0
  9
$DIMTIH
 70
     0
  9
$DIMTOH
 70
     0
  9
$DIMSE1
 70
     0
  9
$DIMSE2
 70
     0
  9
$DIMTAD
 70
     1
  9
$DIMZIN
 70
     0
  9
$DIMBLK
  1

  9
$DIMASO
 70
     0
  9
$DIMSHO
 70
     0
  9
$DIMPOST
  1

  9
$DIMAPOST
  1

  9
$DIMALT
 70
     0
  9
$DIMALTD
 70
     2
  9
$DIMALTF
 40
25.399999999999999
  9
$DIMLFAC
 40
1.0
  9
$DIMTOFL
 70
     1
  9
$DIMTVP
 40
0.0
  9
$DIMTIX
 70
     1
  9
$DIMSOXD
 70
     0
  9
$DIMSAH
 70
     0
  9
$DIMBLK1
  1

  9
$DIMBLK2
  1

  9
$DIMSTYLE
  2
STANDARD
  9
$DIMCLRD
 70
     0
  9
$DIMCLRE
 70
     0
  9
$DIMCLRT
 70
     4
  9
$DIMTFAC
 40
1.0
  9
$DIMGAP
 40
1.0
  9
$LUNITS
 70
     2
  9
$LUPREC
 70
     4
  9
$SKETCHINC
 40
0.1
  9
$FILLETRAD
 40
2.0
  9
$AUNITS
 70
     0
  9
$AUPREC
 70
     0
  9
$MENU
  1
C:\R13\WIN\SUPPORT\ACAD-I
  9
$ELEVATION
 40
0.0
  9
$PELEVATION
 40
0.0
  9
$THICKNESS
 40
0.0
  9
$LIMCHECK
 70
     0
  9
$BLIPMODE
 70
     0
  9
$CHAMFERA
 40
0.0
  9
$CHAMFERB
 40
0.0
  9
$SKPOLY
 70
     0
  9
$TDCREATE
 40
2451963.4663472339
  9
$TDUPDATE
 40
2456597.615077165
  9
$TDINDWG
 40
0.0655221528
  9
$TDUSRTIMER
 40
2456555.2865584609
  9
$USRTIMER
 70
     1
  9
$ANGBASE
 50
0.0
  9
$ANGDIR
 70
     0
  9
$PDMODE
 70
     0
  9
$PDSIZE
 40
0.0
  9
$PLINEWID
 40
0.0
  9
$COORDS
 70
     1
  9
$SPLFRAME
 70
     0
  9
$SPLINETYPE
 70
     6
  9
$SPLINESEGS
 70
     8
  9
$ATTDIA
 70
     0
  9
$ATTREQ
 70
     1
  9
$HANDLING
 70
     1
  9
$HANDSEED
  5
B3F6
  9
$SURFTAB1
 70
     6
  9
$SURFTAB2
 70
     6
  9
$SURFTYPE
 70
     6
  9
$SURFU
 70
     6
  9
$SURFV
 70
     6
  9
$UCSNAME
  2

  9
$UCSORG
 10
0.0
 20
0.0
 30
0.0
  9
$UCSXDIR
 10
1.0
 20
0.0
 30
0.0
  9
$UCSYDIR
 10
0.0
 20
1.0
 30
0.0
  9
$PUCSNAME
  2

  9
$PUCSORG
 10
0.0
 20
0.0
 30
0.0
  9
$PUCSXDIR
 10
1.0
 20
0.0
 30
0.0
  9
$PUCSYDIR
 10
0.0
 20
1.0
 30
0.0
  9
$USERI1
 70
     4
  9
$USERI2
 70
     1
  9
$USERI3
 70
     0
  9
$USERI4
 70
     0
  9
$USERI5
 70
     0
  9
$USERR1
 40
1.0
  9
$USERR2
 40
3.0
  9
$USERR3
 40
3.0
  9
$USERR4
 40
3.0
  9
$USERR5
 40
10.0
  9
$WORLDVIEW
 70
     1
  9
$SHADEDGE
 70
     3
  9
$SHADEDIF
 70
    70
  9
$TILEMODE
 70
     1
  9
$MAXACTVP
 70
    16
  9
$PLIMCHECK
 70
     0
  9
$PEXTMIN
 10
1.0000000000000000E+020
 20
1.0000000000000000E+020
 30
1.0000000000000000E+020
  9
$PEXTMAX
 10
-1.0000000000000000E+020
 20
-1.0000000000000000E+020
 30
-1.0000000000000000E+020
  9
$PLIMMIN
 10
0.0
 20
0.0
  9
$PLIMMAX
 10
12.0
 20
9.0
  9
$UNITMODE
 70
     0
  9
$VISRETAIN
 70
     0
  9
$PLINEGEN
 70
     0
  9
$PSLTSCALE
 70
     0
  0
ENDSEC
  0
SECTION
  2
TABLES
  0
TABLE
  2
VPORT
 70
     1
  0
VPORT
  2
*ACTIVE
 70
     0
 10
0.0
 20
0.0
 11
1.0
 21
1.0
 12
216.70959475715759
 22
240.2726739734716
 13
0.0
 23
0.0
 14
10.0
 24
10.0
 15
10.0
 25
10.0
 16
0.0
 26
0.0
 36
1.0
 17
0.0
 27
0.0
 37
0.0
 40
492.09306796774661
 41
2.304913294797688
 42
50.0
 43
0.0
 44
0.0
 50
0.0
 51
0.0
 71
    16
 72
   100
 73
     1
 74
     0
 75
     0
 76
     0
 77
     0
 78
     0
  0
ENDTAB
  0
TABLE
  2
LTYPE
 70
     3
  0
LTYPE
  2
CONTINUOUS
 70
     0
  3
Solid Line
 72
    65
 73
     0
 40
0.0
  0
LTYPE
  2
PHANTOM2
 70
     0
  3
___ _ _ ___ _ _ ___ _ _ ___ _ _
 72
    65
 73
     6
 40
1.25
 49
0.625
 49
-0.125
 49
0.125
 49
-0.125
 49
0.125
 49
-0.125
  0
LTYPE
  2
CENTER
 70
     0
  3
____ _ ____ _ ____ _ ____ _ ____ _ ____ _ ____
 72
    65
 73
     4
 40
2.0
 49
1.25
 49
-0.25
 49
0.25
 49
-0.25
  0
ENDTAB
  0
TABLE
  2
LAYER
 70
     4
  0
LAYER
  2
0
 70
     0
 62
     7
  6
CONTINUOUS
  0
LAYER
  2
1
 70
     0
 62
     1
  6
CENTER
  0
LAYER
  2
3
 70
     0
 62
     3
  6
CONTINUOUS
  0
LAYER
  2
DEFPOINTS
 70
     0
 62
     7
  6
CONTINUOUS
  0
ENDTAB
  0
TABLE
  2
STYLE
 70
     3
  0
STYLE
  2
STANDARD
 70
     0
 40
0.0
 41
1.0
 50
0.0
 71
     0
 42
0.2
  3
SIMPLEX
  4
BIGFONT
  0
STYLE
  2
ANNOTATIVE
 70
     0
 40
0.0
 41
1.0
 50
0.0
 71
     0
 42
0.2
  3
txt
  4

  0
STYLE
  2
STANDARD1
 70
     0
 40
0.0
 41
1.0
 50
0.0
 71
     0
 42
3.0
  3
txt
  4

  0
ENDTAB
  0
TABLE
  2
VIEW
 70
     0
  0
ENDTAB
  0
TABLE
  2
UCS
 70
     0
  0
ENDTAB
  0
TABLE
  2
APPID
 70
    29
  0
APPID
  2
ACAD
 70
     0
  0
APPID
  2
ACADANNOTATIVE
 70
     0
  0
APPID
  2
GENIUS_GENOREF_13
 70
     0
  0
APPID
  2
GENIUS_GENOENT_13
 70
     0
  0
APPID
  2
GENIUS_GENBH_13
 70
     0
  0
APPID
  2
GENIUS_GENOBJ_13
 70
     0
  0
APPID
  2
GENIUS_GENODEF_13
 70
     0
  0
APPID
  2
GENIUS_GENOLIS_13
 70
     0
  0
APPID
  2
GENIUS_GENOBJ-NBEHI-BHF_13
 70
     0
  0
APPID
  2
GENIUS_GENOBJ-NBEHI-BHB_13
 70
     0
  0
APPID
  2
GENIUS_GENOBJ-F-PART_13
 70
     0
  0
APPID
  2
GENIUS_GEFSTDP_13
 70
     0
  0
APPID
  2
GENIUS_GENOBJ-N-RSSYM_13
 70
     0
  0
APPID
  2
GENIUS_GENSYMENT_13
 70
     0
  0
APPID
  2
GENIUS_GENOBJ-N-TIT_13
 70
     0
  0
APPID
  2
GENIUS_GENTITLE_13
 70
     0
  0
APPID
  2
GENIUS_GENZVEED_13
 70
     0
  0
APPID
  2
GENIUS_GENOBJ-N-LEADER_13
 70
     0
  0
APPID
  2
GENIUS_GENOBJ-N-FIL_13
 70
     0
  0
APPID
  2
GENIUS_GENOBJ-N-SEC_13
 70
     0
  0
APPID
  2
GENIUS_GENOBJ-N-CRS_13
 70
     0
  0
APPID
  2
GENIUS_GENOBJ-N-ZOO_13
 70
     0
  0
APPID
  2
GENIUS_GENZOO_13
 70
     0
  0
APPID
  2
GENIUS_GENOBJ-F-TOL_13
 70
     0
  0
APPID
  2
GENIUS_GENFIL_13
 70
     0
  0
APPID
  2
GENIUS_GENOBJ-N-CHA_13
 70
     0
  0
APPID
  2
ACAD_EXEMPT_FROM_CAD_STANDARDS
 70
     0
  0
APPID
  2
ACAD_MLEADERVER
 70
     0
  0
APPID
  2
ACAD_NAV_VCDISPLAY
 70
     0
  0
ENDTAB
  0
TABLE
  2
DIMSTYLE
 70
     2
  0
DIMSTYLE
  2
STANDARD
 70
     0
  3

  4

  5

  6

  7

 40
1.0
 41
0.18
 42
0.0625
 43
0.38
 44
0.18
 45
0.0
 46
0.0
 47
0.0
 48
0.0
140
0.18
141
0.09
142
0.0
143
25.399999999999999
144
1.0
145
0.0
146
1.0
147
0.09
 71
     0
 72
     0
 73
     1
 74
     1
 75
     0
 76
     0
 77
     0
 78
     0
170
     0
171
     2
172
     0
173
     0
174
     0
175
     0
176
     0
177
     0
178
     0
  0
DIMSTYLE
  2
ANNOTATIVE
 70
     0
  3

  4

  5

  6

  7

 40
1.0
 41
0.18
 42
0.0625
 43
0.38
 44
0.18
 45
0.0
 46
0.0
 47
0.0
 48
0.0
140
0.18
141
0.09
142
0.0
143
25.399999999999999
144
1.0
145
0.0
146
1.0
147
0.09
 71
     0
 72
     0
 73
     1
 74
     1
 75
     0
 76
     0
 77
     0
 78
     0
170
     0
171
     2
172
     0
173
     0
174
     0
175
     0
176
     0
177
     0
178
     0
  0
ENDTAB
  0
ENDSEC
  0
SECTION
  2
BLOCKS
  0
BLOCK
  8
0
  2
$MODEL_SPACE
 70
     0
 10
0.0
 20
0.0
 30
0.0
  3
$MODEL_SPACE
  1

  0
ENDBLK
  5
B318
  8
0
  0
BLOCK
 67
     1
  8
0
  2
$PAPER_SPACE
 70
     0
 10
0.0
 20
0.0
 30
0.0
  3
$PAPER_SPACE
  1

  0
ENDBLK
  5
B314
 67
     1
  8
0
  0
ENDSEC
  0
SECTION
  2
ENTITIES
  0
CIRCLE
  5
AEFB
  8
3
 10
200.9492206792913
 20
408.92306573897832
 30
0.0
 40
10.375999999999999
  0
CIRCLE
  5
AEFC
  8
0
 10
200.9492206792913
 20
408.92306573897832
 30
0.0
 40
12.0
  0
CIRCLE
  5
AEFD
  8
0
 10
200.9492206792913
 20
408.92306573897832
 30
0.0
 40
17.0
  0
LINE
  5
AEFE
  8
0
 10
190.5569158423308
 20
426.92306572432739
 30
0.0
 11
211.3415255331561
 21
426.92306572432739
 31
0.0
  0
LINE
  5
AEFF
  8
0
 10
211.34152551624859
 20
426.92306572431278
 30
0.0
 11
221.73383036166479
 21
408.9230657243271
 31
0.0
  0
LINE
  5
AF00
  8
0
 10
221.73383035319191
 20
408.92306573898099
 30
0.0
 11
211.34152550778299
 21
390.92306573898122
 31
0.0
  0
LINE
  5
AF01
  8
0
 10
211.3415255162376
 20
390.92306575363489
 30
0.0
 11
190.55691582541249
 21
390.92306575363489
 31
0.0
  0
LINE
  5
AF02
  8
0
 10
190.5569158423327
 20
390.92306575363489
 30
0.0
 11
180.16461099691651
 21
408.92306575363477
 31
0.0
  0
LINE
  5
AF03
  8
0
 10
180.1646110053893
 20
408.92306573898099
 30
0.0
 11
190.5569158507983
 21
426.92306573898111
 31
0.0
  0
CIRCLE
  5
AF04
  8
0
 10
200.9492206792913
 20
408.92306573897832
 30
0.0
 40
62.499999999999929
  0
CIRCLE
  5
AF05
  8
0
 10
200.9492206792913
 20
408.92306573897832
 30
0.0
 40
55.499999999999503
  0
CIRCLE
  5
AF06
  8
0
 10
200.9492206792913
 20
408.92306573897832
 30
0.0
 40
48.499999999999901
  0
CIRCLE
  5
AF07
  8
0
 10
200.9492206792913
 20
408.92306573897832
 30
0.0
 40
41.499999999999901
  0
CIRCLE
  5
AF08
  8
0
 10
200.9492206792913
 20
408.92306573897832
 30
0.0
 40
34.999999999999829
  0
CIRCLE
  5
AF09
  8
0
 10
200.9492206792913
 20
408.92306573897832
 30
0.0
 40
20.999999999999879
  0
LINE
  5
AF0A
  8
1
 10
200.9492206792913
 20
481.4230657389781
 30
0.0
 11
200.9492206792913
 21
336.42306573897838
 31
0.0
  0
LINE
  5
AF0B
  8
1
 10
273.4492206792911
 20
408.92306573897832
 30
0.0
 11
128.4492206792913
 21
408.92306573897832
 31
0.0
  0
ARC
  5
AF0C
  8
0
 10
370.9191874960502
 20
84.050174019464436
 30
0.0
 40
12.25
 50
20.655369424003862
 51
46.062160114253821
  0
ARC
  5
AF0D
  8
0
 10
370.9191874960502
 20
84.050174019464436
 30
0.0
 40
12.25
 50
133.93783988574609
 51
159.34463057599609
  0
LINE
  5
AF0E
  8
0
 10
362.4191874960502
 20
99.371313401666995
 30
0.0
 11
362.4191874960502
 21
92.871313401681093
 31
0.0
  0
LINE
  5
AF0F
  8
0
 10
379.4191874960502
 20
99.371313401666995
 30
0.0
 11
379.4191874960502
 21
92.871313401652927
 31
0.0
  0
LINE
  5
AF10
  8
0
 10
361.9191874960502
 20
307.37131340172448
 30
0.0
 11
379.9191874960502
 21
307.37131340172431
 31
0.0
  0
LINE
  5
AF11
  8
0
 10
382.9191874960502
 20
109.0826382670793
 30
0.0
 11
382.9191874960502
 21
133.37131340172431
 31
0.0
  0
LINE
  5
AF12
  8
3
 10
381.29518749605018
 20
114.3713134017209
 30
0.0
 11
381.29518749605018
 21
133.37131340172411
 31
0.0
  0
LINE
  5
AF13
  8
3
 10
360.54318749605028
 20
114.3713134017209
 30
0.0
 11
360.54318749605028
 21
133.37131340172431
 31
0.0
  0
LINE
  5
AF14
  8
0
 10
358.9191874960502
 20
109.0826382670172
 30
0.0
 11
358.9191874960502
 21
133.37131340172431
 31
0.0
  0
LINE
  5
AF15
  8
0
 10
358.9191874960502
 20
304.37131340172482
 30
0.0
 11
361.9191874960502
 21
307.37131340172448
 31
0.0
  0
LINE
  5
AF16
  8
0
 10
379.9191874960502
 20
307.37131340172431
 30
0.0
 11
382.9191874960502
 21
304.37131340172431
 31
0.0
  0
LINE
  5
AF17
  8
0
 10
358.9191874960502
 20
304.37131340172482
 30
0.0
 11
382.9191874960502
 21
304.37131340172431
 31
0.0
  0
LINE
  5
AF18
  8
0
 10
382.9191874960502
 20
114.3713134017209
 30
0.0
 11
358.9191874960502
 21
114.3713134017209
 31
0.0
  0
LINE
  5
AF19
  8
3
 10
360.54318749605028
 20
114.3713134017209
 30
0.0
 11
358.9191874960502
 21
111.55846289022899
 31
0.0
  0
LINE
  5
AF1A
  8
3
 10
381.29518749605018
 20
114.3713134017209
 30
0.0
 11
382.9191874960502
 21
111.55846289022899
 31
0.0
  0
LINE
  5
AF1B
  8
0
 10
382.41918749599631
 20
99.371313401705294
 30
0.0
 11
359.41918749621192
 21
99.371313401705294
 31
0.0
  0
LINE
  5
AF1C
  8
0
 10
359.41918749610397
 20
109.37131340170519
 30
0.0
 11
382.41918749599631
 21
109.37131340170519
 31
0.0
  0
ARC
  5
AF1D
  8
0
 10
381.31149234151758
 20
102.9486636714196
 30
0.0
 40
6.1339745957208196
 50
64.384247469840219
 51
124.3842474712083
  0
LINE
  5
AF1E
  8
0
 10
384.77559395667708
 20
108.01084149731111
 30
0.0
 11
382.41918749599631
 21
109.37131340170519
 31
0.0
  0
LINE
  5
AF1F
  8
0
 10
384.77559395667708
 20
100.7317853060995
 30
0.0
 11
382.41918749599631
 21
99.371313401705294
 31
0.0
  0
ARC
  5
AF20
  8
0
 10
381.31149234151758
 20
105.79396313199101
 30
0.0
 40
6.1339745957208196
 50
235.6157525287887
 51
295.61575253015963
  0
LINE
  5
AF21
  8
0
 10
384.77559395665531
 20
108.01084149731111
 30
0.0
 11
384.77559395665531
 21
100.73178530608681
 31
0.0
  0
LINE
  5
AF22
  8
0
 10
377.8473907263795
 20
108.01084149731111
 30
0.0
 11
377.8473907263795
 21
100.7317853060995
 31
0.0
  0
LINE
  5
AF23
  8
0
 10
363.99098426582879
 20
108.01084149731111
 30
0.0
 11
363.99098426582879
 21
100.7317853060995
 31
0.0
  0
LINE
  5
AF24
  8
0
 10
357.06278103555292
 20
108.01084149731111
 30
0.0
 11
357.06278103555292
 21
100.73178530608681
 31
0.0
  0
ARC
  5
AF25
  8
0
 10
370.91918749610397
 20
122.5881917644098
 30
0.0
 40
22.928203228139491
 50
252.41204622431439
 51
287.58795377568561
  0
ARC
  5
AF26
  8
0
 10
360.5268826506906
 20
105.79396313199101
 30
0.0
 40
6.1339745957208196
 50
244.3842474698402
 51
304.38424747121132
  0
LINE
  5
AF27
  8
0
 10
357.06278103553109
 20
100.7317853060995
 30
0.0
 11
359.41918749621192
 21
99.371313401705294
 31
0.0
  0
LINE
  5
AF28
  8
0
 10
357.06278103553109
 20
108.01084149731111
 30
0.0
 11
359.41918749621192
 21
109.37131340170519
 31
0.0
  0
ARC
  5
AF29
  8
0
 10
360.5268826506906
 20
102.9486636714196
 30
0.0
 40
6.1339745957208196
 50
55.615752528791617
 51
115.6157525301596
  0
ARC
  5
AF2A
  8
0
 10
370.91918749610397
 20
86.154435039000944
 30
0.0
 40
22.928203228139491
 50
72.412046224314381
 51
107.58795377568561
  0
LINE
  5
AF2B
  8
0
 10
362.4191874960502
 20
92.871313401652927
 30
0.0
 11
379.4191874960502
 21
92.871313401652927
 31
0.0
  0
LINE
  5
AF2C
  8
0
 10
352.91918751070108
 20
151.79396314099299
 30
0.0
 11
352.91918751070108
 21
133.94866366245509
 31
0.0
  0
LINE
  5
AF2D
  8
0
 10
353.91918749605043
 20
152.371313401724
 30
0.0
 11
352.91918751070108
 21
151.79396314099299
 31
0.0
  0
ARC
  5
AF2E
  8
0
 10
361.9191875033755
 20
125.7987726336809
 30
0.0
 40
25.995190507312159
 50
69.743841999652659
 51
110.2561580003471
  0
ARC
  5
AF2F
  8
0
 10
361.9191875033755
 20
159.94385416976709
 30
0.0
 40
25.995190507312159
 50
249.74384199965269
 51
290.25615800034723
  0
LINE
  5
AF30
  8
0
 10
353.91918749605043
 20
133.37131340172411
 30
0.0
 11
352.91918751070108
 21
133.94866366245509
 31
0.0
  0
LINE
  5
AF31
  8
0
 10
387.91918749604997
 20
133.37131340172411
 30
0.0
 11
388.91918748139892
 21
133.94866366245509
 31
0.0
  0
ARC
  5
AF32
  8
0
 10
379.91918748872467
 20
159.94385416976709
 30
0.0
 40
25.995190507312159
 50
249.74384199965269
 51
290.25615800034723
  0
ARC
  5
AF33
  8
0
 10
379.91918748872467
 20
125.7987726336809
 30
0.0
 40
25.995190507312159
 50
69.743841999652659
 51
110.2561580003471
  0
LINE
  5
AF34
  8
0
 10
387.91918749604997
 20
152.371313401724
 30
0.0
 11
388.91918748139892
 21
151.79396314099299
 31
0.0
  0
LINE
  5
AF35
  8
0
 10
353.91918749605043
 20
152.371313401724
 30
0.0
 11
387.91918749604997
 21
152.371313401724
 31
0.0
  0
LINE
  5
AF36
  8
0
 10
388.91918748139892
 20
151.79396314099299
 30
0.0
 11
388.91918748139892
 21
133.94866366245509
 31
0.0
  0
LINE
  5
AF37
  8
0
 10
353.91918749605043
 20
133.37131340172411
 30
0.0
 11
387.91918749604997
 21
133.37131340172411
 31
0.0
  0
LINE
  5
AF38
  8
0
 10
370.9191874960502
 20
150.18626798772081
 30
0.0
 11
370.9191874960502
 21
135.55635881572761
 31
0.0
  0
LINE
  5
AF39
  8
0
 10
382.9191874960502
 20
152.371313401724
 30
0.0
 11
382.9191874960502
 21
304.37131340172431
 31
0.0
  0
LINE
  5
AF3A
  8
3
 10
381.29518749605018
 20
152.371313401724
 30
0.0
 11
381.29518749605018
 21
305.99531340172422
 31
0.0
  0
LINE
  5
AF3B
  8
0
 10
358.9191874960502
 20
152.371313401724
 30
0.0
 11
358.9191874960502
 21
304.37131340172482
 31
0.0
  0
LINE
  5
AF3C
  8
3
 10
360.54318749605028
 20
152.3713134017238
 30
0.0
 11
360.54318749605028
 21
305.9953134017245
 31
0.0
  0
ARC
  5
AF3D
  8
0
 10
200.9492206792915
 20
84.050174019464436
 30
0.0
 40
12.25
 50
20.655369424003862
 51
46.062160114253821
  0
LINE
  5
AF3E
  8
3
 10
211.3252206792915
 20
114.3713134017209
 30
0.0
 11
212.94922067929161
 21
111.55846289022899
 31
0.0
  0
LINE
  5
AF3F
  8
3
 10
190.57322067929161
 20
114.3713134017209
 30
0.0
 11
188.9492206792915
 21
111.55846289022899
 31
0.0
  0
LINE
  5
AF40
  8
0
 10
212.94922067929161
 20
114.3713134017209
 30
0.0
 11
188.9492206792915
 21
114.3713134017209
 31
0.0
  0
LINE
  5
AF41
  8
0
 10
188.9492206792915
 20
304.37131340172482
 30
0.0
 11
212.94922067929161
 21
304.37131340172431
 31
0.0
  0
LINE
  5
AF42
  8
0
 10
209.94922067929161
 20
307.37131340172431
 30
0.0
 11
212.94922067929161
 21
304.37131340172431
 31
0.0
  0
LINE
  5
AF43
  8
0
 10
188.9492206792915
 20
304.37131340172482
 30
0.0
 11
191.9492206792915
 21
307.37131340172448
 31
0.0
  0
LINE
  5
AF44
  8
0
 10
188.9492206792915
 20
109.0826382671106
 30
0.0
 11
188.9492206792915
 21
133.3713134017238
 31
0.0
  0
LINE
  5
AF45
  8
3
 10
190.57322067929161
 20
114.3713134017209
 30
0.0
 11
190.57322067929161
 21
133.37131340172411
 31
0.0
  0
LINE
  5
AF46
  8
3
 10
211.3252206792915
 20
114.3713134017209
 30
0.0
 11
211.3252206792915
 21
133.3713134017238
 31
0.0
  0
LINE
  5
AF47
  8
0
 10
212.94922067929161
 20
109.08263826714889
 30
0.0
 11
212.94922067929161
 21
133.3713134017238
 31
0.0
  0
LINE
  5
AF48
  8
0
 10
191.9492206792915
 20
307.37131340172448
 30
0.0
 11
209.94922067929161
 21
307.37131340172431
 31
0.0
  0
LINE
  5
AF49
  8
0
 10
209.4492206792915
 20
99.371313401666995
 30
0.0
 11
209.4492206792915
 21
92.871313401652927
 31
0.0
  0
LINE
  5
AF4A
  8
0
 10
192.4492206792915
 20
99.371313401666995
 30
0.0
 11
192.4492206792915
 21
92.871313401681093
 31
0.0
  0
LINE
  5
AF4B
  8
0
 10
212.4492206793247
 20
99.371313401647683
 30
0.0
 11
189.4492206792583
 21
99.371313401686137
 31
0.0
  0
LINE
  5
AF4C
  8
0
 10
189.4492206792583
 20
109.37131340168609
 30
0.0
 11
212.4492206793247
 21
109.37131340172451
 31
0.0
  0
ARC
  5
AF4D
  8
0
 10
194.9492206793247
 20
91.752511249787347
 30
0.0
 40
17.330127017333279
 50
69.743841997632984
 51
110.256158002367
  0
LINE
  5
AF4E
  8
0
 10
188.94922067930969
 20
109.0826382671211
 30
0.0
 11
189.4492206793247
 21
109.37131340172451
 31
0.0
  0
LINE
  5
AF4F
  8
0
 10
188.94922067930969
 20
99.659988536251092
 30
0.0
 11
189.4492206793247
 21
99.371313401647683
 31
0.0
  0
ARC
  5
AF50
  8
0
 10
194.9492206793247
 20
116.9901155535844
 30
0.0
 40
17.330127017333279
 50
249.7438419976329
 51
290.25615800236699
  0
LINE
  5
AF51
  8
0
 10
188.94922067930969
 20
109.0826382671211
 30
0.0
 11
188.9492206793247
 21
99.659988536242452
 31
0.0
  0
LINE
  5
AF52
  8
0
 10
200.94922067932481
 20
100.7317853060803
 30
0.0
 11
200.94922067932481
 21
108.01084149729191
 31
0.0
  0
LINE
  5
AF53
  8
0
 10
212.9492206793397
 20
109.0826382671211
 30
0.0
 11
212.9492206793247
 21
99.659988536242452
 31
0.0
  0
ARC
  5
AF54
  8
0
 10
206.94922067932481
 20
116.9901155535844
 30
0.0
 40
17.330127017333279
 50
249.7438419976329
 51
290.25615800236699
  0
LINE
  5
AF55
  8
0
 10
212.9492206793397
 20
99.659988536251092
 30
0.0
 11
212.4492206793247
 21
99.371313401647683
 31
0.0
  0
LINE
  5
AF56
  8
0
 10
212.9492206793397
 20
109.0826382671211
 30
0.0
 11
212.4492206793247
 21
109.37131340172451
 31
0.0
  0
ARC
  5
AF57
  8
0
 10
206.94922067932481
 20
91.752511249787347
 30
0.0
 40
17.330127017333279
 50
69.743841997632984
 51
110.256158002367
  0
ARC
  5
AF58
  8
0
 10
200.9492206792915
 20
84.050174019464436
 30
0.0
 40
12.25
 50
133.93783988555731
 51
159.34463057599609
  0
LINE
  5
AF59
  8
0
 10
192.4492206792915
 20
92.871313401681093
 30
0.0
 11
209.4492206792915
 21
92.871313401652927
 31
0.0
  0
LINE
  5
AF5A
  8
0
 10
221.7338303531908
 20
150.18626798772081
 30
0.0
 11
221.7338303531908
 21
135.55635881572761
 31
0.0
  0
LINE
  5
AF5B
  8
0
 10
217.9492206792915
 20
152.371313401724
 30
0.0
 11
221.7338303531908
 21
150.18626798772081
 31
0.0
  0
ARC
  5
AF5C
  8
0
 10
216.5376779347157
 20
142.59300125413941
 30
0.0
 40
9.2009618868538041
 50
64.384247467929271
 51
124.38424746793859
  0
ARC
  5
AF5D
  8
0
 10
216.5376779347157
 20
143.14962554930881
 30
0.0
 40
9.2009618868538041
 50
235.61575253206149
 51
295.6157525320707
  0
LINE
  5
AF5E
  8
0
 10
217.9492206792915
 20
133.37131340172411
 30
0.0
 11
221.7338303531908
 21
135.55635881572761
 31
0.0
  0
LINE
  5
AF5F
  8
0
 10
183.9492206792915
 20
133.37131340172411
 30
0.0
 11
180.1646110053922
 21
135.55635881572761
 31
0.0
  0
ARC
  5
AF60
  8
0
 10
185.36076342386721
 20
143.14962554930881
 30
0.0
 40
9.2009618868538041
 50
244.3842474679293
 51
304.38424746793862
  0
ARC
  5
AF61
  8
0
 10
200.9492206792936
 20
168.34096847997191
 30
0.0
 40
34.392304817516766
 50
252.41204622606611
 51
287.58795377393392
  0
ARC
  5
AF62
  8
0
 10
185.36076342386721
 20
142.59300125413941
 30
0.0
 40
9.2009618868538041
 50
55.61575253206135
 51
115.6157525320707
  0
ARC
  5
AF63
  8
0
 10
200.9492206792936
 20
117.4016583234763
 30
0.0
 40
34.392304817516766
 50
72.412046226066053
 51
107.5879537739339
  0
LINE
  5
AF64
  8
0
 10
211.3415255162447
 20
150.18626798772081
 30
0.0
 11
211.3415255162447
 21
135.55635881572761
 31
0.0
  0
LINE
  5
AF65
  8
0
 10
190.55691584234239
 20
150.18626798772081
 30
0.0
 11
190.55691584234239
 21
135.55635881572761
 31
0.0
  0
LINE
  5
AF66
  8
0
 10
183.9492206792915
 20
152.371313401724
 30
0.0
 11
180.1646110053922
 21
150.18626798772081
 31
0.0
  0
LINE
  5
AF67
  8
0
 10
180.1646110053922
 20
150.18626798772081
 30
0.0
 11
180.1646110053922
 21
135.55635881572761
 31
0.0
  0
LINE
  5
AF68
  8
0
 10
183.9492206792915
 20
133.37131340172411
 30
0.0
 11
217.9492206792915
 21
133.37131340172411
 31
0.0
  0
LINE
  5
AF69
  8
0
 10
183.9492206792917
 20
152.371313401724
 30
0.0
 11
217.9492206792915
 21
152.371313401724
 31
0.0
  0
LINE
  5
AF6A
  8
0
 10
212.94922067929161
 20
152.371313401724
 30
0.0
 11
212.94922067929161
 21
304.37131340172431
 31
0.0
  0
LINE
  5
AF6B
  8
3
 10
211.3252206792915
 20
152.371313401724
 30
0.0
 11
211.3252206792915
 21
305.99531340172422
 31
0.0
  0
LINE
  5
AF6C
  8
3
 10
190.57322067929161
 20
152.371313401724
 30
0.0
 11
190.57322067929161
 21
305.9953134017245
 31
0.0
  0
LINE
  5
AF6D
  8
0
 10
188.9492206792915
 20
152.3713134017238
 30
0.0
 11
188.9492206792915
 21
304.37131340172482
 31
0.0
  0
LINE
  5
AF7D
  8
0
 10
263.44922067929127
 20
42.371313401724407
 30
0.0
 11
138.4492206792915
 21
42.371313401724521
 31
0.0
  0
LINE
  5
AF7E
  8
0
 10
263.44922067929127
 20
42.371313401724407
 30
0.0
 11
263.4492206792915
 21
58.490519490769607
 31
0.0
  0
LINE
  5
AF81
  8
0
 10
221.9492206792915
 20
88.371313401724422
 30
0.0
 11
179.9492206792915
 21
88.371313401724422
 31
0.0
  0
LINE
  5
AF82
  8
DEFPOINTS
 10
221.9492206792915
 20
88.371313401724422
 30
0.0
 11
235.9492206792913
 21
66.371313401724422
 31
0.0
  0
LINE
  5
AF83
  8
DEFPOINTS
 10
235.9492206792913
 20
66.371313401724422
 30
0.0
 11
241.69589995992629
 21
64.908522312108232
 31
0.0
  0
LINE
  5
AF84
  8
DEFPOINTS
 10
256.44922067929127
 20
60.262222492633498
 30
0.0
 11
256.44922067929127
 21
60.272337672587739
 31
0.0
  0
LINE
  5
AF85
  8
DEFPOINTS
 10
249.4492206792913
 20
62.044040674451637
 30
0.0
 11
249.4492206792913
 21
62.054155854405899
 31
0.0
  0
LINE
  5
AF86
  8
DEFPOINTS
 10
242.4492206792913
 20
63.82585885626991
 30
0.0
 11
242.4492206792913
 21
63.939425138185292
 31
0.0
  0
LINE
  5
AF87
  8
DEFPOINTS
 10
262.57547495896551
 20
59.482517402493222
 30
0.0
 11
256.44922067929127
 21
60.262222492633498
 31
0.0
  0
LINE
  5
AF88
  8
DEFPOINTS
 10
255.5754749589652
 20
61.264335584311368
 30
0.0
 11
249.4492206792913
 21
62.044040674451637
 31
0.0
  0
LINE
  5
AF89
  8
DEFPOINTS
 10
248.57547495896529
 20
63.046153766129521
 30
0.0
 11
242.4492206792913
 21
63.82585885626991
 31
0.0
  0
ARC
  5
AF8A
  8
DEFPOINTS
 10
241.4492206792913
 20
63.939425138185292
 30
0.0
 40
1.0
 50
0.0
 51
75.71890426402905
  0
ARC
  5
AF8B
  8
DEFPOINTS
 10
248.4492206792913
 20
62.054155854405899
 30
0.0
 40
1.0
 50
0.0
 51
82.746805387274634
  0
ARC
  5
AF8C
  8
DEFPOINTS
 10
255.4492206792913
 20
60.272337672587739
 30
0.0
 40
1.0
 50
0.0000000000016284
 51
82.746805387274634
  0
ARC
  5
AF8D
  8
DEFPOINTS
 10
262.44922067929161
 20
58.490519490769607
 30
0.0
 40
1.0
 50
359.9999999999992
 51
82.746805387274634
  0
LINE
  5
AF8E
  8
DEFPOINTS
 10
256.44922067929127
 20
60.262222492633498
 30
0.0
 11
145.44922067929241
 21
60.262222492633612
 31
0.0
  0
LINE
  5
AF8F
  8
DEFPOINTS
 10
249.4492206792913
 20
62.044040674451637
 30
0.0
 11
152.44922067929221
 21
62.044040674451757
 31
0.0
  0
LINE
  5
AF90
  8
DEFPOINTS
 10
242.4492206792913
 20
63.82585885626991
 30
0.0
 11
159.44922067929221
 21
63.82585885626991
 31
0.0
  0
LINE
  5
AF91
  8
DEFPOINTS
 10
235.9492206792913
 20
66.371313401724422
 30
0.0
 11
165.94922067929181
 21
66.371313401724535
 31
0.0
  0
ARC
  5
AF92
  8
DEFPOINTS
 10
139.4492206792913
 20
58.490519490769607
 30
0.0
 40
1.0
 50
97.253194612725352
 51
180.0000000000008
  0
ARC
  5
AF93
  8
DEFPOINTS
 10
146.4492206792915
 20
60.272337672587739
 30
0.0
 40
1.0
 50
97.253194612725352
 51
179.99999999999841
  0
ARC
  5
AF94
  8
DEFPOINTS
 10
153.4492206792915
 20
62.054155854405899
 30
0.0
 40
1.0
 50
97.253194612725352
 51
180.0
  0
ARC
  5
AF95
  8
DEFPOINTS
 10
160.4492206792915
 20
63.939425138185292
 30
0.0
 40
1.0
 50
104.28109573597089
 51
180.0
  0
LINE
  5
AF96
  8
DEFPOINTS
 10
153.3229663996176
 20
63.046153766129521
 30
0.0
 11
159.4492206792915
 21
63.82585885626991
 31
0.0
  0
LINE
  5
AF97
  8
DEFPOINTS
 10
146.3229663996176
 20
61.264335584311368
 30
0.0
 11
152.4492206792915
 21
62.044040674451637
 31
0.0
  0
LINE
  5
AF98
  8
DEFPOINTS
 10
139.32296639961729
 20
59.482517402493222
 30
0.0
 11
145.4492206792915
 21
60.262222492633498
 31
0.0
  0
LINE
  5
AF99
  8
DEFPOINTS
 10
159.4492206792915
 20
63.82585885626991
 30
0.0
 11
159.4492206792915
 21
63.939425138185292
 31
0.0
  0
LINE
  5
AF9A
  8
DEFPOINTS
 10
152.4492206792915
 20
62.044040674451637
 30
0.0
 11
152.4492206792915
 21
62.054155854405899
 31
0.0
  0
LINE
  5
AF9B
  8
DEFPOINTS
 10
145.4492206792915
 20
60.262222492633498
 30
0.0
 11
145.4492206792915
 21
60.272337672587739
 31
0.0
  0
LINE
  5
AF9C
  8
DEFPOINTS
 10
165.9492206792915
 20
66.371313401724422
 30
0.0
 11
160.20254139865659
 21
64.908522312108232
 31
0.0
  0
LINE
  5
AF9D
  8
DEFPOINTS
 10
179.9492206792915
 20
88.371313401724422
 30
0.0
 11
165.9492206792915
 21
66.371313401724422
 31
0.0
  0
LINE
  5
AF9F
  8
0
 10
138.4492206792915
 20
42.371313401724407
 30
0.0
 11
138.4492206792913
 21
58.490519490769607
 31
0.0
  0
LINE
  5
AFA1
  8
1
 10
200.9492206792915
 20
32.371313401724478
 30
0.0
 11
200.9492206792915
 21
317.37131340172448
 31
0.0
  0
LINE
  5
AFA2
  8
1
 10
370.9191874960502
 20
32.371313401724478
 30
0.0
 11
370.9191874960502
 21
317.37131340172448
 31
0.0
  0
LINE
  5
AFA4
  8
0
 10
308.4191874960502
 20
42.371313401724407
 30
0.0
 11
308.41918749604997
 21
58.490519490769607
 31
0.0
  0
LINE
  5
AFA6
  8
DEFPOINTS
 10
349.9191874960502
 20
88.371313401724422
 30
0.0
 11
335.9191874960502
 21
66.371313401724422
 31
0.0
  0
LINE
  5
AFA7
  8
DEFPOINTS
 10
335.9191874960502
 20
66.371313401724422
 30
0.0
 11
330.17250821541529
 21
64.908522312108232
 31
0.0
  0
LINE
  5
AFA8
  8
DEFPOINTS
 10
315.4191874960502
 20
60.262222492633498
 30
0.0
 11
315.4191874960502
 21
60.272337672587739
 31
0.0
  0
LINE
  5
AFA9
  8
DEFPOINTS
 10
322.4191874960502
 20
62.044040674451637
 30
0.0
 11
322.4191874960502
 21
62.054155854405899
 31
0.0
  0
LINE
  5
AFAA
  8
DEFPOINTS
 10
329.4191874960502
 20
63.82585885626991
 30
0.0
 11
329.4191874960502
 21
63.939425138185292
 31
0.0
  0
LINE
  5
AFAB
  8
DEFPOINTS
 10
309.29293321637601
 20
59.482517402493222
 30
0.0
 11
315.4191874960502
 21
60.262222492633498
 31
0.0
  0
LINE
  5
AFAC
  8
DEFPOINTS
 10
316.29293321637618
 20
61.264335584311368
 30
0.0
 11
322.4191874960502
 21
62.044040674451637
 31
0.0
  0
LINE
  5
AFAD
  8
DEFPOINTS
 10
323.2929332163763
 20
63.046153766129521
 30
0.0
 11
329.4191874960502
 21
63.82585885626991
 31
0.0
  0
ARC
  5
AFAE
  8
DEFPOINTS
 10
330.4191874960502
 20
63.939425138185292
 30
0.0
 40
1.0
 50
104.28109573597089
 51
180.0
  0
ARC
  5
AFAF
  8
DEFPOINTS
 10
323.4191874960502
 20
62.054155854405899
 30
0.0
 40
1.0
 50
97.253194612725352
 51
180.0
  0
ARC
  5
AFB0
  8
DEFPOINTS
 10
316.4191874960502
 20
60.272337672587739
 30
0.0
 40
1.0
 50
97.253194612725352
 51
179.99999999999841
  0
ARC
  5
AFB1
  8
DEFPOINTS
 10
309.41918749604997
 20
58.490519490769607
 30
0.0
 40
1.0
 50
97.253194612725352
 51
180.0000000000008
  0
LINE
  5
AFB2
  8
DEFPOINTS
 10
405.91918749604991
 20
66.371313401724422
 30
0.0
 11
335.91918749605043
 21
66.371313401724535
 31
0.0
  0
LINE
  5
AFB3
  8
DEFPOINTS
 10
412.41918749604997
 20
63.82585885626991
 30
0.0
 11
329.41918749605088
 21
63.82585885626991
 31
0.0
  0
LINE
  5
AFB4
  8
DEFPOINTS
 10
419.41918749604991
 20
62.044040674451637
 30
0.0
 11
322.41918749605088
 21
62.044040674451757
 31
0.0
  0
LINE
  5
AFB5
  8
DEFPOINTS
 10
426.41918749604991
 20
60.262222492633498
 30
0.0
 11
315.41918749605122
 21
60.262222492633612
 31
0.0
  0
ARC
  5
AFB6
  8
DEFPOINTS
 10
432.41918749604991
 20
58.490519490769607
 30
0.0
 40
1.0
 50
359.9999999999992
 51
82.746805387274634
  0
ARC
  5
AFB7
  8
DEFPOINTS
 10
425.41918749604997
 20
60.272337672587739
 30
0.0
 40
1.0
 50
0.0000000000016284
 51
82.746805387274634
  0
ARC
  5
AFB8
  8
DEFPOINTS
 10
418.41918749604991
 20
62.054155854405899
 30
0.0
 40
1.0
 50
0.0
 51
82.746805387274634
  0
ARC
  5
AFB9
  8
DEFPOINTS
 10
411.41918749604991
 20
63.939425138185292
 30
0.0
 40
1.0
 50
0.0
 51
75.71890426402905
  0
LINE
  5
AFBA
  8
DEFPOINTS
 10
418.54544177572387
 20
63.046153766129521
 30
0.0
 11
412.41918749604997
 21
63.82585885626991
 31
0.0
  0
LINE
  5
AFBB
  8
DEFPOINTS
 10
425.54544177572387
 20
61.264335584311368
 30
0.0
 11
419.41918749604991
 21
62.044040674451637
 31
0.0
  0
LINE
  5
AFBC
  8
DEFPOINTS
 10
432.54544177572387
 20
59.482517402493222
 30
0.0
 11
426.41918749604991
 21
60.262222492633498
 31
0.0
  0
LINE
  5
AFBD
  8
DEFPOINTS
 10
412.41918749604997
 20
63.82585885626991
 30
0.0
 11
412.41918749604997
 21
63.939425138185292
 31
0.0
  0
LINE
  5
AFBE
  8
DEFPOINTS
 10
419.41918749604991
 20
62.044040674451637
 30
0.0
 11
419.41918749604991
 21
62.054155854405899
 31
0.0
  0
LINE
  5
AFBF
  8
DEFPOINTS
 10
426.41918749604991
 20
60.262222492633498
 30
0.0
 11
426.41918749604991
 21
60.272337672587739
 31
0.0
  0
LINE
  5
AFC0
  8
DEFPOINTS
 10
405.91918749604991
 20
66.371313401724422
 30
0.0
 11
411.66586677668488
 21
64.908522312108232
 31
0.0
  0
LINE
  5
AFC1
  8
DEFPOINTS
 10
391.91918749605009
 20
88.371313401724422
 30
0.0
 11
405.91918749604991
 21
66.371313401724422
 31
0.0
  0
LINE
  5
AFC2
  8
0
 10
391.91918749605009
 20
88.371313401724422
 30
0.0
 11
349.9191874960502
 21
88.371313401724422
 31
0.0
  0
LINE
  5
AFC4
  8
0
 10
433.41918749604997
 20
42.371313401724407
 30
0.0
 11
433.41918749604997
 21
58.490519490769607
 31
0.0
  0
LINE
  5
AFC5
  8
0
 10
433.41918749604997
 20
42.371313401724407
 30
0.0
 11
308.4191874960502
 21
42.371313401724521
 31
0.0
  0
TEXT
  5
B399
  8
0
 62
     3
 10
0.0
 20
0.0
 30
0.0
 40
10.0
  1
LVE125L24C-SUS
  7
STANDARD1
  0
ENDSEC
  0
EOF
