  0
SECTION
  2
HEADER
  9
$ACADVER
  1
AC1009
  9
$INSBASE
 10
0.0
 20
0.0
 30
0.0
  9
$EXTMIN
 10
0.0
 20
-2.960436562073669
 30
0.0
  9
$EXTMAX
 10
454.13376243973829
 20
491.08031976009681
 30
0.0
  9
$LIMMIN
 10
0.0
 20
0.0
  9
$LIMMAX
 10
375.0
 20
270.0
  9
$ORTHOMODE
 70
     1
  9
$REGENMODE
 70
     1
  9
$FILLMODE
 70
     1
  9
$QTEXTMODE
 70
     0
  9
$MIRRTEXT
 70
     0
  9
$DRAGMODE
 70
     2
  9
$LTSCALE
 40
6.0
  9
$OSMODE
 70
  3071
  9
$ATTMODE
 70
     1
  9
$TEXTSIZE
 40
0.2
  9
$TRACEWID
 40
0.05
  9
$TEXTSTYLE
  7
STANDARD
  9
$CLAYER
  8
0
  9
$CELTYPE
  6
BYLAYER
  9
$CECOLOR
 62
   256
  9
$DIMSCALE
 40
1.0
  9
$DIMASZ
 40
3.0
  9
$DIMEXO
 40
1.0
  9
$DIMDLI
 40
6.0
  9
$DIMRND
 40
0.0
  9
$DIMDLE
 40
0.0
  9
$DIMEXE
 40
1.0
  9
$DIMTP
 40
495.0
  9
$DIMTM
 40
0.0
  9
$DIMTXT
 40
3.0
  9
$DIMCEN
 40
0.0
  9
$DIMTSZ
 40
0.0
  9
$DIMTOL
 70
     0
  9
$DIMLIM
 70
     0
  9
$DIMTIH
 70
     0
  9
$DIMTOH
 70
     0
  9
$DIMSE1
 70
     0
  9
$DIMSE2
 70
     0
  9
$DIMTAD
 70
     1
  9
$DIMZIN
 70
     0
  9
$DIMBLK
  1

  9
$DIMASO
 70
     0
  9
$DIMSHO
 70
     0
  9
$DIMPOST
  1

  9
$DIMAPOST
  1

  9
$DIMALT
 70
     0
  9
$DIMALTD
 70
     2
  9
$DIMALTF
 40
25.399999999999999
  9
$DIMLFAC
 40
1.0
  9
$DIMTOFL
 70
     1
  9
$DIMTVP
 40
0.0
  9
$DIMTIX
 70
     1
  9
$DIMSOXD
 70
     0
  9
$DIMSAH
 70
     0
  9
$DIMBLK1
  1

  9
$DIMBLK2
  1

  9
$DIMSTYLE
  2
STANDARD
  9
$DIMCLRD
 70
     0
  9
$DIMCLRE
 70
     0
  9
$DIMCLRT
 70
     4
  9
$DIMTFAC
 40
1.0
  9
$DIMGAP
 40
1.0
  9
$LUNITS
 70
     2
  9
$LUPREC
 70
     4
  9
$SKETCHINC
 40
0.1
  9
$FILLETRAD
 40
2.0
  9
$AUNITS
 70
     0
  9
$AUPREC
 70
     0
  9
$MENU
  1
C:\R13\WIN\SUPPORT\ACAD-I
  9
$ELEVATION
 40
0.0
  9
$PELEVATION
 40
0.0
  9
$THICKNESS
 40
0.0
  9
$LIMCHECK
 70
     0
  9
$BLIPMODE
 70
     0
  9
$CHAMFERA
 40
0.0
  9
$CHAMFERB
 40
0.0
  9
$SKPOLY
 70
     0
  9
$TDCREATE
 40
2451963.4663472339
  9
$TDUPDATE
 40
2456597.615068322
  9
$TDINDWG
 40
0.0650457407
  9
$TDUSRTIMER
 40
2456555.2858873839
  9
$USRTIMER
 70
     1
  9
$ANGBASE
 50
0.0
  9
$ANGDIR
 70
     0
  9
$PDMODE
 70
     0
  9
$PDSIZE
 40
0.0
  9
$PLINEWID
 40
0.0
  9
$COORDS
 70
     1
  9
$SPLFRAME
 70
     0
  9
$SPLINETYPE
 70
     6
  9
$SPLINESEGS
 70
     8
  9
$ATTDIA
 70
     0
  9
$ATTREQ
 70
     1
  9
$HANDLING
 70
     1
  9
$HANDSEED
  5
B36C
  9
$SURFTAB1
 70
     6
  9
$SURFTAB2
 70
     6
  9
$SURFTYPE
 70
     6
  9
$SURFU
 70
     6
  9
$SURFV
 70
     6
  9
$UCSNAME
  2

  9
$UCSORG
 10
0.0
 20
0.0
 30
0.0
  9
$UCSXDIR
 10
1.0
 20
0.0
 30
0.0
  9
$UCSYDIR
 10
0.0
 20
1.0
 30
0.0
  9
$PUCSNAME
  2

  9
$PUCSORG
 10
0.0
 20
0.0
 30
0.0
  9
$PUCSXDIR
 10
1.0
 20
0.0
 30
0.0
  9
$PUCSYDIR
 10
0.0
 20
1.0
 30
0.0
  9
$USERI1
 70
     4
  9
$USERI2
 70
     1
  9
$USERI3
 70
     0
  9
$USERI4
 70
     0
  9
$USERI5
 70
     0
  9
$USERR1
 40
1.0
  9
$USERR2
 40
3.0
  9
$USERR3
 40
3.0
  9
$USERR4
 40
3.0
  9
$USERR5
 40
10.0
  9
$WORLDVIEW
 70
     1
  9
$SHADEDGE
 70
     3
  9
$SHADEDIF
 70
    70
  9
$TILEMODE
 70
     1
  9
$MAXACTVP
 70
    16
  9
$PLIMCHECK
 70
     0
  9
$PEXTMIN
 10
1.0000000000000000E+020
 20
1.0000000000000000E+020
 30
1.0000000000000000E+020
  9
$PEXTMAX
 10
-1.0000000000000000E+020
 20
-1.0000000000000000E+020
 30
-1.0000000000000000E+020
  9
$PLIMMIN
 10
0.0
 20
0.0
  9
$PLIMMAX
 10
12.0
 20
9.0
  9
$UNITMODE
 70
     0
  9
$VISRETAIN
 70
     0
  9
$PLINEGEN
 70
     0
  9
$PSLTSCALE
 70
     0
  0
ENDSEC
  0
SECTION
  2
TABLES
  0
TABLE
  2
VPORT
 70
     1
  0
VPORT
  2
*ACTIVE
 70
     0
 10
0.0
 20
0.0
 11
1.0
 21
1.0
 12
227.0668822772316
 22
245.12980179898921
 13
0.0
 23
0.0
 14
10.0
 24
10.0
 15
10.0
 25
10.0
 16
0.0
 26
0.0
 36
1.0
 17
0.0
 27
0.0
 37
0.0
 40
501.8882415411432
 41
2.304913294797688
 42
50.0
 43
0.0
 44
0.0
 50
0.0
 51
0.0
 71
    16
 72
   100
 73
     1
 74
     0
 75
     0
 76
     0
 77
     0
 78
     0
  0
ENDTAB
  0
TABLE
  2
LTYPE
 70
     3
  0
LTYPE
  2
CONTINUOUS
 70
     0
  3
Solid Line
 72
    65
 73
     0
 40
0.0
  0
LTYPE
  2
PHANTOM2
 70
     0
  3
___ _ _ ___ _ _ ___ _ _ ___ _ _
 72
    65
 73
     6
 40
1.25
 49
0.625
 49
-0.125
 49
0.125
 49
-0.125
 49
0.125
 49
-0.125
  0
LTYPE
  2
CENTER
 70
     0
  3
____ _ ____ _ ____ _ ____ _ ____ _ ____ _ ____
 72
    65
 73
     4
 40
2.0
 49
1.25
 49
-0.25
 49
0.25
 49
-0.25
  0
ENDTAB
  0
TABLE
  2
LAYER
 70
     4
  0
LAYER
  2
0
 70
     0
 62
     7
  6
CONTINUOUS
  0
LAYER
  2
1
 70
     0
 62
     1
  6
CENTER
  0
LAYER
  2
3
 70
     0
 62
     3
  6
CONTINUOUS
  0
LAYER
  2
DEFPOINTS
 70
     0
 62
     7
  6
CONTINUOUS
  0
ENDTAB
  0
TABLE
  2
STYLE
 70
     3
  0
STYLE
  2
STANDARD
 70
     0
 40
0.0
 41
1.0
 50
0.0
 71
     0
 42
0.2
  3
SIMPLEX
  4
BIGFONT
  0
STYLE
  2
ANNOTATIVE
 70
     0
 40
0.0
 41
1.0
 50
0.0
 71
     0
 42
0.2
  3
txt
  4

  0
STYLE
  2
STANDARD1
 70
     0
 40
0.0
 41
1.0
 50
0.0
 71
     0
 42
3.0
  3
txt
  4

  0
ENDTAB
  0
TABLE
  2
VIEW
 70
     0
  0
ENDTAB
  0
TABLE
  2
UCS
 70
     0
  0
ENDTAB
  0
TABLE
  2
APPID
 70
    29
  0
APPID
  2
ACAD
 70
     0
  0
APPID
  2
ACADANNOTATIVE
 70
     0
  0
APPID
  2
GENIUS_GENOREF_13
 70
     0
  0
APPID
  2
GENIUS_GENOENT_13
 70
     0
  0
APPID
  2
GENIUS_GENBH_13
 70
     0
  0
APPID
  2
GENIUS_GENOBJ_13
 70
     0
  0
APPID
  2
GENIUS_GENODEF_13
 70
     0
  0
APPID
  2
GENIUS_GENOLIS_13
 70
     0
  0
APPID
  2
GENIUS_GENOBJ-NBEHI-BHF_13
 70
     0
  0
APPID
  2
GENIUS_GENOBJ-NBEHI-BHB_13
 70
     0
  0
APPID
  2
GENIUS_GENOBJ-F-PART_13
 70
     0
  0
APPID
  2
GENIUS_GEFSTDP_13
 70
     0
  0
APPID
  2
GENIUS_GENOBJ-N-RSSYM_13
 70
     0
  0
APPID
  2
GENIUS_GENSYMENT_13
 70
     0
  0
APPID
  2
GENIUS_GENOBJ-N-TIT_13
 70
     0
  0
APPID
  2
GENIUS_GENTITLE_13
 70
     0
  0
APPID
  2
GENIUS_GENZVEED_13
 70
     0
  0
APPID
  2
GENIUS_GENOBJ-N-LEADER_13
 70
     0
  0
APPID
  2
GENIUS_GENOBJ-N-FIL_13
 70
     0
  0
APPID
  2
GENIUS_GENOBJ-N-SEC_13
 70
     0
  0
APPID
  2
GENIUS_GENOBJ-N-CRS_13
 70
     0
  0
APPID
  2
GENIUS_GENOBJ-N-ZOO_13
 70
     0
  0
APPID
  2
GENIUS_GENZOO_13
 70
     0
  0
APPID
  2
GENIUS_GENOBJ-F-TOL_13
 70
     0
  0
APPID
  2
GENIUS_GENFIL_13
 70
     0
  0
APPID
  2
GENIUS_GENOBJ-N-CHA_13
 70
     0
  0
APPID
  2
ACAD_EXEMPT_FROM_CAD_STANDARDS
 70
     0
  0
APPID
  2
ACAD_MLEADERVER
 70
     0
  0
APPID
  2
ACAD_NAV_VCDISPLAY
 70
     0
  0
ENDTAB
  0
TABLE
  2
DIMSTYLE
 70
     2
  0
DIMSTYLE
  2
STANDARD
 70
     0
  3

  4

  5

  6

  7

 40
1.0
 41
0.18
 42
0.0625
 43
0.38
 44
0.18
 45
0.0
 46
0.0
 47
0.0
 48
0.0
140
0.18
141
0.09
142
0.0
143
25.399999999999999
144
1.0
145
0.0
146
1.0
147
0.09
 71
     0
 72
     0
 73
     1
 74
     1
 75
     0
 76
     0
 77
     0
 78
     0
170
     0
171
     2
172
     0
173
     0
174
     0
175
     0
176
     0
177
     0
178
     0
  0
DIMSTYLE
  2
ANNOTATIVE
 70
     0
  3

  4

  5

  6

  7

 40
1.0
 41
0.18
 42
0.0625
 43
0.38
 44
0.18
 45
0.0
 46
0.0
 47
0.0
 48
0.0
140
0.18
141
0.09
142
0.0
143
25.399999999999999
144
1.0
145
0.0
146
1.0
147
0.09
 71
     0
 72
     0
 73
     1
 74
     1
 75
     0
 76
     0
 77
     0
 78
     0
170
     0
171
     2
172
     0
173
     0
174
     0
175
     0
176
     0
177
     0
178
     0
  0
ENDTAB
  0
ENDSEC
  0
SECTION
  2
BLOCKS
  0
BLOCK
  8
0
  2
$MODEL_SPACE
 70
     0
 10
0.0
 20
0.0
 30
0.0
  3
$MODEL_SPACE
  1

  0
ENDBLK
  5
B28E
  8
0
  0
BLOCK
 67
     1
  8
0
  2
$PAPER_SPACE
 70
     0
 10
0.0
 20
0.0
 30
0.0
  3
$PAPER_SPACE
  1

  0
ENDBLK
  5
B28A
 67
     1
  8
0
  0
ENDSEC
  0
SECTION
  2
ENTITIES
  0
CIRCLE
  5
AEFB
  8
3
 10
221.66379562297971
 20
418.5803197600971
 30
0.0
 40
10.375999999999999
  0
CIRCLE
  5
AEFC
  8
0
 10
221.66379562297971
 20
418.5803197600971
 30
0.0
 40
12.0
  0
CIRCLE
  5
AEFD
  8
0
 10
221.66379562297971
 20
418.5803197600971
 30
0.0
 40
17.0
  0
LINE
  5
AEFE
  8
0
 10
211.27149078601931
 20
436.5803197454461
 30
0.0
 11
232.05610047684439
 21
436.5803197454461
 31
0.0
  0
LINE
  5
AEFF
  8
0
 10
232.0561004599368
 20
436.58031974543161
 30
0.0
 11
242.44840530535319
 21
418.58031974544599
 31
0.0
  0
LINE
  5
AF00
  8
0
 10
242.44840529688031
 20
418.58031976009988
 30
0.0
 11
232.05610045147139
 21
400.58031976009988
 31
0.0
  0
LINE
  5
AF01
  8
0
 10
232.056100459926
 20
400.58031977475372
 30
0.0
 11
211.27149076910089
 21
400.58031977475372
 31
0.0
  0
LINE
  5
AF02
  8
0
 10
211.2714907860211
 20
400.58031977475372
 30
0.0
 11
200.8791859406048
 21
418.58031977475372
 31
0.0
  0
LINE
  5
AF03
  8
0
 10
200.87918594907771
 20
418.58031976009988
 30
0.0
 11
211.27149079448671
 21
436.58031976009988
 31
0.0
  0
CIRCLE
  5
AF04
  8
0
 10
221.66379562297971
 20
418.5803197600971
 30
0.0
 40
62.499999999999929
  0
CIRCLE
  5
AF05
  8
0
 10
221.66379562297971
 20
418.5803197600971
 30
0.0
 40
55.499999999999503
  0
CIRCLE
  5
AF06
  8
0
 10
221.66379562297971
 20
418.5803197600971
 30
0.0
 40
48.499999999999901
  0
CIRCLE
  5
AF07
  8
0
 10
221.66379562297971
 20
418.5803197600971
 30
0.0
 40
41.499999999999901
  0
CIRCLE
  5
AF08
  8
0
 10
221.66379562297971
 20
418.5803197600971
 30
0.0
 40
34.999999999999829
  0
CIRCLE
  5
AF09
  8
0
 10
221.66379562297971
 20
418.5803197600971
 30
0.0
 40
20.999999999999879
  0
LINE
  5
AF0A
  8
1
 10
221.66379562297971
 20
491.08031976009681
 30
0.0
 11
221.66379562297971
 21
346.08031976009721
 31
0.0
  0
LINE
  5
AF0B
  8
1
 10
294.16379562297948
 20
418.5803197600971
 30
0.0
 11
149.16379562297971
 21
418.5803197600971
 31
0.0
  0
ARC
  5
AF0C
  8
0
 10
391.63376243973852
 20
93.707428040583224
 30
0.0
 40
12.25
 50
20.655369424003851
 51
46.062160114253899
  0
ARC
  5
AF0D
  8
0
 10
391.63376243973852
 20
93.707428040583224
 30
0.0
 40
12.25
 50
133.93783988574609
 51
159.34463057599609
  0
LINE
  5
AF0E
  8
0
 10
383.13376243973852
 20
109.0285674227858
 30
0.0
 11
383.13376243973852
 21
102.5285674227998
 31
0.0
  0
LINE
  5
AF0F
  8
0
 10
400.1337624397384
 20
109.0285674227858
 30
0.0
 11
400.1337624397384
 21
102.5285674227717
 31
0.0
  0
LINE
  5
AF10
  8
0
 10
382.63376243973852
 20
317.0285674228432
 30
0.0
 11
400.6337624397384
 21
317.02856742284308
 31
0.0
  0
LINE
  5
AF11
  8
0
 10
403.6337624397384
 20
118.73989228819801
 30
0.0
 11
403.6337624397384
 21
143.02856742284311
 31
0.0
  0
LINE
  5
AF12
  8
3
 10
402.00976243973838
 20
124.0285674228397
 30
0.0
 11
402.00976243973838
 21
143.0285674228428
 31
0.0
  0
LINE
  5
AF13
  8
3
 10
381.2577624397386
 20
124.0285674228397
 30
0.0
 11
381.2577624397386
 21
143.02856742284311
 31
0.0
  0
LINE
  5
AF14
  8
0
 10
379.63376243973852
 20
118.73989228813601
 30
0.0
 11
379.63376243973852
 21
143.02856742284311
 31
0.0
  0
LINE
  5
AF15
  8
0
 10
379.63376243973852
 20
314.02856742284348
 30
0.0
 11
382.63376243973852
 21
317.0285674228432
 31
0.0
  0
LINE
  5
AF16
  8
0
 10
400.6337624397384
 20
317.02856742284308
 30
0.0
 11
403.6337624397384
 21
314.02856742284308
 31
0.0
  0
LINE
  5
AF17
  8
0
 10
379.63376243973852
 20
314.02856742284348
 30
0.0
 11
403.6337624397384
 21
314.02856742284308
 31
0.0
  0
LINE
  5
AF18
  8
0
 10
403.6337624397384
 20
124.0285674228397
 30
0.0
 11
379.63376243973852
 21
124.0285674228397
 31
0.0
  0
LINE
  5
AF19
  8
3
 10
381.2577624397386
 20
124.0285674228397
 30
0.0
 11
379.63376243973852
 21
121.2157169113478
 31
0.0
  0
LINE
  5
AF1A
  8
3
 10
402.00976243973838
 20
124.0285674228397
 30
0.0
 11
403.6337624397384
 21
121.2157169113478
 31
0.0
  0
LINE
  5
AF1B
  8
0
 10
403.13376243968452
 20
109.0285674228241
 30
0.0
 11
380.13376243990018
 21
109.0285674228241
 31
0.0
  0
LINE
  5
AF1C
  8
0
 10
380.13376243979252
 20
119.0285674228241
 30
0.0
 11
403.13376243968452
 21
119.0285674228241
 31
0.0
  0
ARC
  5
AF1D
  8
0
 10
402.02606728520578
 20
112.6059176925384
 30
0.0
 40
6.1339745957208196
 50
64.384247469840275
 51
124.3842474712083
  0
LINE
  5
AF1E
  8
0
 10
405.49016890036552
 20
117.66809551842979
 30
0.0
 11
403.13376243968452
 21
119.0285674228241
 31
0.0
  0
LINE
  5
AF1F
  8
0
 10
405.49016890036552
 20
110.3890393272183
 30
0.0
 11
403.13376243968452
 21
109.0285674228241
 31
0.0
  0
ARC
  5
AF20
  8
0
 10
402.02606728520578
 20
115.4512171531097
 30
0.0
 40
6.1339745957208196
 50
235.6157525287887
 51
295.61575253015968
  0
LINE
  5
AF21
  8
0
 10
405.49016890034358
 20
117.66809551842979
 30
0.0
 11
405.49016890034358
 21
110.38903932720559
 31
0.0
  0
LINE
  5
AF22
  8
0
 10
398.56196567006782
 20
117.66809551842979
 30
0.0
 11
398.56196567006782
 21
110.3890393272183
 31
0.0
  0
LINE
  5
AF23
  8
0
 10
384.70555920951722
 20
117.66809551842979
 30
0.0
 11
384.70555920951722
 21
110.3890393272183
 31
0.0
  0
LINE
  5
AF24
  8
0
 10
377.77735597924118
 20
117.66809551842979
 30
0.0
 11
377.77735597924118
 21
110.38903932720559
 31
0.0
  0
ARC
  5
AF25
  8
0
 10
391.63376243979252
 20
132.2454457855286
 30
0.0
 40
22.928203228139491
 50
252.41204622431439
 51
287.58795377568561
  0
ARC
  5
AF26
  8
0
 10
381.24145759437903
 20
115.4512171531097
 30
0.0
 40
6.1339745957208196
 50
244.38424746984029
 51
304.38424747121132
  0
LINE
  5
AF27
  8
0
 10
377.77735597921952
 20
110.3890393272183
 30
0.0
 11
380.13376243990018
 21
109.0285674228241
 31
0.0
  0
LINE
  5
AF28
  8
0
 10
377.77735597921952
 20
117.66809551842979
 30
0.0
 11
380.13376243990018
 21
119.0285674228241
 31
0.0
  0
ARC
  5
AF29
  8
0
 10
381.24145759437903
 20
112.6059176925384
 30
0.0
 40
6.1339745957208196
 50
55.615752528791567
 51
115.6157525301597
  0
ARC
  5
AF2A
  8
0
 10
391.63376243979252
 20
95.811689060119704
 30
0.0
 40
22.928203228139491
 50
72.412046224314352
 51
107.58795377568561
  0
LINE
  5
AF2B
  8
0
 10
383.13376243973852
 20
102.5285674227717
 30
0.0
 11
400.1337624397384
 21
102.5285674227717
 31
0.0
  0
LINE
  5
AF2C
  8
0
 10
373.63376245438928
 20
161.45121716211179
 30
0.0
 11
373.63376245438928
 21
143.60591768357381
 31
0.0
  0
LINE
  5
AF2D
  8
0
 10
374.6337624397388
 20
162.0285674228428
 30
0.0
 11
373.63376245438928
 21
161.45121716211179
 31
0.0
  0
ARC
  5
AF2E
  8
0
 10
382.63376244706387
 20
135.4560266547997
 30
0.0
 40
25.995190507312159
 50
69.743841999652702
 51
110.2561580003472
  0
ARC
  5
AF2F
  8
0
 10
382.63376244706387
 20
169.60110819088601
 30
0.0
 40
25.995190507312159
 50
249.74384199965269
 51
290.25615800034723
  0
LINE
  5
AF30
  8
0
 10
374.6337624397388
 20
143.0285674228428
 30
0.0
 11
373.63376245438928
 21
143.60591768357381
 31
0.0
  0
LINE
  5
AF31
  8
0
 10
408.63376243973829
 20
143.0285674228428
 30
0.0
 11
409.6337624250873
 21
143.60591768357381
 31
0.0
  0
ARC
  5
AF32
  8
0
 10
400.63376243241288
 20
169.60110819088601
 30
0.0
 40
25.995190507312159
 50
249.74384199965269
 51
290.25615800034723
  0
ARC
  5
AF33
  8
0
 10
400.63376243241288
 20
135.4560266547997
 30
0.0
 40
25.995190507312159
 50
69.743841999652702
 51
110.2561580003472
  0
LINE
  5
AF34
  8
0
 10
408.63376243973829
 20
162.0285674228428
 30
0.0
 11
409.6337624250873
 21
161.45121716211179
 31
0.0
  0
LINE
  5
AF35
  8
0
 10
374.6337624397388
 20
162.0285674228428
 30
0.0
 11
408.63376243973829
 21
162.0285674228428
 31
0.0
  0
LINE
  5
AF36
  8
0
 10
409.6337624250873
 20
161.45121716211179
 30
0.0
 11
409.6337624250873
 21
143.60591768357381
 31
0.0
  0
LINE
  5
AF37
  8
0
 10
374.6337624397388
 20
143.0285674228428
 30
0.0
 11
408.63376243973829
 21
143.0285674228428
 31
0.0
  0
LINE
  5
AF38
  8
0
 10
391.63376243973852
 20
159.8435220088395
 30
0.0
 11
391.63376243973852
 21
145.21361283684621
 31
0.0
  0
LINE
  5
AF39
  8
0
 10
403.6337624397384
 20
162.0285674228428
 30
0.0
 11
403.6337624397384
 21
314.02856742284308
 31
0.0
  0
LINE
  5
AF3A
  8
3
 10
402.00976243973838
 20
162.0285674228428
 30
0.0
 11
402.00976243973838
 21
315.65256742284311
 31
0.0
  0
LINE
  5
AF3B
  8
0
 10
379.63376243973852
 20
162.0285674228428
 30
0.0
 11
379.63376243973852
 21
314.02856742284348
 31
0.0
  0
LINE
  5
AF3C
  8
3
 10
381.2577624397386
 20
162.0285674228426
 30
0.0
 11
381.2577624397386
 21
315.65256742284322
 31
0.0
  0
ARC
  5
AF3D
  8
0
 10
221.6637956229799
 20
93.707428040583224
 30
0.0
 40
12.25
 50
20.655369424003851
 51
46.062160114253899
  0
LINE
  5
AF3E
  8
3
 10
232.03979562297991
 20
124.0285674228397
 30
0.0
 11
233.6637956229799
 21
121.2157169113478
 31
0.0
  0
LINE
  5
AF3F
  8
3
 10
211.2877956229799
 20
124.0285674228397
 30
0.0
 11
209.6637956229799
 21
121.2157169113478
 31
0.0
  0
LINE
  5
AF40
  8
0
 10
233.6637956229799
 20
124.0285674228397
 30
0.0
 11
209.6637956229799
 21
124.0285674228397
 31
0.0
  0
LINE
  5
AF41
  8
0
 10
209.6637956229799
 20
314.02856742284348
 30
0.0
 11
233.6637956229799
 21
314.02856742284308
 31
0.0
  0
LINE
  5
AF42
  8
0
 10
230.6637956229799
 20
317.02856742284308
 30
0.0
 11
233.6637956229799
 21
314.02856742284308
 31
0.0
  0
LINE
  5
AF43
  8
0
 10
209.6637956229799
 20
314.02856742284348
 30
0.0
 11
212.6637956229799
 21
317.0285674228432
 31
0.0
  0
LINE
  5
AF44
  8
0
 10
209.6637956229799
 20
118.7398922882294
 30
0.0
 11
209.6637956229799
 21
143.0285674228426
 31
0.0
  0
LINE
  5
AF45
  8
3
 10
211.2877956229799
 20
124.0285674228397
 30
0.0
 11
211.2877956229799
 21
143.0285674228428
 31
0.0
  0
LINE
  5
AF46
  8
3
 10
232.03979562297991
 20
124.0285674228397
 30
0.0
 11
232.03979562297991
 21
143.0285674228426
 31
0.0
  0
LINE
  5
AF47
  8
0
 10
233.6637956229799
 20
118.7398922882677
 30
0.0
 11
233.6637956229799
 21
143.0285674228426
 31
0.0
  0
LINE
  5
AF48
  8
0
 10
212.6637956229799
 20
317.0285674228432
 30
0.0
 11
230.6637956229799
 21
317.02856742284308
 31
0.0
  0
LINE
  5
AF49
  8
0
 10
230.1637956229799
 20
109.0285674227858
 30
0.0
 11
230.1637956229799
 21
102.5285674227717
 31
0.0
  0
LINE
  5
AF4A
  8
0
 10
213.1637956229799
 20
109.0285674227858
 30
0.0
 11
213.1637956229799
 21
102.5285674227998
 31
0.0
  0
LINE
  5
AF4B
  8
0
 10
233.1637956230131
 20
109.0285674227664
 30
0.0
 11
210.16379562294671
 21
109.0285674228049
 31
0.0
  0
LINE
  5
AF4C
  8
0
 10
210.16379562294671
 20
119.0285674228048
 30
0.0
 11
233.1637956230131
 21
119.0285674228433
 31
0.0
  0
ARC
  5
AF4D
  8
0
 10
215.6637956230131
 20
101.40976527090611
 30
0.0
 40
17.330127017333279
 50
69.743841997632899
 51
110.256158002367
  0
LINE
  5
AF4E
  8
0
 10
209.66379562299809
 20
118.7398922882399
 30
0.0
 11
210.1637956230131
 21
119.0285674228433
 31
0.0
  0
LINE
  5
AF4F
  8
0
 10
209.66379562299809
 20
109.3172425573698
 30
0.0
 11
210.1637956230131
 21
109.0285674227664
 31
0.0
  0
ARC
  5
AF50
  8
0
 10
215.6637956230131
 20
126.64736957470321
 30
0.0
 40
17.330127017333279
 50
249.7438419976329
 51
290.25615800236699
  0
LINE
  5
AF51
  8
0
 10
209.66379562299809
 20
118.7398922882399
 30
0.0
 11
209.6637956230131
 21
109.3172425573612
 31
0.0
  0
LINE
  5
AF52
  8
0
 10
221.6637956230131
 20
110.3890393271991
 30
0.0
 11
221.6637956230131
 21
117.6680955184105
 31
0.0
  0
LINE
  5
AF53
  8
0
 10
233.66379562302811
 20
118.7398922882399
 30
0.0
 11
233.6637956230131
 21
109.3172425573612
 31
0.0
  0
ARC
  5
AF54
  8
0
 10
227.6637956230131
 20
126.64736957470321
 30
0.0
 40
17.330127017333279
 50
249.7438419976329
 51
290.25615800236699
  0
LINE
  5
AF55
  8
0
 10
233.66379562302811
 20
109.3172425573698
 30
0.0
 11
233.1637956230131
 21
109.0285674227664
 31
0.0
  0
LINE
  5
AF56
  8
0
 10
233.66379562302811
 20
118.7398922882399
 30
0.0
 11
233.1637956230131
 21
119.0285674228433
 31
0.0
  0
ARC
  5
AF57
  8
0
 10
227.6637956230131
 20
101.40976527090611
 30
0.0
 40
17.330127017333279
 50
69.743841997632899
 51
110.256158002367
  0
ARC
  5
AF58
  8
0
 10
221.6637956229799
 20
93.707428040583224
 30
0.0
 40
12.25
 50
133.9378398855572
 51
159.34463057599609
  0
LINE
  5
AF59
  8
0
 10
213.1637956229799
 20
102.5285674227998
 30
0.0
 11
230.1637956229799
 21
102.5285674227717
 31
0.0
  0
LINE
  5
AF5A
  8
0
 10
242.4484052968792
 20
159.8435220088395
 30
0.0
 11
242.4484052968792
 21
145.21361283684621
 31
0.0
  0
LINE
  5
AF5B
  8
0
 10
238.6637956229799
 20
162.0285674228428
 30
0.0
 11
242.4484052968792
 21
159.8435220088395
 31
0.0
  0
ARC
  5
AF5C
  8
0
 10
237.25225287840411
 20
152.2502552752583
 30
0.0
 40
9.2009618868538041
 50
64.384247467929214
 51
124.38424746793859
  0
ARC
  5
AF5D
  8
0
 10
237.25225287840411
 20
152.80687957042761
 30
0.0
 40
9.2009618868538041
 50
235.61575253206149
 51
295.6157525320707
  0
LINE
  5
AF5E
  8
0
 10
238.6637956229799
 20
143.0285674228428
 30
0.0
 11
242.4484052968792
 21
145.21361283684621
 31
0.0
  0
LINE
  5
AF5F
  8
0
 10
204.6637956229799
 20
143.0285674228428
 30
0.0
 11
200.87918594908069
 21
145.21361283684621
 31
0.0
  0
ARC
  5
AF60
  8
0
 10
206.07533836755559
 20
152.80687957042761
 30
0.0
 40
9.2009618868538041
 50
244.38424746792921
 51
304.38424746793862
  0
ARC
  5
AF61
  8
0
 10
221.66379562298201
 20
177.99822250109059
 30
0.0
 40
34.392304817516766
 50
252.41204622606611
 51
287.58795377393392
  0
ARC
  5
AF62
  8
0
 10
206.07533836755559
 20
152.2502552752583
 30
0.0
 40
9.2009618868538041
 50
55.615752532061393
 51
115.6157525320707
  0
ARC
  5
AF63
  8
0
 10
221.66379562298201
 20
127.058912344595
 30
0.0
 40
34.392304817516766
 50
72.41204622606611
 51
107.5879537739338
  0
LINE
  5
AF64
  8
0
 10
232.05610045993311
 20
159.8435220088395
 30
0.0
 11
232.05610045993311
 21
145.21361283684621
 31
0.0
  0
LINE
  5
AF65
  8
0
 10
211.27149078603091
 20
159.8435220088395
 30
0.0
 11
211.27149078603091
 21
145.21361283684621
 31
0.0
  0
LINE
  5
AF66
  8
0
 10
204.6637956229799
 20
162.0285674228428
 30
0.0
 11
200.87918594908069
 21
159.8435220088395
 31
0.0
  0
LINE
  5
AF67
  8
0
 10
200.87918594908069
 20
159.8435220088395
 30
0.0
 11
200.87918594908069
 21
145.21361283684621
 31
0.0
  0
LINE
  5
AF68
  8
0
 10
204.6637956229799
 20
143.0285674228428
 30
0.0
 11
238.6637956229799
 21
143.0285674228428
 31
0.0
  0
LINE
  5
AF69
  8
0
 10
204.66379562298019
 20
162.0285674228428
 30
0.0
 11
238.6637956229799
 21
162.0285674228428
 31
0.0
  0
LINE
  5
AF6A
  8
0
 10
233.6637956229799
 20
162.0285674228428
 30
0.0
 11
233.6637956229799
 21
314.02856742284308
 31
0.0
  0
LINE
  5
AF6B
  8
3
 10
232.03979562297991
 20
162.0285674228428
 30
0.0
 11
232.03979562297991
 21
315.65256742284311
 31
0.0
  0
LINE
  5
AF6C
  8
3
 10
211.2877956229799
 20
162.0285674228428
 30
0.0
 11
211.2877956229799
 21
315.65256742284322
 31
0.0
  0
LINE
  5
AF6D
  8
0
 10
209.6637956229799
 20
162.0285674228426
 30
0.0
 11
209.6637956229799
 21
314.02856742284348
 31
0.0
  0
LINE
  5
AF7D
  8
0
 10
284.16379562297971
 20
52.028567422843189
 30
0.0
 11
159.1637956229799
 21
52.028567422843288
 31
0.0
  0
LINE
  5
AF7E
  8
0
 10
284.16379562297971
 20
52.028567422843189
 30
0.0
 11
284.16379562297988
 21
68.147773511888374
 31
0.0
  0
LINE
  5
AF81
  8
0
 10
242.6637956229799
 20
98.02856742284321
 30
0.0
 11
200.6637956229799
 21
98.02856742284321
 31
0.0
  0
LINE
  5
AF82
  8
DEFPOINTS
 10
242.6637956229799
 20
98.02856742284321
 30
0.0
 11
256.66379562297971
 21
76.028567422843196
 31
0.0
  0
LINE
  5
AF83
  8
DEFPOINTS
 10
256.66379562297971
 20
76.028567422843196
 30
0.0
 11
262.4104749036145
 21
74.565776333227021
 31
0.0
  0
LINE
  5
AF84
  8
DEFPOINTS
 10
277.16379562297971
 20
69.919476513752272
 30
0.0
 11
277.16379562297971
 21
69.929591693706527
 31
0.0
  0
LINE
  5
AF85
  8
DEFPOINTS
 10
270.16379562297971
 20
71.701294695570425
 30
0.0
 11
270.16379562297971
 21
71.71140987552468
 31
0.0
  0
LINE
  5
AF86
  8
DEFPOINTS
 10
263.16379562297971
 20
73.483112877388692
 30
0.0
 11
263.16379562297971
 21
73.59667915930406
 31
0.0
  0
LINE
  5
AF87
  8
DEFPOINTS
 10
283.29004990265389
 20
69.13977142361199
 30
0.0
 11
277.16379562297971
 21
69.919476513752272
 31
0.0
  0
LINE
  5
AF88
  8
DEFPOINTS
 10
276.29004990265372
 20
70.921589605430142
 30
0.0
 11
270.16379562297971
 21
71.701294695570425
 31
0.0
  0
LINE
  5
AF89
  8
DEFPOINTS
 10
269.29004990265372
 20
72.703407787248295
 30
0.0
 11
263.16379562297971
 21
73.483112877388692
 31
0.0
  0
ARC
  5
AF8A
  8
DEFPOINTS
 10
262.16379562297971
 20
73.59667915930406
 30
0.0
 40
1.0
 50
0.0
 51
75.718904264028993
  0
ARC
  5
AF8B
  8
DEFPOINTS
 10
269.16379562297971
 20
71.71140987552468
 30
0.0
 40
1.0
 50
0.0
 51
82.746805387274577
  0
ARC
  5
AF8C
  8
DEFPOINTS
 10
276.16379562297971
 20
69.929591693706527
 30
0.0
 40
1.0
 50
0.0000000000016284
 51
82.746805387274577
  0
ARC
  5
AF8D
  8
DEFPOINTS
 10
283.16379562297988
 20
68.147773511888374
 30
0.0
 40
1.0
 50
359.9999999999992
 51
82.746805387274577
  0
LINE
  5
AF8E
  8
DEFPOINTS
 10
277.16379562297971
 20
69.919476513752272
 30
0.0
 11
166.16379562298081
 21
69.9194765137524
 31
0.0
  0
LINE
  5
AF8F
  8
DEFPOINTS
 10
270.16379562297971
 20
71.701294695570425
 30
0.0
 11
173.16379562298059
 21
71.701294695570525
 31
0.0
  0
LINE
  5
AF90
  8
DEFPOINTS
 10
263.16379562297971
 20
73.483112877388692
 30
0.0
 11
180.16379562298059
 21
73.483112877388692
 31
0.0
  0
LINE
  5
AF91
  8
DEFPOINTS
 10
256.66379562297971
 20
76.028567422843196
 30
0.0
 11
186.66379562297999
 21
76.028567422843295
 31
0.0
  0
ARC
  5
AF92
  8
DEFPOINTS
 10
160.16379562297971
 20
68.147773511888374
 30
0.0
 40
1.0
 50
97.253194612725352
 51
180.0000000000008
  0
ARC
  5
AF93
  8
DEFPOINTS
 10
167.1637956229799
 20
69.929591693706527
 30
0.0
 40
1.0
 50
97.253194612725352
 51
179.99999999999841
  0
ARC
  5
AF94
  8
DEFPOINTS
 10
174.1637956229799
 20
71.71140987552468
 30
0.0
 40
1.0
 50
97.253194612725352
 51
180.0
  0
ARC
  5
AF95
  8
DEFPOINTS
 10
181.16379562297979
 20
73.59667915930406
 30
0.0
 40
1.0
 50
104.28109573597089
 51
180.0
  0
LINE
  5
AF96
  8
DEFPOINTS
 10
174.037541343306
 20
72.703407787248295
 30
0.0
 11
180.1637956229799
 21
73.483112877388692
 31
0.0
  0
LINE
  5
AF97
  8
DEFPOINTS
 10
167.0375413433058
 20
70.921589605430142
 30
0.0
 11
173.16379562297979
 21
71.701294695570425
 31
0.0
  0
LINE
  5
AF98
  8
DEFPOINTS
 10
160.03754134330569
 20
69.13977142361199
 30
0.0
 11
166.1637956229799
 21
69.919476513752272
 31
0.0
  0
LINE
  5
AF99
  8
DEFPOINTS
 10
180.1637956229799
 20
73.483112877388692
 30
0.0
 11
180.1637956229799
 21
73.59667915930406
 31
0.0
  0
LINE
  5
AF9A
  8
DEFPOINTS
 10
173.16379562297979
 20
71.701294695570425
 30
0.0
 11
173.16379562297979
 21
71.71140987552468
 31
0.0
  0
LINE
  5
AF9B
  8
DEFPOINTS
 10
166.1637956229799
 20
69.919476513752272
 30
0.0
 11
166.1637956229799
 21
69.929591693706527
 31
0.0
  0
LINE
  5
AF9C
  8
DEFPOINTS
 10
186.6637956229799
 20
76.028567422843196
 30
0.0
 11
180.917116342345
 21
74.565776333227021
 31
0.0
  0
LINE
  5
AF9D
  8
DEFPOINTS
 10
200.6637956229799
 20
98.02856742284321
 30
0.0
 11
186.6637956229799
 21
76.028567422843196
 31
0.0
  0
LINE
  5
AF9F
  8
0
 10
159.1637956229799
 20
52.028567422843189
 30
0.0
 11
159.16379562297971
 21
68.147773511888374
 31
0.0
  0
LINE
  5
AFA1
  8
1
 10
221.6637956229799
 20
42.028567422843253
 30
0.0
 11
221.6637956229799
 21
327.0285674228432
 31
0.0
  0
LINE
  5
AFA2
  8
1
 10
391.63376243973852
 20
42.028567422843253
 30
0.0
 11
391.63376243973852
 21
327.0285674228432
 31
0.0
  0
LINE
  5
AFA4
  8
0
 10
329.13376243973858
 20
52.028567422843189
 30
0.0
 11
329.13376243973818
 21
68.147773511888374
 31
0.0
  0
LINE
  5
AFA6
  8
DEFPOINTS
 10
370.63376243973852
 20
98.02856742284321
 30
0.0
 11
356.63376243973852
 21
76.028567422843196
 31
0.0
  0
LINE
  5
AFA7
  8
DEFPOINTS
 10
356.63376243973852
 20
76.028567422843196
 30
0.0
 11
350.88708315910372
 21
74.565776333227021
 31
0.0
  0
LINE
  5
AFA8
  8
DEFPOINTS
 10
336.13376243973858
 20
69.919476513752272
 30
0.0
 11
336.13376243973858
 21
69.929591693706527
 31
0.0
  0
LINE
  5
AFA9
  8
DEFPOINTS
 10
343.13376243973858
 20
71.701294695570425
 30
0.0
 11
343.13376243973858
 21
71.71140987552468
 31
0.0
  0
LINE
  5
AFAA
  8
DEFPOINTS
 10
350.13376243973852
 20
73.483112877388692
 30
0.0
 11
350.13376243973852
 21
73.59667915930406
 31
0.0
  0
LINE
  5
AFAB
  8
DEFPOINTS
 10
330.00750816006439
 20
69.13977142361199
 30
0.0
 11
336.13376243973858
 21
69.919476513752272
 31
0.0
  0
LINE
  5
AFAC
  8
DEFPOINTS
 10
337.00750816006462
 20
70.921589605430142
 30
0.0
 11
343.13376243973858
 21
71.701294695570425
 31
0.0
  0
LINE
  5
AFAD
  8
DEFPOINTS
 10
344.00750816006462
 20
72.703407787248295
 30
0.0
 11
350.13376243973852
 21
73.483112877388692
 31
0.0
  0
ARC
  5
AFAE
  8
DEFPOINTS
 10
351.13376243973852
 20
73.59667915930406
 30
0.0
 40
1.0
 50
104.28109573597089
 51
180.0
  0
ARC
  5
AFAF
  8
DEFPOINTS
 10
344.13376243973852
 20
71.71140987552468
 30
0.0
 40
1.0
 50
97.253194612725352
 51
180.0
  0
ARC
  5
AFB0
  8
DEFPOINTS
 10
337.13376243973858
 20
69.929591693706527
 30
0.0
 40
1.0
 50
97.253194612725352
 51
179.99999999999841
  0
ARC
  5
AFB1
  8
DEFPOINTS
 10
330.1337624397384
 20
68.147773511888374
 30
0.0
 40
1.0
 50
97.253194612725352
 51
180.0000000000008
  0
LINE
  5
AFB2
  8
DEFPOINTS
 10
426.63376243973818
 20
76.028567422843196
 30
0.0
 11
356.63376243973892
 21
76.028567422843295
 31
0.0
  0
LINE
  5
AFB3
  8
DEFPOINTS
 10
433.1337624397384
 20
73.483112877388692
 30
0.0
 11
350.1337624397392
 21
73.483112877388692
 31
0.0
  0
LINE
  5
AFB4
  8
DEFPOINTS
 10
440.13376243973829
 20
71.701294695570425
 30
0.0
 11
343.1337624397392
 21
71.701294695570525
 31
0.0
  0
LINE
  5
AFB5
  8
DEFPOINTS
 10
447.13376243973818
 20
69.919476513752272
 30
0.0
 11
336.13376243973948
 21
69.9194765137524
 31
0.0
  0
ARC
  5
AFB6
  8
DEFPOINTS
 10
453.13376243973829
 20
68.147773511888374
 30
0.0
 40
1.0
 50
359.9999999999992
 51
82.746805387274577
  0
ARC
  5
AFB7
  8
DEFPOINTS
 10
446.13376243973829
 20
69.929591693706527
 30
0.0
 40
1.0
 50
0.0000000000016284
 51
82.746805387274577
  0
ARC
  5
AFB8
  8
DEFPOINTS
 10
439.13376243973818
 20
71.71140987552468
 30
0.0
 40
1.0
 50
0.0
 51
82.746805387274577
  0
ARC
  5
AFB9
  8
DEFPOINTS
 10
432.13376243973829
 20
73.59667915930406
 30
0.0
 40
1.0
 50
0.0
 51
75.718904264028993
  0
LINE
  5
AFBA
  8
DEFPOINTS
 10
439.26001671941231
 20
72.703407787248295
 30
0.0
 11
433.1337624397384
 21
73.483112877388692
 31
0.0
  0
LINE
  5
AFBB
  8
DEFPOINTS
 10
446.26001671941231
 20
70.921589605430142
 30
0.0
 11
440.13376243973829
 21
71.701294695570425
 31
0.0
  0
LINE
  5
AFBC
  8
DEFPOINTS
 10
453.26001671941208
 20
69.13977142361199
 30
0.0
 11
447.13376243973818
 21
69.919476513752272
 31
0.0
  0
LINE
  5
AFBD
  8
DEFPOINTS
 10
433.1337624397384
 20
73.483112877388692
 30
0.0
 11
433.1337624397384
 21
73.59667915930406
 31
0.0
  0
LINE
  5
AFBE
  8
DEFPOINTS
 10
440.13376243973829
 20
71.701294695570425
 30
0.0
 11
440.13376243973829
 21
71.71140987552468
 31
0.0
  0
LINE
  5
AFBF
  8
DEFPOINTS
 10
447.13376243973818
 20
69.919476513752272
 30
0.0
 11
447.13376243973818
 21
69.929591693706527
 31
0.0
  0
LINE
  5
AFC0
  8
DEFPOINTS
 10
426.63376243973818
 20
76.028567422843196
 30
0.0
 11
432.38044172037308
 21
74.565776333227021
 31
0.0
  0
LINE
  5
AFC1
  8
DEFPOINTS
 10
412.63376243973829
 20
98.02856742284321
 30
0.0
 11
426.63376243973818
 21
76.028567422843196
 31
0.0
  0
LINE
  5
AFC2
  8
0
 10
412.63376243973829
 20
98.02856742284321
 30
0.0
 11
370.63376243973852
 21
98.02856742284321
 31
0.0
  0
LINE
  5
AFC4
  8
0
 10
454.13376243973829
 20
52.028567422843189
 30
0.0
 11
454.13376243973829
 21
68.147773511888374
 31
0.0
  0
LINE
  5
AFC5
  8
0
 10
454.13376243973829
 20
52.028567422843189
 30
0.0
 11
329.13376243973858
 21
52.028567422843288
 31
0.0
  0
TEXT
  5
B30F
  8
0
 62
     3
 10
0.0
 20
0.0
 30
0.0
 40
10.0
  1
LVE125L24C
  7
STANDARD1
  0
ENDSEC
  0
EOF
