  0
SECTION
  2
HEADER
  9
$ACADVER
  1
AC1009
  9
$INSBASE
 10
0.0
 20
0.0
 30
0.0
  9
$EXTMIN
 10
0.0
 20
-2.960436562073669
 30
0.0
  9
$EXTMAX
 10
171.47846678604751
 20
250.42098130727209
 30
0.0
  9
$LIMMIN
 10
0.0
 20
0.0
  9
$LIMMAX
 10
375.0
 20
270.0
  9
$ORTHOMODE
 70
     1
  9
$REGENMODE
 70
     1
  9
$FILLMODE
 70
     1
  9
$QTEXTMODE
 70
     0
  9
$MIRRTEXT
 70
     0
  9
$DRAGMODE
 70
     2
  9
$LTSCALE
 40
6.0
  9
$OSMODE
 70
  3071
  9
$ATTMODE
 70
     1
  9
$TEXTSIZE
 40
0.2
  9
$TRACEWID
 40
0.05
  9
$TEXTSTYLE
  7
STANDARD
  9
$CLAYER
  8
0
  9
$CELTYPE
  6
BYLAYER
  9
$CECOLOR
 62
   256
  9
$DIMSCALE
 40
1.0
  9
$DIMASZ
 40
3.0
  9
$DIMEXO
 40
1.0
  9
$DIMDLI
 40
6.0
  9
$DIMRND
 40
0.0
  9
$DIMDLE
 40
0.0
  9
$DIMEXE
 40
1.0
  9
$DIMTP
 40
495.0
  9
$DIMTM
 40
0.0
  9
$DIMTXT
 40
3.0
  9
$DIMCEN
 40
0.0
  9
$DIMTSZ
 40
0.0
  9
$DIMTOL
 70
     0
  9
$DIMLIM
 70
     0
  9
$DIMTIH
 70
     0
  9
$DIMTOH
 70
     0
  9
$DIMSE1
 70
     0
  9
$DIMSE2
 70
     0
  9
$DIMTAD
 70
     1
  9
$DIMZIN
 70
     0
  9
$DIMBLK
  1

  9
$DIMASO
 70
     0
  9
$DIMSHO
 70
     0
  9
$DIMPOST
  1

  9
$DIMAPOST
  1

  9
$DIMALT
 70
     0
  9
$DIMALTD
 70
     2
  9
$DIMALTF
 40
25.399999999999999
  9
$DIMLFAC
 40
1.0
  9
$DIMTOFL
 70
     1
  9
$DIMTVP
 40
0.0
  9
$DIMTIX
 70
     1
  9
$DIMSOXD
 70
     0
  9
$DIMSAH
 70
     0
  9
$DIMBLK1
  1

  9
$DIMBLK2
  1

  9
$DIMSTYLE
  2
STANDARD
  9
$DIMCLRD
 70
     0
  9
$DIMCLRE
 70
     0
  9
$DIMCLRT
 70
     4
  9
$DIMTFAC
 40
1.0
  9
$DIMGAP
 40
1.0
  9
$LUNITS
 70
     2
  9
$LUPREC
 70
     4
  9
$SKETCHINC
 40
0.1
  9
$FILLETRAD
 40
2.0
  9
$AUNITS
 70
     0
  9
$AUPREC
 70
     0
  9
$MENU
  1
C:\R13\WIN\SUPPORT\ACAD-I
  9
$ELEVATION
 40
0.0
  9
$PELEVATION
 40
0.0
  9
$THICKNESS
 40
0.0
  9
$LIMCHECK
 70
     0
  9
$BLIPMODE
 70
     0
  9
$CHAMFERA
 40
0.0
  9
$CHAMFERB
 40
0.0
  9
$SKPOLY
 70
     0
  9
$TDCREATE
 40
2451962.4112634258
  9
$TDUPDATE
 40
2456597.6150955898
  9
$TDINDWG
 40
0.1583115046
  9
$TDUSRTIMER
 40
2456555.0837781481
  9
$USRTIMER
 70
     1
  9
$ANGBASE
 50
0.0
  9
$ANGDIR
 70
     0
  9
$PDMODE
 70
     0
  9
$PDSIZE
 40
0.0
  9
$PLINEWID
 40
0.0
  9
$COORDS
 70
     1
  9
$SPLFRAME
 70
     0
  9
$SPLINETYPE
 70
     6
  9
$SPLINESEGS
 70
     8
  9
$ATTDIA
 70
     0
  9
$ATTREQ
 70
     1
  9
$HANDLING
 70
     1
  9
$HANDSEED
  5
4505
  9
$SURFTAB1
 70
     6
  9
$SURFTAB2
 70
     6
  9
$SURFTYPE
 70
     6
  9
$SURFU
 70
     6
  9
$SURFV
 70
     6
  9
$UCSNAME
  2

  9
$UCSORG
 10
0.0
 20
0.0
 30
0.0
  9
$UCSXDIR
 10
1.0
 20
0.0
 30
0.0
  9
$UCSYDIR
 10
0.0
 20
1.0
 30
0.0
  9
$PUCSNAME
  2

  9
$PUCSORG
 10
0.0
 20
0.0
 30
0.0
  9
$PUCSXDIR
 10
1.0
 20
0.0
 30
0.0
  9
$PUCSYDIR
 10
0.0
 20
1.0
 30
0.0
  9
$USERI1
 70
     4
  9
$USERI2
 70
     1
  9
$USERI3
 70
     0
  9
$USERI4
 70
     0
  9
$USERI5
 70
     0
  9
$USERR1
 40
1.0
  9
$USERR2
 40
3.0
  9
$USERR3
 40
3.0
  9
$USERR4
 40
3.0
  9
$USERR5
 40
10.0
  9
$WORLDVIEW
 70
     1
  9
$SHADEDGE
 70
     3
  9
$SHADEDIF
 70
    70
  9
$TILEMODE
 70
     1
  9
$MAXACTVP
 70
    16
  9
$PLIMCHECK
 70
     0
  9
$PEXTMIN
 10
1.0000000000000000E+020
 20
1.0000000000000000E+020
 30
1.0000000000000000E+020
  9
$PEXTMAX
 10
-1.0000000000000000E+020
 20
-1.0000000000000000E+020
 30
-1.0000000000000000E+020
  9
$PLIMMIN
 10
0.0
 20
0.0
  9
$PLIMMAX
 10
12.0
 20
9.0
  9
$UNITMODE
 70
     0
  9
$VISRETAIN
 70
     0
  9
$PLINEGEN
 70
     0
  9
$PSLTSCALE
 70
     0
  0
ENDSEC
  0
SECTION
  2
TABLES
  0
TABLE
  2
VPORT
 70
     1
  0
VPORT
  2
*ACTIVE
 70
     0
 10
0.0
 20
0.0
 11
1.0
 21
1.0
 12
187.49427839065231
 22
134.10366293909439
 13
0.0
 23
0.0
 14
10.0
 24
10.0
 15
10.0
 25
10.0
 16
0.0
 26
0.0
 36
1.0
 17
0.0
 27
0.0
 37
0.0
 40
277.29405978699532
 41
2.304913294797688
 42
50.0
 43
0.0
 44
0.0
 50
0.0
 51
0.0
 71
    16
 72
   100
 73
     1
 74
     0
 75
     0
 76
     0
 77
     0
 78
     0
  0
ENDTAB
  0
TABLE
  2
LTYPE
 70
     3
  0
LTYPE
  2
CONTINUOUS
 70
     0
  3
Solid Line
 72
    65
 73
     0
 40
0.0
  0
LTYPE
  2
PHANTOM2
 70
     0
  3
___ _ _ ___ _ _ ___ _ _ ___ _ _
 72
    65
 73
     6
 40
1.25
 49
0.625
 49
-0.125
 49
0.125
 49
-0.125
 49
0.125
 49
-0.125
  0
LTYPE
  2
CENTER
 70
     0
  3
____ _ ____ _ ____ _ ____ _ ____ _ ____ _ ____
 72
    65
 73
     4
 40
2.0
 49
1.25
 49
-0.25
 49
0.25
 49
-0.25
  0
ENDTAB
  0
TABLE
  2
LAYER
 70
     3
  0
LAYER
  2
0
 70
     0
 62
     7
  6
CONTINUOUS
  0
LAYER
  2
1
 70
     0
 62
     1
  6
CENTER
  0
LAYER
  2
3
 70
     0
 62
     3
  6
CONTINUOUS
  0
ENDTAB
  0
TABLE
  2
STYLE
 70
     3
  0
STYLE
  2
STANDARD
 70
     0
 40
0.0
 41
1.0
 50
0.0
 71
     0
 42
0.2
  3
SIMPLEX
  4
BIGFONT
  0
STYLE
  2
ANNOTATIVE
 70
     0
 40
0.0
 41
1.0
 50
0.0
 71
     0
 42
0.2
  3
txt
  4

  0
STYLE
  2
STANDARD1
 70
     0
 40
0.0
 41
1.0
 50
0.0
 71
     0
 42
3.0
  3
txt
  4

  0
ENDTAB
  0
TABLE
  2
VIEW
 70
     0
  0
ENDTAB
  0
TABLE
  2
UCS
 70
     0
  0
ENDTAB
  0
TABLE
  2
APPID
 70
    29
  0
APPID
  2
ACAD
 70
     0
  0
APPID
  2
ACADANNOTATIVE
 70
     0
  0
APPID
  2
GENIUS_GENOREF_13
 70
     0
  0
APPID
  2
GENIUS_GENOENT_13
 70
     0
  0
APPID
  2
GENIUS_GENBH_13
 70
     0
  0
APPID
  2
GENIUS_GENOBJ_13
 70
     0
  0
APPID
  2
GENIUS_GENODEF_13
 70
     0
  0
APPID
  2
GENIUS_GENOLIS_13
 70
     0
  0
APPID
  2
GENIUS_GENOBJ-NBEHI-BHF_13
 70
     0
  0
APPID
  2
GENIUS_GENOBJ-NBEHI-BHB_13
 70
     0
  0
APPID
  2
GENIUS_GENOBJ-F-PART_13
 70
     0
  0
APPID
  2
GENIUS_GEFSTDP_13
 70
     0
  0
APPID
  2
GENIUS_GENOBJ-N-RSSYM_13
 70
     0
  0
APPID
  2
GENIUS_GENSYMENT_13
 70
     0
  0
APPID
  2
GENIUS_GENOBJ-N-TIT_13
 70
     0
  0
APPID
  2
GENIUS_GENTITLE_13
 70
     0
  0
APPID
  2
GENIUS_GENZVEED_13
 70
     0
  0
APPID
  2
GENIUS_GENOBJ-N-LEADER_13
 70
     0
  0
APPID
  2
GENIUS_GENOBJ-N-FIL_13
 70
     0
  0
APPID
  2
GENIUS_GENOBJ-N-SEC_13
 70
     0
  0
APPID
  2
GENIUS_GENOBJ-N-CRS_13
 70
     0
  0
APPID
  2
GENIUS_GENOBJ-N-ZOO_13
 70
     0
  0
APPID
  2
GENIUS_GENZOO_13
 70
     0
  0
APPID
  2
GENIUS_GENOBJ-F-TOL_13
 70
     0
  0
APPID
  2
GENIUS_GENFIL_13
 70
     0
  0
APPID
  2
GENIUS_GENOBJ-N-CHA_13
 70
     0
  0
APPID
  2
ACAD_EXEMPT_FROM_CAD_STANDARDS
 70
     0
  0
APPID
  2
ACAD_MLEADERVER
 70
     0
  0
APPID
  2
ACAD_NAV_VCDISPLAY
 70
     0
  0
ENDTAB
  0
TABLE
  2
DIMSTYLE
 70
     2
  0
DIMSTYLE
  2
STANDARD
 70
     0
  3

  4

  5

  6

  7

 40
1.0
 41
0.18
 42
0.0625
 43
0.38
 44
0.18
 45
0.0
 46
0.0
 47
0.0
 48
0.0
140
0.18
141
0.09
142
0.0
143
25.399999999999999
144
1.0
145
0.0
146
1.0
147
0.09
 71
     0
 72
     0
 73
     1
 74
     1
 75
     0
 76
     0
 77
     0
 78
     0
170
     0
171
     2
172
     0
173
     0
174
     0
175
     0
176
     0
177
     0
178
     0
  0
DIMSTYLE
  2
ANNOTATIVE
 70
     0
  3

  4

  5

  6

  7

 40
1.0
 41
0.18
 42
0.0625
 43
0.38
 44
0.18
 45
0.0
 46
0.0
 47
0.0
 48
0.0
140
0.18
141
0.09
142
0.0
143
25.399999999999999
144
1.0
145
0.0
146
1.0
147
0.09
 71
     0
 72
     0
 73
     1
 74
     1
 75
     0
 76
     0
 77
     0
 78
     0
170
     0
171
     2
172
     0
173
     0
174
     0
175
     0
176
     0
177
     0
178
     0
  0
ENDTAB
  0
ENDSEC
  0
SECTION
  2
BLOCKS
  0
BLOCK
  8
0
  2
$MODEL_SPACE
 70
     0
 10
0.0
 20
0.0
 30
0.0
  3
$MODEL_SPACE
  1

  0
ENDBLK
  5
4428
  8
0
  0
BLOCK
 67
     1
  8
0
  2
$PAPER_SPACE
 70
     0
 10
0.0
 20
0.0
 30
0.0
  3
$PAPER_SPACE
  1

  0
ENDBLK
  5
4424
 67
     1
  8
0
  0
ENDSEC
  0
SECTION
  2
ENTITIES
  0
LINE
  5
3F74
  8
1
 10
141.47846678604751
 20
169.3629739496987
 30
0.0
 11
141.47846678604751
 21
18.362973949698691
 31
0.0
  0
LINE
  5
3F75
  8
1
 10
50.294664068732892
 20
169.3629739496987
 30
0.0
 11
50.294664068732892
 21
18.36297394957921
 31
0.0
  0
ARC
  5
3F76
  8
0
 10
141.47846678604461
 20
41.03324013089626
 30
0.0
 40
12.25
 50
31.112020819732059
 51
46.12012289676111
  0
LINE
  5
3F77
  8
0
 10
141.47846678604799
 20
106.73455285297111
 30
0.0
 11
141.47846678604799
 21
93.991395046467005
 31
0.0
  0
LINE
  5
3F78
  8
0
 10
155.97846678604799
 20
92.362973949721876
 30
0.0
 11
126.97846678604959
 21
92.362973949721876
 31
0.0
  0
LINE
  5
3F79
  8
0
 10
126.97846678604959
 20
108.36297394972119
 30
0.0
 11
155.9784667860464
 21
108.36297394972119
 31
0.0
  0
ARC
  5
3F7A
  8
0
 10
133.97846678604799
 20
86.411640041457275
 30
0.0
 40
21.662658773668529
 50
69.74384199960231
 51
110.2561580003977
  0
LINE
  5
3F7B
  8
0
 10
126.97846678604959
 20
108.36297394972119
 30
0.0
 11
126.4784667860483
 21
108.0742988151257
 31
0.0
  0
LINE
  5
3F7C
  8
0
 10
126.97846678604959
 20
92.362973949721876
 30
0.0
 11
126.4784667860483
 21
92.651649084317327
 31
0.0
  0
ARC
  5
3F7D
  8
0
 10
133.97846678604799
 20
114.3143078579855
 30
0.0
 40
21.662658773668529
 50
249.7438419996023
 51
290.2561580003977
  0
LINE
  5
3F7E
  8
0
 10
126.478466786048
 20
108.0742988151257
 30
0.0
 11
126.4784667860483
 21
92.651649084317327
 31
0.0
  0
LINE
  5
3F7F
  8
0
 10
156.47846678604799
 20
108.0742988151257
 30
0.0
 11
156.47846678604779
 21
92.651649084317327
 31
0.0
  0
ARC
  5
3F80
  8
0
 10
148.97846678604799
 20
114.3143078579855
 30
0.0
 40
21.662658773668529
 50
249.7438419996023
 51
290.2561580003977
  0
LINE
  5
3F81
  8
0
 10
155.9784667860464
 20
92.362973949721876
 30
0.0
 11
156.47846678604779
 21
92.651649084317327
 31
0.0
  0
LINE
  5
3F82
  8
0
 10
155.9784667860464
 20
108.36297394972119
 30
0.0
 11
156.47846678604779
 21
108.0742988151257
 31
0.0
  0
ARC
  5
3F83
  8
0
 10
148.97846678604799
 20
86.411640041457275
 30
0.0
 40
21.662658773668529
 50
69.74384199960231
 51
110.2561580003977
  0
LINE
  5
3F84
  8
3
 10
132.8314667860476
 20
108.36297394972119
 30
0.0
 11
132.8314667860476
 21
163.21597394969871
 31
0.0
  0
LINE
  5
3F85
  8
0
 10
131.47846678604751
 20
108.36297394972119
 30
0.0
 11
131.47846678604751
 21
161.8629739496987
 31
0.0
  0
LINE
  5
3F86
  8
0
 10
151.47846678604751
 20
108.362973949721
 30
0.0
 11
151.47846678604751
 21
161.8629739496985
 31
0.0
  0
LINE
  5
3F87
  8
3
 10
150.12546678604741
 20
108.36297394972119
 30
0.0
 11
150.12546678604741
 21
163.21597394969851
 31
0.0
  0
ARC
  5
3F88
  8
0
 10
141.47846678604461
 20
41.03324013089626
 30
0.0
 40
12.25
 50
133.87987710305001
 51
148.88797918026791
  0
LINE
  5
3F89
  8
0
 10
149.97846678604751
 20
49.862973949646403
 30
0.0
 11
132.97846678604751
 21
49.862973949674597
 31
0.0
  0
LINE
  5
3F8A
  8
0
 10
149.97846678604751
 20
56.362973949660493
 30
0.0
 11
149.97846678604751
 21
49.862973949646403
 31
0.0
  0
LINE
  5
3F8B
  8
0
 10
132.97846678604751
 20
56.362973949660493
 30
0.0
 11
132.97846678604751
 21
49.862973949674831
 31
0.0
  0
LINE
  5
3F8C
  8
0
 10
133.97846678604751
 20
164.3629739496987
 30
0.0
 11
148.97846678604751
 21
164.3629739496985
 31
0.0
  0
LINE
  5
3F8D
  8
0
 10
151.47846678604751
 20
66.362973949698713
 30
0.0
 11
151.47846678604751
 21
92.362973949721223
 31
0.0
  0
LINE
  5
3F8E
  8
3
 10
150.12546678604741
 20
70.362973949698713
 30
0.0
 11
150.12546678604741
 21
92.362973949721223
 31
0.0
  0
LINE
  5
3F8F
  8
3
 10
132.8314667860476
 20
70.362973949698713
 30
0.0
 11
132.8314667860476
 21
92.362973949720995
 31
0.0
  0
LINE
  5
3F90
  8
0
 10
131.47846678604751
 20
66.362973949698713
 30
0.0
 11
131.47846678604751
 21
92.362973949721223
 31
0.0
  0
LINE
  5
3F91
  8
0
 10
131.47846678604751
 20
161.8629739496987
 30
0.0
 11
133.97846678604751
 21
164.3629739496987
 31
0.0
  0
LINE
  5
3F92
  8
0
 10
148.97846678604751
 20
164.3629739496985
 30
0.0
 11
151.47846678604751
 21
161.8629739496985
 31
0.0
  0
LINE
  5
3F93
  8
0
 10
131.47846678604751
 20
161.8629739496987
 30
0.0
 11
151.47846678604751
 21
161.8629739496985
 31
0.0
  0
LINE
  5
3F94
  8
0
 10
151.47846678604751
 20
70.362973949698713
 30
0.0
 11
131.47846678604751
 21
70.362973949698713
 31
0.0
  0
LINE
  5
3F95
  8
3
 10
132.8314667860476
 20
70.362973949698713
 30
0.0
 11
131.47846678604751
 21
68.019509207057808
 31
0.0
  0
LINE
  5
3F96
  8
3
 10
150.12546678604741
 20
70.362973949698713
 30
0.0
 11
151.47846678604751
 21
68.019509207057808
 31
0.0
  0
ARC
  5
3F97
  8
0
 10
141.47846678610139
 20
43.146095587075472
 30
0.0
 40
22.928203228139491
 50
72.412046224314139
 51
107.5879537756858
  0
ARC
  5
3F98
  8
0
 10
131.0861619406879
 20
59.94032421949418
 30
0.0
 40
6.1339745957208196
 50
55.615752528791369
 51
115.6157525301566
  0
LINE
  5
3F99
  8
0
 10
127.62206032552839
 20
65.00250204538564
 30
0.0
 11
129.9784667862092
 21
66.362973949779857
 31
0.0
  0
LINE
  5
3F9A
  8
0
 10
127.62206032552839
 20
57.723445854174088
 30
0.0
 11
129.9784667862092
 21
56.362973949779871
 31
0.0
  0
ARC
  5
3F9B
  8
0
 10
131.0861619406879
 20
62.785623680065541
 30
0.0
 40
6.1339745957208196
 50
244.38424746984339
 51
304.3842474712086
  0
ARC
  5
3F9C
  8
0
 10
141.47846678610139
 20
79.579852312484263
 30
0.0
 40
22.928203228139491
 50
252.41204622431411
 51
287.58795377568589
  0
LINE
  5
3F9D
  8
0
 10
127.62206032555019
 20
65.00250204538564
 30
0.0
 11
127.62206032555019
 21
57.723445854161348
 31
0.0
  0
LINE
  5
3F9E
  8
0
 10
134.55026355582601
 20
65.00250204538564
 30
0.0
 11
134.55026355582601
 21
57.723445854174088
 31
0.0
  0
LINE
  5
3F9F
  8
0
 10
148.40667001637681
 20
65.00250204538564
 30
0.0
 11
148.40667001637681
 21
57.723445854174088
 31
0.0
  0
LINE
  5
3FA0
  8
0
 10
155.33487324665259
 20
65.00250204538564
 30
0.0
 11
155.33487324665259
 21
57.723445854161348
 31
0.0
  0
ARC
  5
3FA1
  8
0
 10
151.87077163151491
 20
62.785623680065541
 30
0.0
 40
6.1339745957208196
 50
235.6157525287914
 51
295.61575253015661
  0
LINE
  5
3FA2
  8
0
 10
155.33487324667439
 20
57.723445854174088
 30
0.0
 11
152.97846678599359
 21
56.362973949779871
 31
0.0
  0
LINE
  5
3FA3
  8
0
 10
155.33487324667439
 20
65.00250204538564
 30
0.0
 11
152.97846678599359
 21
66.362973949779857
 31
0.0
  0
ARC
  5
3FA4
  8
0
 10
151.87077163151491
 20
59.94032421949418
 30
0.0
 40
6.1339745957208196
 50
64.384247469843373
 51
124.3842474712085
  0
LINE
  5
3FA5
  8
0
 10
129.97846678610139
 20
66.362973949779857
 30
0.0
 11
152.97846678599359
 21
66.362973949779857
 31
0.0
  0
LINE
  5
3FA6
  8
0
 10
152.97846678599359
 20
56.362973949779871
 30
0.0
 11
129.9784667862092
 21
56.362973949779871
 31
0.0
  0
LINE
  5
3FA8
  8
3
 10
58.941664068732848
 20
70.362973949698713
 30
0.0
 11
60.294664068732892
 21
68.019509207057808
 31
0.0
  0
LINE
  5
3FA9
  8
3
 10
41.647664068732972
 20
70.362973949698713
 30
0.0
 11
40.294664068732899
 21
68.019509207057808
 31
0.0
  0
LINE
  5
3FAA
  8
0
 10
60.294664068732892
 20
70.362973949698713
 30
0.0
 11
40.294664068732899
 21
70.362973949698713
 31
0.0
  0
LINE
  5
3FAB
  8
0
 10
40.294664068732899
 20
161.8629739496987
 30
0.0
 11
60.294664068732892
 21
161.8629739496985
 31
0.0
  0
LINE
  5
3FAC
  8
0
 10
57.794664068732892
 20
164.3629739496985
 30
0.0
 11
60.294664068732892
 21
161.8629739496985
 31
0.0
  0
LINE
  5
3FAD
  8
0
 10
40.294664068732899
 20
161.8629739496987
 30
0.0
 11
42.794664068732899
 21
164.3629739496987
 31
0.0
  0
LINE
  5
3FAE
  8
0
 10
40.294664068732899
 20
66.362973949698713
 30
0.0
 11
40.294664068732899
 21
92.362973949721223
 31
0.0
  0
LINE
  5
3FAF
  8
3
 10
41.647664068732972
 20
70.362973949698713
 30
0.0
 11
41.647664068732972
 21
92.362973949720995
 31
0.0
  0
LINE
  5
3FB0
  8
3
 10
58.941664068732848
 20
70.362973949698713
 30
0.0
 11
58.941664068732848
 21
92.362973949721223
 31
0.0
  0
LINE
  5
3FB1
  8
0
 10
60.294664068732892
 20
66.362973949698713
 30
0.0
 11
60.294664068732892
 21
92.362973949721223
 31
0.0
  0
LINE
  5
3FB2
  8
0
 10
42.794664068732899
 20
164.3629739496987
 30
0.0
 11
57.794664068732892
 21
164.3629739496985
 31
0.0
  0
ARC
  5
3FB3
  8
0
 10
56.29466406876611
 20
48.744171797781277
 30
0.0
 40
17.330127017333279
 50
69.743841997633098
 51
110.2561580023669
  0
LINE
  5
3FB4
  8
0
 10
62.294664068781117
 20
66.074298815114616
 30
0.0
 11
61.79466406876611
 21
66.362973949718025
 31
0.0
  0
LINE
  5
3FB5
  8
0
 10
62.294664068781117
 20
56.651649084244582
 30
0.0
 11
61.79466406876611
 21
56.362973949641173
 31
0.0
  0
ARC
  5
3FB6
  8
0
 10
56.29466406876611
 20
73.981776101577907
 30
0.0
 40
17.330127017333279
 50
249.7438419976331
 51
290.25615800236699
  0
LINE
  5
3FB7
  8
0
 10
62.294664068781117
 20
66.074298815114616
 30
0.0
 11
62.29466406876611
 21
56.651649084235927
 31
0.0
  0
LINE
  5
3FB8
  8
0
 10
50.29466406876611
 20
57.723445854073809
 30
0.0
 11
50.29466406876611
 21
65.002502045285382
 31
0.0
  0
LINE
  5
3FB9
  8
0
 10
38.294664068751111
 20
66.074298815114616
 30
0.0
 11
38.29466406876611
 21
56.651649084235927
 31
0.0
  0
ARC
  5
3FBA
  8
0
 10
44.29466406876611
 20
73.981776101577907
 30
0.0
 40
17.330127017333279
 50
249.7438419976331
 51
290.25615800236699
  0
LINE
  5
3FBB
  8
0
 10
38.294664068751111
 20
56.651649084244582
 30
0.0
 11
38.79466406876611
 21
56.362973949641173
 31
0.0
  0
LINE
  5
3FBC
  8
0
 10
38.294664068751111
 20
66.074298815114616
 30
0.0
 11
38.79466406876611
 21
66.362973949718025
 31
0.0
  0
ARC
  5
3FBD
  8
0
 10
44.29466406876611
 20
48.744171797781277
 30
0.0
 40
17.330127017333279
 50
69.743841997633098
 51
110.2561580023669
  0
LINE
  5
3FBE
  8
0
 10
38.794664068699717
 20
66.362973949679599
 30
0.0
 11
61.79466406876611
 21
66.362973949718025
 31
0.0
  0
LINE
  5
3FBF
  8
0
 10
61.79466406876611
 20
56.362973949641173
 30
0.0
 11
38.794664068699717
 21
56.362973949679613
 31
0.0
  0
LINE
  5
3FC0
  8
0
 10
41.794664068732907
 20
56.362973949660493
 30
0.0
 11
41.794664068732907
 21
49.862973949674831
 31
0.0
  0
LINE
  5
3FC1
  8
0
 10
58.794664068732899
 20
56.362973949660493
 30
0.0
 11
58.794664068732899
 21
49.862973949646403
 31
0.0
  0
LINE
  5
3FC4
  8
0
 10
64.794664068733539
 20
92.362973949721436
 30
0.0
 11
35.794664068733077
 21
92.362973949721223
 31
0.0
  0
LINE
  5
3FC5
  8
0
 10
35.794664068733077
 20
108.36297394972139
 30
0.0
 11
64.79466406873378
 21
108.362973949721
 31
0.0
  0
LINE
  5
3FC6
  8
0
 10
64.794664068733098
 20
108.36297394972139
 30
0.0
 11
67.615172144421706
 21
106.73455285297111
 31
0.0
  0
ARC
  5
3FC7
  8
0
 10
63.285045125499259
 20
100.4068305698502
 30
0.0
 40
7.6674682452751766
 50
64.384247470461645
 51
124.3842474680055
  0
ARC
  5
3FC8
  8
0
 10
63.285045125499259
 20
100.4068305698502
 30
0.0
 40
7.6674682452751766
 50
55.615752531994502
 51
55.615752531994502
  0
ARC
  5
3FC9
  8
0
 10
63.285045125499259
 20
100.3191173295924
 30
0.0
 40
7.6674682452751766
 50
304.38424746800558
 51
304.38424746800558
  0
ARC
  5
3FCA
  8
0
 10
63.285045125499259
 20
100.3191173295924
 30
0.0
 40
7.6674682452751766
 50
235.6157525319945
 51
295.61575252953838
  0
LINE
  5
3FCB
  8
0
 10
64.794664068733098
 20
92.362973949721223
 30
0.0
 11
67.615172144421706
 21
93.991395046471553
 31
0.0
  0
LINE
  5
3FCC
  8
0
 10
67.615172144421479
 20
106.73455285297111
 30
0.0
 11
67.615172144705241
 21
93.991395046635262
 31
0.0
  0
LINE
  5
3FCD
  8
0
 10
58.954918106577281
 20
93.991395046494944
 30
0.0
 11
58.954918106423349
 21
106.73455285297111
 31
0.0
  0
ARC
  5
3FCE
  8
0
 10
50.294664068806519
 20
121.3119031217097
 30
0.0
 40
28.660254037392811
 50
252.41204622556921
 51
287.58795377413009
  0
LINE
  5
3FCF
  8
0
 10
41.634410030888873
 20
93.991395046494944
 30
0.0
 11
41.634410031042812
 21
106.73455285297111
 31
0.0
  0
LINE
  5
3FD0
  8
0
 10
32.97415599304469
 20
106.73455285297111
 30
0.0
 11
32.974155992760927
 21
93.991395046635262
 31
0.0
  0
LINE
  5
3FD1
  8
0
 10
35.794664068733077
 20
92.362973949721223
 30
0.0
 11
32.974155993044469
 21
93.991395046471553
 31
0.0
  0
ARC
  5
3FD2
  8
0
 10
37.304283011966902
 20
100.3191173295924
 30
0.0
 40
7.6674682452751766
 50
244.3842474704617
 51
304.38424746800558
  0
ARC
  5
3FD3
  8
0
 10
37.304283011966902
 20
100.3191173295924
 30
0.0
 40
7.6674682452751766
 50
235.6157525319945
 51
235.6157525319945
  0
ARC
  5
3FD4
  8
0
 10
50.294664068806519
 20
79.41404477773267
 30
0.0
 40
28.660254037392811
 50
72.412046225870014
 51
107.5879537744307
  0
ARC
  5
3FD5
  8
0
 10
37.304283011966902
 20
100.4068305698502
 30
0.0
 40
7.6674682452751766
 50
124.3842474680055
 51
124.3842474680055
  0
ARC
  5
3FD6
  8
0
 10
37.304283011966902
 20
100.4068305698502
 30
0.0
 40
7.6674682452751766
 50
55.615752531994502
 51
115.6157525295383
  0
LINE
  5
3FD7
  8
0
 10
35.794664068733077
 20
108.36297394972139
 30
0.0
 11
32.974155993044469
 21
106.73455285297111
 31
0.0
  0
LINE
  5
3FD8
  8
3
 10
58.941664068732848
 20
108.36297394972119
 30
0.0
 11
58.941664068732848
 21
163.21597394969851
 31
0.0
  0
LINE
  5
3FD9
  8
0
 10
60.294664068732892
 20
108.362973949721
 30
0.0
 11
60.294664068732892
 21
161.8629739496985
 31
0.0
  0
LINE
  5
3FDA
  8
0
 10
40.294664068732899
 20
108.36297394972119
 30
0.0
 11
40.294664068732899
 21
161.8629739496987
 31
0.0
  0
LINE
  5
3FDB
  8
3
 10
41.647664068732972
 20
108.36297394972119
 30
0.0
 11
41.647664068732972
 21
163.21597394969871
 31
0.0
  0
CIRCLE
  5
3FDC
  8
0
 10
50.294664068733923
 20
215.42098130727209
 30
0.0
 40
14.5
  0
LINE
  5
3FDD
  8
0
 10
32.974155993045201
 20
215.42098130727231
 30
0.0
 11
41.634410030889612
 21
200.42098130727209
 31
0.0
  0
LINE
  5
3FDE
  8
0
 10
41.634410030889839
 20
230.42098130727209
 30
0.0
 11
32.974155993045201
 21
215.42098130727231
 31
0.0
  0
LINE
  5
3FDF
  8
0
 10
58.954918106578262
 20
230.42098130727209
 30
0.0
 11
41.634410030889839
 21
230.42098130727209
 31
0.0
  0
LINE
  5
3FE0
  8
0
 10
67.6151721444229
 20
215.42098130727209
 30
0.0
 11
58.954918106578262
 21
230.42098130727209
 31
0.0
  0
LINE
  5
3FE1
  8
0
 10
58.954918106578482
 20
200.42098130727209
 30
0.0
 11
67.6151721444229
 21
215.42098130727209
 31
0.0
  0
LINE
  5
3FE2
  8
0
 10
41.634410030889612
 20
200.42098130727209
 30
0.0
 11
58.954918106578482
 21
200.42098130727209
 31
0.0
  0
CIRCLE
  5
3FE3
  8
3
 10
50.294664068733923
 20
215.42098130727209
 30
0.0
 40
8.6470000000000002
  0
CIRCLE
  5
3FE4
  8
0
 10
50.294664068733923
 20
215.42098130727209
 30
0.0
 40
10.0
  0
ARC
  5
3FE5
  8
0
 10
113.47846678604751
 20
32.230593191760363
 30
0.0
 40
2.0
 50
120.9637565320735
 51
180.0000000000004
  0
ARC
  5
3FE6
  8
0
 10
118.4784667860476
 20
37.230593191760363
 30
0.0
 40
2.0
 50
120.9637565320738
 51
180.0
  0
ARC
  5
3FE7
  8
0
 10
123.4784667860476
 20
42.008908026844637
 30
0.0
 40
2.0
 50
111.8014094863517
 51
180.0000000000008
  0
ARC
  5
3FE8
  8
0
 10
128.47846678604751
 20
45.362973949698699
 30
0.0
 40
2.0
 50
90.000000000000057
 51
179.9999999999992
  0
LINE
  5
3FE9
  8
0
 10
116.4784667860476
 20
36.362973949698457
 30
0.0
 11
112.4494752751925
 21
33.945579043185489
 31
0.0
  0
LINE
  5
3FEA
  8
0
 10
126.47846678604751
 20
45.362973949698457
 30
0.0
 11
126.47846678604751
 21
45.362973949698699
 31
0.0
  0
LINE
  5
3FEB
  8
0
 10
126.47846678604751
 20
45.362973949698457
 30
0.0
 11
122.7356854333394
 21
43.865861408615267
 31
0.0
  0
LINE
  5
3FEC
  8
0
 10
121.47846678604751
 20
41.36297394969845
 30
0.0
 11
117.4494752751925
 21
38.945579043185489
 31
0.0
  0
LINE
  5
3FED
  8
0
 10
116.4784667860476
 20
36.362973949698457
 30
0.0
 11
116.4784667860476
 21
37.230593191760363
 31
0.0
  0
LINE
  5
3FEE
  8
0
 10
121.47846678604751
 20
41.36297394969845
 30
0.0
 11
121.4784667860476
 21
42.008908026844637
 31
0.0
  0
LINE
  5
3FF0
  8
0
 10
111.4784667860476
 20
23.862973949698699
 30
0.0
 11
111.47846678604751
 21
32.230593191760363
 31
0.0
  0
LINE
  5
3FF1
  8
0
 10
111.4784667860476
 20
23.862973949698699
 30
0.0
 11
111.9784667860476
 21
23.362973949698699
 31
0.0
  0
LINE
  5
3FFF
  8
1
 10
85.294664068733937
 20
215.42098130727209
 30
0.0
 11
15.29466406873394
 21
215.42098130727209
 31
0.0
  0
LINE
  5
4000
  8
1
 10
50.294664068733923
 20
250.42098130727209
 30
0.0
 11
50.294664068733923
 21
180.42098130727209
 31
0.0
  0
CIRCLE
  5
4001
  8
0
 10
50.294664068733923
 20
215.42098130727209
 30
0.0
 40
20.00000000000006
  0
CIRCLE
  5
4002
  8
0
 10
50.294664068733923
 20
215.42098130727209
 30
0.0
 40
25.0
  0
CIRCLE
  5
4003
  8
0
 10
50.294664068733923
 20
215.42098130727209
 30
0.0
 40
30.0
  0
LINE
  5
4004
  8
0
 10
171.47846678604739
 20
23.862973949698699
 30
0.0
 11
170.97846678604739
 21
23.362973949698699
 31
0.0
  0
LINE
  5
4005
  8
0
 10
171.47846678604739
 20
23.862973949698699
 30
0.0
 11
171.47846678604751
 21
32.230593191760363
 31
0.0
  0
LINE
  5
4006
  8
0
 10
111.97846678604751
 20
23.362973949698699
 30
0.0
 11
170.97846678604731
 21
23.362973949698699
 31
0.0
  0
LINE
  5
4009
  8
0
 10
116.4784667860476
 20
36.362973949698699
 30
0.0
 11
166.47846678604739
 21
36.362973949698457
 31
0.0
  0
LINE
  5
400A
  8
0
 10
121.47846678604751
 20
41.362973949698699
 30
0.0
 11
161.47846678604751
 21
41.36297394969845
 31
0.0
  0
LINE
  5
400B
  8
0
 10
126.47846678604751
 20
45.362973949698699
 30
0.0
 11
156.47846678604739
 21
45.362973949698699
 31
0.0
  0
LINE
  5
400C
  8
0
 10
161.47846678604751
 20
41.36297394969845
 30
0.0
 11
161.47846678604739
 21
42.008908026844637
 31
0.0
  0
LINE
  5
400D
  8
0
 10
166.47846678604739
 20
36.362973949698457
 30
0.0
 11
166.47846678604739
 21
37.230593191760363
 31
0.0
  0
LINE
  5
400E
  8
0
 10
161.47846678604751
 20
41.36297394969845
 30
0.0
 11
165.50745829690251
 21
38.945579043185489
 31
0.0
  0
LINE
  5
400F
  8
0
 10
156.47846678604751
 20
45.362973949698457
 30
0.0
 11
160.22124813875561
 21
43.865861408615267
 31
0.0
  0
LINE
  5
4010
  8
0
 10
128.47846678604751
 20
47.362973949698677
 30
0.0
 11
154.47846678604751
 21
47.362973949698677
 31
0.0
  0
LINE
  5
4011
  8
0
 10
156.47846678604751
 20
45.362973949698457
 30
0.0
 11
156.47846678604751
 21
45.362973949698699
 31
0.0
  0
LINE
  5
4012
  8
0
 10
166.47846678604739
 20
36.362973949698457
 30
0.0
 11
170.50745829690251
 21
33.945579043185489
 31
0.0
  0
ARC
  5
4013
  8
0
 10
154.47846678604751
 20
45.362973949698699
 30
0.0
 40
2.0
 50
0.0000000000008142
 51
89.999999999999943
  0
ARC
  5
4014
  8
0
 10
159.47846678604739
 20
42.008908026844637
 30
0.0
 40
2.0
 50
359.9999999999992
 51
68.198590513648284
  0
ARC
  5
4015
  8
0
 10
164.47846678604739
 20
37.230593191760363
 30
0.0
 40
2.0
 50
0.0
 51
59.036243467926177
  0
ARC
  5
4016
  8
0
 10
169.47846678604751
 20
32.230593191760363
 30
0.0
 40
2.0
 50
359.9999999999996
 51
59.036243467926461
  0
ARC
  5
4182
  8
0
 10
78.294664068732914
 20
32.230593191640878
 30
0.0
 40
2.0
 50
359.9999999999996
 51
59.036243467926461
  0
ARC
  5
4183
  8
0
 10
73.294664068732772
 20
37.230593191640892
 30
0.0
 40
2.0
 50
0.0
 51
59.036243467926177
  0
ARC
  5
4184
  8
0
 10
68.294664068732786
 20
42.00890802672518
 30
0.0
 40
2.0
 50
359.9999999999992
 51
68.198590513648284
  0
ARC
  5
4185
  8
0
 10
63.294664068732899
 20
45.362973949579207
 30
0.0
 40
2.0
 50
0.0000000000008142
 51
89.999999999999943
  0
LINE
  5
4186
  8
0
 10
75.2946640687328
 20
36.362973949579001
 30
0.0
 11
79.323655579587921
 21
33.945579043065997
 31
0.0
  0
LINE
  5
4187
  8
0
 10
65.294664068732914
 20
45.362973949578972
 30
0.0
 11
65.294664068732914
 21
45.362973949579207
 31
0.0
  0
LINE
  5
4188
  8
0
 10
37.294664068732907
 20
47.362973949579207
 30
0.0
 11
63.294664068732899
 21
47.362973949579207
 31
0.0
  0
LINE
  5
4189
  8
0
 10
65.294664068732914
 20
45.362973949578972
 30
0.0
 11
69.037445421441021
 21
43.865861408495782
 31
0.0
  0
LINE
  5
418A
  8
0
 10
70.294664068732914
 20
41.362973949578993
 30
0.0
 11
74.323655579587921
 21
38.945579043065997
 31
0.0
  0
LINE
  5
418B
  8
0
 10
75.2946640687328
 20
36.362973949579001
 30
0.0
 11
75.2946640687328
 21
37.230593191640892
 31
0.0
  0
LINE
  5
418C
  8
0
 10
70.294664068732914
 20
41.362973949578993
 30
0.0
 11
70.2946640687328
 21
42.00890802672518
 31
0.0
  0
LINE
  5
418D
  8
0
 10
35.294664068732907
 20
45.362973949579207
 30
0.0
 11
65.2946640687328
 21
45.362973949579207
 31
0.0
  0
LINE
  5
418E
  8
0
 10
30.29466406873291
 20
41.362973949579207
 30
0.0
 11
70.294664068732914
 21
41.362973949578993
 31
0.0
  0
LINE
  5
418F
  8
0
 10
25.29466406873301
 20
36.362973949579207
 30
0.0
 11
75.2946640687328
 21
36.362973949579001
 31
0.0
  0
LINE
  5
4192
  8
0
 10
20.79466406873291
 20
23.36297394957921
 30
0.0
 11
79.794664068732672
 21
23.36297394957921
 31
0.0
  0
LINE
  5
4193
  8
0
 10
80.294664068732814
 20
23.86297394957921
 30
0.0
 11
80.294664068732914
 21
32.230593191640878
 31
0.0
  0
LINE
  5
4194
  8
0
 10
80.294664068732814
 20
23.86297394957921
 30
0.0
 11
79.7946640687328
 21
23.36297394957921
 31
0.0
  0
LINE
  5
4195
  8
0
 10
20.29466406873302
 20
23.86297394957921
 30
0.0
 11
20.79466406873302
 21
23.36297394957921
 31
0.0
  0
LINE
  5
4196
  8
0
 10
20.29466406873302
 20
23.86297394957921
 30
0.0
 11
20.29466406873291
 21
32.230593191640878
 31
0.0
  0
LINE
  5
4198
  8
0
 10
30.29466406873291
 20
41.362973949578993
 30
0.0
 11
30.29466406873302
 21
42.00890802672518
 31
0.0
  0
LINE
  5
4199
  8
0
 10
25.29466406873302
 20
36.362973949579001
 30
0.0
 11
25.29466406873302
 21
37.230593191640892
 31
0.0
  0
LINE
  5
419A
  8
0
 10
30.29466406873291
 20
41.362973949578993
 30
0.0
 11
26.265672557877888
 21
38.945579043065997
 31
0.0
  0
LINE
  5
419B
  8
0
 10
35.294664068732907
 20
45.362973949578972
 30
0.0
 11
31.551882716024799
 21
43.865861408495782
 31
0.0
  0
LINE
  5
419C
  8
0
 10
35.294664068732907
 20
45.362973949578972
 30
0.0
 11
35.294664068732907
 21
45.362973949579207
 31
0.0
  0
LINE
  5
419D
  8
0
 10
25.29466406873302
 20
36.362973949579001
 30
0.0
 11
21.265672557877888
 21
33.945579043065997
 31
0.0
  0
ARC
  5
419E
  8
0
 10
37.294664068732907
 20
45.362973949579207
 30
0.0
 40
2.0
 50
90.000000000000057
 51
179.9999999999992
  0
ARC
  5
419F
  8
0
 10
32.29466406873302
 20
42.00890802672518
 30
0.0
 40
2.0
 50
111.8014094863517
 51
180.0000000000008
  0
ARC
  5
41A0
  8
0
 10
27.29466406873302
 20
37.230593191640892
 30
0.0
 40
2.0
 50
120.9637565320738
 51
180.0
  0
ARC
  5
41A1
  8
0
 10
22.29466406873291
 20
32.230593191640878
 30
0.0
 40
2.0
 50
120.9637565320735
 51
180.0000000000004
  0
LINE
  5
41A2
  8
0
 10
58.794664068679019
 20
49.862973949526918
 30
0.0
 11
41.794664068679012
 21
49.862973949555112
 31
0.0
  0
ARC
  5
41A3
  8
0
 10
50.29466406867607
 20
41.03324013077679
 30
0.0
 40
12.25
 50
133.87987710305001
 51
148.88797918026791
  0
ARC
  5
41A4
  8
0
 10
50.29466406867607
 20
41.03324013077679
 30
0.0
 40
12.25
 50
31.112020819732059
 51
46.12012289676111
  0
TEXT
  5
44A8
  8
0
 62
     3
 10
0.0
 20
0.0
 30
0.0
 40
10.0
  1
LVE60L20A-SUS
  7
STANDARD1
  0
ENDSEC
  0
EOF
