  0
SECTION
  2
HEADER
  9
$ACADVER
  1
AC1009
  9
$INSBASE
 10
0.0
 20
0.0
 30
0.0
  9
$EXTMIN
 10
0.0
 20
-2.960436562073669
 30
0.0
  9
$EXTMAX
 10
166.74915777810361
 20
250.3711291258526
 30
0.0
  9
$LIMMIN
 10
0.0
 20
0.0
  9
$LIMMAX
 10
375.0
 20
270.0
  9
$ORTHOMODE
 70
     1
  9
$REGENMODE
 70
     1
  9
$FILLMODE
 70
     1
  9
$QTEXTMODE
 70
     0
  9
$MIRRTEXT
 70
     0
  9
$DRAGMODE
 70
     2
  9
$LTSCALE
 40
6.0
  9
$OSMODE
 70
    37
  9
$ATTMODE
 70
     1
  9
$TEXTSIZE
 40
0.2
  9
$TRACEWID
 40
0.05
  9
$TEXTSTYLE
  7
STANDARD
  9
$CLAYER
  8
0
  9
$CELTYPE
  6
BYLAYER
  9
$CECOLOR
 62
   256
  9
$DIMSCALE
 40
1.0
  9
$DIMASZ
 40
3.0
  9
$DIMEXO
 40
1.0
  9
$DIMDLI
 40
6.0
  9
$DIMRND
 40
0.0
  9
$DIMDLE
 40
0.0
  9
$DIMEXE
 40
1.0
  9
$DIMTP
 40
495.0
  9
$DIMTM
 40
0.0
  9
$DIMTXT
 40
3.0
  9
$DIMCEN
 40
0.0
  9
$DIMTSZ
 40
0.0
  9
$DIMTOL
 70
     0
  9
$DIMLIM
 70
     0
  9
$DIMTIH
 70
     0
  9
$DIMTOH
 70
     0
  9
$DIMSE1
 70
     0
  9
$DIMSE2
 70
     0
  9
$DIMTAD
 70
     1
  9
$DIMZIN
 70
     0
  9
$DIMBLK
  1

  9
$DIMASO
 70
     0
  9
$DIMSHO
 70
     0
  9
$DIMPOST
  1

  9
$DIMAPOST
  1

  9
$DIMALT
 70
     0
  9
$DIMALTD
 70
     2
  9
$DIMALTF
 40
25.399999999999999
  9
$DIMLFAC
 40
1.0
  9
$DIMTOFL
 70
     1
  9
$DIMTVP
 40
0.0
  9
$DIMTIX
 70
     1
  9
$DIMSOXD
 70
     0
  9
$DIMSAH
 70
     0
  9
$DIMBLK1
  1

  9
$DIMBLK2
  1

  9
$DIMSTYLE
  2
STANDARD
  9
$DIMCLRD
 70
     0
  9
$DIMCLRE
 70
     0
  9
$DIMCLRT
 70
     4
  9
$DIMTFAC
 40
1.0
  9
$DIMGAP
 40
1.0
  9
$LUNITS
 70
     2
  9
$LUPREC
 70
     4
  9
$SKETCHINC
 40
0.1
  9
$FILLETRAD
 40
2.0
  9
$AUNITS
 70
     0
  9
$AUPREC
 70
     0
  9
$MENU
  1
C:\R13\WIN\SUPPORT\ACAD-I
  9
$ELEVATION
 40
0.0
  9
$PELEVATION
 40
0.0
  9
$THICKNESS
 40
0.0
  9
$LIMCHECK
 70
     0
  9
$BLIPMODE
 70
     0
  9
$CHAMFERA
 40
0.0
  9
$CHAMFERB
 40
0.0
  9
$SKPOLY
 70
     0
  9
$TDCREATE
 40
2451962.4087782642
  9
$TDUPDATE
 40
2456598.7212010422
  9
$TDINDWG
 40
0.1010594907
  9
$TDUSRTIMER
 40
2456598.0602263771
  9
$USRTIMER
 70
     1
  9
$ANGBASE
 50
0.0
  9
$ANGDIR
 70
     0
  9
$PDMODE
 70
     0
  9
$PDSIZE
 40
0.0
  9
$PLINEWID
 40
0.0
  9
$COORDS
 70
     1
  9
$SPLFRAME
 70
     0
  9
$SPLINETYPE
 70
     6
  9
$SPLINESEGS
 70
     8
  9
$ATTDIA
 70
     0
  9
$ATTREQ
 70
     1
  9
$HANDLING
 70
     1
  9
$HANDSEED
  5
3D10
  9
$SURFTAB1
 70
     6
  9
$SURFTAB2
 70
     6
  9
$SURFTYPE
 70
     6
  9
$SURFU
 70
     6
  9
$SURFV
 70
     6
  9
$UCSNAME
  2

  9
$UCSORG
 10
0.0
 20
0.0
 30
0.0
  9
$UCSXDIR
 10
1.0
 20
0.0
 30
0.0
  9
$UCSYDIR
 10
0.0
 20
1.0
 30
0.0
  9
$PUCSNAME
  2

  9
$PUCSORG
 10
0.0
 20
0.0
 30
0.0
  9
$PUCSXDIR
 10
1.0
 20
0.0
 30
0.0
  9
$PUCSYDIR
 10
0.0
 20
1.0
 30
0.0
  9
$USERI1
 70
     4
  9
$USERI2
 70
     1
  9
$USERI3
 70
     0
  9
$USERI4
 70
     0
  9
$USERI5
 70
     0
  9
$USERR1
 40
1.0
  9
$USERR2
 40
3.0
  9
$USERR3
 40
3.0
  9
$USERR4
 40
3.0
  9
$USERR5
 40
10.0
  9
$WORLDVIEW
 70
     1
  9
$SHADEDGE
 70
     3
  9
$SHADEDIF
 70
    70
  9
$TILEMODE
 70
     1
  9
$MAXACTVP
 70
    16
  9
$PLIMCHECK
 70
     0
  9
$PEXTMIN
 10
1.0000000000000000E+020
 20
1.0000000000000000E+020
 30
1.0000000000000000E+020
  9
$PEXTMAX
 10
-1.0000000000000000E+020
 20
-1.0000000000000000E+020
 30
-1.0000000000000000E+020
  9
$PLIMMIN
 10
0.0
 20
0.0
  9
$PLIMMAX
 10
12.0
 20
9.0
  9
$UNITMODE
 70
     0
  9
$VISRETAIN
 70
     0
  9
$PLINEGEN
 70
     0
  9
$PSLTSCALE
 70
     0
  0
ENDSEC
  0
SECTION
  2
TABLES
  0
TABLE
  2
VPORT
 70
     1
  0
VPORT
  2
*ACTIVE
 70
     0
 10
0.0
 20
0.0
 11
1.0
 21
1.0
 12
187.49427839065231
 22
177.52205812711131
 13
0.0
 23
0.0
 14
10.0
 24
10.0
 15
10.0
 25
10.0
 16
0.0
 26
0.0
 36
1.0
 17
0.0
 27
0.0
 37
0.0
 40
364.13085016302909
 41
1.755244755244755
 42
50.0
 43
0.0
 44
0.0
 50
0.0
 51
0.0
 71
    16
 72
   100
 73
     1
 74
     0
 75
     0
 76
     0
 77
     0
 78
     0
  0
ENDTAB
  0
TABLE
  2
LTYPE
 70
     3
  0
LTYPE
  2
CONTINUOUS
 70
     0
  3
Solid Line
 72
    65
 73
     0
 40
0.0
  0
LTYPE
  2
PHANTOM2
 70
     0
  3
___ _ _ ___ _ _ ___ _ _ ___ _ _
 72
    65
 73
     6
 40
1.25
 49
0.625
 49
-0.125
 49
0.125
 49
-0.125
 49
0.125
 49
-0.125
  0
LTYPE
  2
CENTER
 70
     0
  3
____ _ ____ _ ____ _ ____ _ ____ _ ____ _ ____
 72
    65
 73
     4
 40
2.0
 49
1.25
 49
-0.25
 49
0.25
 49
-0.25
  0
ENDTAB
  0
TABLE
  2
LAYER
 70
     3
  0
LAYER
  2
0
 70
     0
 62
     7
  6
CONTINUOUS
  0
LAYER
  2
1
 70
     0
 62
     1
  6
CENTER
  0
LAYER
  2
3
 70
     0
 62
     3
  6
CONTINUOUS
  0
ENDTAB
  0
TABLE
  2
STYLE
 70
     3
  0
STYLE
  2
STANDARD
 70
     0
 40
0.0
 41
1.0
 50
0.0
 71
     0
 42
0.2
  3
SIMPLEX
  4
BIGFONT
  0
STYLE
  2
ANNOTATIVE
 70
     0
 40
0.0
 41
1.0
 50
0.0
 71
     0
 42
0.2
  3
txt
  4

  0
STYLE
  2
STANDARD1
 70
     0
 40
0.0
 41
1.0
 50
0.0
 71
     0
 42
3.0
  3
txt
  4

  0
ENDTAB
  0
TABLE
  2
VIEW
 70
     0
  0
ENDTAB
  0
TABLE
  2
UCS
 70
     0
  0
ENDTAB
  0
TABLE
  2
APPID
 70
    29
  0
APPID
  2
ACAD
 70
     0
  0
APPID
  2
ACADANNOTATIVE
 70
     0
  0
APPID
  2
GENIUS_GENOREF_13
 70
     0
  0
APPID
  2
GENIUS_GENOENT_13
 70
     0
  0
APPID
  2
GENIUS_GENBH_13
 70
     0
  0
APPID
  2
GENIUS_GENOBJ_13
 70
     0
  0
APPID
  2
GENIUS_GENODEF_13
 70
     0
  0
APPID
  2
GENIUS_GENOLIS_13
 70
     0
  0
APPID
  2
GENIUS_GENOBJ-NBEHI-BHF_13
 70
     0
  0
APPID
  2
GENIUS_GENOBJ-NBEHI-BHB_13
 70
     0
  0
APPID
  2
GENIUS_GENOBJ-F-PART_13
 70
     0
  0
APPID
  2
GENIUS_GEFSTDP_13
 70
     0
  0
APPID
  2
GENIUS_GENOBJ-N-RSSYM_13
 70
     0
  0
APPID
  2
GENIUS_GENSYMENT_13
 70
     0
  0
APPID
  2
GENIUS_GENOBJ-N-TIT_13
 70
     0
  0
APPID
  2
GENIUS_GENTITLE_13
 70
     0
  0
APPID
  2
GENIUS_GENZVEED_13
 70
     0
  0
APPID
  2
GENIUS_GENOBJ-N-LEADER_13
 70
     0
  0
APPID
  2
GENIUS_GENOBJ-N-FIL_13
 70
     0
  0
APPID
  2
GENIUS_GENOBJ-N-SEC_13
 70
     0
  0
APPID
  2
GENIUS_GENOBJ-N-CRS_13
 70
     0
  0
APPID
  2
GENIUS_GENOBJ-N-ZOO_13
 70
     0
  0
APPID
  2
GENIUS_GENZOO_13
 70
     0
  0
APPID
  2
GENIUS_GENOBJ-F-TOL_13
 70
     0
  0
APPID
  2
GENIUS_GENFIL_13
 70
     0
  0
APPID
  2
GENIUS_GENOBJ-N-CHA_13
 70
     0
  0
APPID
  2
ACAD_EXEMPT_FROM_CAD_STANDARDS
 70
     0
  0
APPID
  2
ACAD_MLEADERVER
 70
     0
  0
APPID
  2
ACAD_NAV_VCDISPLAY
 70
     0
  0
ENDTAB
  0
TABLE
  2
DIMSTYLE
 70
     2
  0
DIMSTYLE
  2
STANDARD
 70
     0
  3

  4

  5

  6

  7

 40
1.0
 41
0.18
 42
0.0625
 43
0.38
 44
0.18
 45
0.0
 46
0.0
 47
0.0
 48
0.0
140
0.18
141
0.09
142
0.0
143
25.399999999999999
144
1.0
145
0.0
146
1.0
147
0.09
 71
     0
 72
     0
 73
     1
 74
     1
 75
     0
 76
     0
 77
     0
 78
     0
170
     0
171
     2
172
     0
173
     0
174
     0
175
     0
176
     0
177
     0
178
     0
  0
DIMSTYLE
  2
ANNOTATIVE
 70
     0
  3

  4

  5

  6

  7

 40
1.0
 41
0.18
 42
0.0625
 43
0.38
 44
0.18
 45
0.0
 46
0.0
 47
0.0
 48
0.0
140
0.18
141
0.09
142
0.0
143
25.399999999999999
144
1.0
145
0.0
146
1.0
147
0.09
 71
     0
 72
     0
 73
     1
 74
     1
 75
     0
 76
     0
 77
     0
 78
     0
170
     0
171
     2
172
     0
173
     0
174
     0
175
     0
176
     0
177
     0
178
     0
  0
ENDTAB
  0
ENDSEC
  0
SECTION
  2
BLOCKS
  0
BLOCK
  8
0
  2
$MODEL_SPACE
 70
     0
 10
0.0
 20
0.0
 30
0.0
  3
$MODEL_SPACE
  1

  0
ENDBLK
  5
3BD7
  8
0
  0
BLOCK
 67
     1
  8
0
  2
$PAPER_SPACE
 70
     0
 10
0.0
 20
0.0
 30
0.0
  3
$PAPER_SPACE
  1

  0
ENDBLK
  5
3BD3
 67
     1
  8
0
  0
ENDSEC
  0
SECTION
  2
ENTITIES
  0
ARC
  5
37C4
  8
0
 10
108.74915777810359
 20
36.282762050010433
 30
0.0
 40
2.0
 50
120.9637565320735
 51
180.0000000000004
  0
ARC
  5
37C5
  8
0
 10
113.74915777810359
 20
41.282762050010433
 30
0.0
 40
2.0
 50
120.963756532074
 51
180.0
  0
ARC
  5
37C6
  8
0
 10
118.74915777810359
 20
46.061076885094742
 30
0.0
 40
2.0
 50
111.8014094863517
 51
180.0000000000008
  0
ARC
  5
37C7
  8
0
 10
123.74915777810359
 20
49.415142807948662
 30
0.0
 40
2.0
 50
90.0
 51
179.9999999999992
  0
LINE
  5
37C8
  8
0
 10
111.74915777810359
 20
40.415142807948541
 30
0.0
 11
107.7201662672485
 21
37.997747901435559
 31
0.0
  0
LINE
  5
37C9
  8
0
 10
121.74915777810359
 20
49.415142807948548
 30
0.0
 11
121.74915777810359
 21
49.415142807948662
 31
0.0
  0
LINE
  5
37CA
  8
0
 10
121.74915777810359
 20
49.415142807948548
 30
0.0
 11
118.0063764253955
 21
47.918030266865351
 31
0.0
  0
LINE
  5
37CB
  8
0
 10
116.74915777810359
 20
45.415142807948527
 30
0.0
 11
112.7201662672485
 21
42.997747901435559
 31
0.0
  0
LINE
  5
37CC
  8
0
 10
111.74915777810359
 20
40.415142807948541
 30
0.0
 11
111.74915777810359
 21
41.282762050010433
 31
0.0
  0
LINE
  5
37CD
  8
0
 10
116.74915777810359
 20
45.415142807948527
 30
0.0
 11
116.74915777810359
 21
46.061076885094742
 31
0.0
  0
LINE
  5
37CF
  8
0
 10
106.74915777810359
 20
27.915142807948651
 30
0.0
 11
106.74915777810359
 21
36.282762050010433
 31
0.0
  0
LINE
  5
37D0
  8
0
 10
106.74915777810359
 20
27.915142807948651
 30
0.0
 11
107.24915777810359
 21
27.415142807948651
 31
0.0
  0
LINE
  5
37DE
  8
1
 10
45.621111099549033
 20
22.415142807948431
 30
0.0
 11
45.621111099550248
 21
163.41514280794871
 31
0.0
  0
LINE
  5
37DF
  8
0
 10
39.621111099550262
 20
81.415142807948556
 30
0.0
 11
39.621111099550262
 21
156.41514280794871
 31
0.0
  0
LINE
  5
37E0
  8
3
 10
40.568111099550137
 20
81.415142807948556
 30
0.0
 11
40.568111099550137
 21
157.3621428079486
 31
0.0
  0
LINE
  5
37E1
  8
3
 10
50.674111099550373
 20
81.415142807948556
 30
0.0
 11
50.674111099550373
 21
157.3621428079484
 31
0.0
  0
LINE
  5
37E2
  8
0
 10
51.621111099550248
 20
81.415142807948556
 30
0.0
 11
51.621111099550248
 21
156.41514280794851
 31
0.0
  0
LINE
  5
37E3
  8
0
 10
51.105938656847449
 20
80.277961897322712
 30
0.0
 11
51.105938656851542
 21
72.552323718574016
 31
0.0
  0
LINE
  5
37E4
  8
0
 10
56.590766214153291
 20
80.277961897322712
 30
0.0
 11
56.590766214153291
 21
72.552323718574257
 31
0.0
  0
LINE
  5
37E5
  8
0
 10
40.136283542253047
 20
80.277961897322712
 30
0.0
 11
40.136283542248982
 21
72.552323718574016
 31
0.0
  0
LINE
  5
37E6
  8
0
 10
34.651455984947241
 20
80.277961897322712
 30
0.0
 11
34.651455984947241
 21
72.552323718574257
 31
0.0
  0
LINE
  5
37E7
  8
0
 10
34.651455984947241
 20
72.552323718574371
 30
0.0
 11
36.621111099548898
 21
71.415142807948541
 31
0.0
  0
ARC
  5
37E8
  8
0
 10
37.393869763597891
 20
76.559881164551825
 30
0.0
 40
4.8560632220084567
 50
244.3842474680873
 51
304.3842474680165
  0
ARC
  5
37E9
  8
0
 10
45.621111099550248
 20
89.855312166528819
 30
0.0
 40
18.15149422398537
 50
252.41204622603641
 51
287.5879537739637
  0
ARC
  5
37EA
  8
0
 10
53.848352435502647
 20
76.559881164551825
 30
0.0
 40
4.8560632220084567
 50
235.6157525319833
 51
295.61575253191268
  0
LINE
  5
37EB
  8
0
 10
56.590766214153291
 20
72.552323718574371
 30
0.0
 11
54.621111099551619
 21
71.415142807948541
 31
0.0
  0
LINE
  5
37EC
  8
0
 10
36.621111099548898
 20
71.415142807948541
 30
0.0
 11
54.621111099551619
 21
71.415142807948541
 31
0.0
  0
LINE
  5
37ED
  8
0
 10
36.621111099548898
 20
81.415142807948556
 30
0.0
 11
54.621111099551619
 21
81.415142807948556
 31
0.0
  0
LINE
  5
37EE
  8
0
 10
56.590766214153291
 20
80.277961897322712
 30
0.0
 11
54.621111099551619
 21
81.415142807948556
 31
0.0
  0
ARC
  5
37EF
  8
0
 10
53.848352435502647
 20
76.270404451345243
 30
0.0
 40
4.8560632220084567
 50
64.384247468087224
 51
124.3842474680165
  0
ARC
  5
37F0
  8
0
 10
45.621111099550248
 20
62.974973449368228
 30
0.0
 40
18.15149422398537
 50
72.412046226036352
 51
107.5879537739636
  0
ARC
  5
37F1
  8
0
 10
37.393869763597891
 20
76.270404451345243
 30
0.0
 40
4.8560632220084567
 50
55.615752531983382
 51
115.6157525319127
  0
LINE
  5
37F2
  8
0
 10
34.651455984947241
 20
80.277961897322712
 30
0.0
 11
36.621111099548898
 21
81.415142807948556
 31
0.0
  0
LINE
  5
37F3
  8
0
 10
41.621111099550248
 20
158.41514280794871
 30
0.0
 11
49.621111099550248
 21
158.41514280794851
 31
0.0
  0
LINE
  5
37F4
  8
0
 10
51.621111099550021
 20
60.415142807948541
 30
0.0
 11
51.621111099550021
 21
71.415142807948541
 31
0.0
  0
LINE
  5
37F5
  8
3
 10
50.674111099550373
 20
62.415142807948541
 30
0.0
 11
50.674111099550373
 21
71.415142807948541
 31
0.0
  0
LINE
  5
37F6
  8
3
 10
40.568111099550137
 20
62.415142807948541
 30
0.0
 11
40.568111099550137
 21
71.415142807948541
 31
0.0
  0
LINE
  5
37F7
  8
0
 10
39.621111099550262
 20
60.415142807948541
 30
0.0
 11
39.621111099550262
 21
71.415142807948541
 31
0.0
  0
LINE
  5
37F8
  8
0
 10
41.621111099550248
 20
158.41514280794871
 30
0.0
 11
39.621111099550262
 21
156.41514280794871
 31
0.0
  0
LINE
  5
37F9
  8
0
 10
49.621111099550248
 20
158.41514280794851
 30
0.0
 11
51.621111099550248
 21
156.41514280794851
 31
0.0
  0
LINE
  5
37FA
  8
0
 10
39.621111099550262
 20
156.41514280794851
 30
0.0
 11
51.621111099550248
 21
156.41514280794851
 31
0.0
  0
LINE
  5
37FB
  8
0
 10
51.621111099550021
 20
62.415142807948541
 30
0.0
 11
39.621111099550262
 21
62.415142807948541
 31
0.0
  0
LINE
  5
37FC
  8
3
 10
40.568111099550137
 20
62.415142807948541
 30
0.0
 11
39.621111099550262
 21
60.774890693180851
 31
0.0
  0
LINE
  5
37FD
  8
3
 10
50.674111099550139
 20
62.415142807948541
 30
0.0
 11
51.621111099550021
 21
60.774890693180851
 31
0.0
  0
ARC
  5
37FE
  8
0
 10
49.121111099549807
 20
65.679824026075721
 30
0.0
 40
10.10924076103746
 50
249.74384199958331
 51
290.25615800041669
  0
LINE
  5
37FF
  8
0
 10
52.621111099550042
 20
55.57058326503828
 30
0.0
 11
52.351880330317933
 21
55.415142807948087
 31
0.0
  0
LINE
  5
3800
  8
0
 10
38.621111099549921
 20
55.57058326503828
 30
0.0
 11
38.890341868781888
 21
55.415142807948087
 31
0.0
  0
ARC
  5
3801
  8
0
 10
42.121111099550021
 20
65.679824026075721
 30
0.0
 40
10.10924076103746
 50
249.74384199958331
 51
290.25615800041669
  0
LINE
  5
3802
  8
0
 10
52.351880330317933
 20
55.415142807948087
 30
0.0
 11
38.890341868781888
 21
55.415142807948087
 31
0.0
  0
ARC
  5
3803
  8
0
 10
49.121111099549807
 20
50.150461589820331
 30
0.0
 40
10.10924076103746
 50
69.743841999583282
 51
110.2561580004167
  0
LINE
  5
3804
  8
0
 10
52.621111099550042
 20
60.259702350857751
 30
0.0
 11
52.351880330317933
 21
60.415142807948087
 31
0.0
  0
LINE
  5
3805
  8
0
 10
38.621111099549921
 20
60.259702350857751
 30
0.0
 11
38.890341868781888
 21
60.415142807948087
 31
0.0
  0
ARC
  5
3806
  8
0
 10
42.121111099550021
 20
50.150461589820331
 30
0.0
 40
10.10924076103746
 50
69.743841999583282
 51
110.2561580004167
  0
LINE
  5
3807
  8
0
 10
52.351880330317933
 20
60.415142807948087
 30
0.0
 11
38.890341868781888
 21
60.415142807948087
 31
0.0
  0
LINE
  5
3808
  8
0
 10
52.621111099550042
 20
60.259702350857751
 30
0.0
 11
52.621111099550042
 21
55.57058326503828
 31
0.0
  0
LINE
  5
3809
  8
0
 10
38.621111099549921
 20
60.259702350857751
 30
0.0
 11
38.621111099549921
 21
55.57058326503828
 31
0.0
  0
LINE
  5
380A
  8
0
 10
45.621111099549921
 20
59.63448756851858
 30
0.0
 11
45.621111099549921
 21
56.195798047377473
 31
0.0
  0
LINE
  5
380B
  8
0
 10
40.121111099550021
 20
51.4151428079482
 30
0.0
 11
40.121111099550021
 21
55.415142807948087
 31
0.0
  0
LINE
  5
380C
  8
0
 10
51.121111099550021
 20
51.4151428079482
 30
0.0
 11
51.121111099550021
 21
55.415142807948087
 31
0.0
  0
LINE
  5
380D
  8
0
 10
142.74915777810679
 20
81.415142807948655
 30
0.0
 11
142.74915777810679
 21
156.41514280794851
 31
0.0
  0
LINE
  5
380E
  8
3
 10
141.8021577781069
 20
81.415142807948655
 30
0.0
 11
141.8021577781069
 21
157.3621428079484
 31
0.0
  0
LINE
  5
380F
  8
0
 10
130.74915777810679
 20
81.415142807948754
 30
0.0
 11
130.74915777810679
 21
156.41514280794871
 31
0.0
  0
LINE
  5
3810
  8
3
 10
131.69615777810671
 20
81.415142807948556
 30
0.0
 11
131.69615777810671
 21
157.3621428079486
 31
0.0
  0
LINE
  5
3811
  8
3
 10
131.69615777810671
 20
62.415142807948541
 30
0.0
 11
130.74915777810679
 21
60.774890693180851
 31
0.0
  0
LINE
  5
3812
  8
0
 10
132.74915777810679
 20
158.41514280794871
 30
0.0
 11
130.74915777810679
 21
156.41514280794871
 31
0.0
  0
LINE
  5
3813
  8
3
 10
131.69615777810671
 20
62.415142807948541
 30
0.0
 11
131.69615777810671
 21
71.415142807948655
 31
0.0
  0
LINE
  5
3814
  8
0
 10
130.74915777810679
 20
60.415142807948541
 30
0.0
 11
130.74915777810679
 21
71.415142807948541
 31
0.0
  0
LINE
  5
3815
  8
3
 10
141.80215777810659
 20
62.415142807948541
 30
0.0
 11
142.74915777810679
 21
60.774890693180851
 31
0.0
  0
LINE
  5
3816
  8
0
 10
142.74915777810679
 20
62.415142807948541
 30
0.0
 11
130.74915777810679
 21
62.415142807948541
 31
0.0
  0
LINE
  5
3817
  8
0
 10
130.74915777810679
 20
156.41514280794851
 30
0.0
 11
142.74915777810679
 21
156.41514280794851
 31
0.0
  0
LINE
  5
3818
  8
0
 10
140.74915777810679
 20
158.41514280794851
 30
0.0
 11
142.74915777810679
 21
156.41514280794851
 31
0.0
  0
LINE
  5
3819
  8
3
 10
141.8021577781069
 20
62.415142807948541
 30
0.0
 11
141.8021577781069
 21
71.415142807948655
 31
0.0
  0
LINE
  5
381A
  8
0
 10
142.74915777810679
 20
60.415142807948541
 30
0.0
 11
142.74915777810679
 21
71.415142807948655
 31
0.0
  0
LINE
  5
381B
  8
0
 10
132.74915777810679
 20
158.41514280794871
 30
0.0
 11
140.74915777810679
 21
158.41514280794851
 31
0.0
  0
LINE
  5
381C
  8
0
 10
136.74915777810361
 20
80.277961897322811
 30
0.0
 11
136.74915777810679
 21
72.552323718574485
 31
0.0
  0
LINE
  5
381D
  8
0
 10
145.74915777810679
 20
71.415142807948655
 30
0.0
 11
127.74915777810681
 21
71.415142807948655
 31
0.0
  0
LINE
  5
381E
  8
0
 10
127.74915777810681
 20
81.415142807948655
 30
0.0
 11
145.74915777810679
 21
81.415142807948655
 31
0.0
  0
LINE
  5
381F
  8
0
 10
127.24915777810681
 20
81.126467673353773
 30
0.0
 11
127.74915777810681
 21
81.415142807948655
 31
0.0
  0
ARC
  5
3820
  8
0
 10
131.99915777810679
 20
67.406783783360652
 30
0.0
 40
13.719683889993171
 50
69.743841999613082
 51
110.256158000387
  0
LINE
  5
3821
  8
0
 10
127.74915777810681
 20
71.415142807948655
 30
0.0
 11
127.24915777810681
 21
71.775614712268748
 31
0.0
  0
LINE
  5
3822
  8
0
 10
127.24915777810681
 20
71.775614712268748
 30
0.0
 11
127.24915777810681
 21
81.126467673353773
 31
0.0
  0
ARC
  5
3823
  8
0
 10
131.99915777810679
 20
85.423501832536672
 30
0.0
 40
13.719683889993171
 50
249.7438419996115
 51
290.25615800038702
  0
ARC
  5
3824
  8
0
 10
141.49915777810679
 20
85.423501832536672
 30
0.0
 40
13.719683889993171
 50
249.7438419996115
 51
290.25615800038702
  0
LINE
  5
3825
  8
0
 10
146.24915777810679
 20
71.775614712268748
 30
0.0
 11
146.24915777810679
 21
81.126467673353773
 31
0.0
  0
LINE
  5
3826
  8
0
 10
145.74915777810679
 20
71.415142807948655
 30
0.0
 11
146.24915777810679
 21
71.775614712268748
 31
0.0
  0
ARC
  5
3827
  8
0
 10
141.49915777810679
 20
67.406783783360652
 30
0.0
 40
13.719683889993171
 50
69.743841999613082
 51
110.256158000387
  0
LINE
  5
3828
  8
0
 10
146.24915777810679
 20
81.126467673353773
 30
0.0
 11
145.74915777810679
 21
81.415142807948655
 31
0.0
  0
LINE
  5
3829
  8
0
 10
142.24915777810679
 20
51.4151428079482
 30
0.0
 11
142.24915777810679
 21
55.415142807948321
 31
0.0
  0
LINE
  5
382A
  8
0
 10
131.24915777810679
 20
51.4151428079482
 30
0.0
 11
131.24915777810679
 21
55.415142807948321
 31
0.0
  0
ARC
  5
382B
  8
0
 10
130.68697995161571
 20
56.681550503065388
 30
0.0
 40
3.5781518477924039
 50
55.615752531961242
 51
115.61575253217271
  0
ARC
  5
382C
  8
0
 10
136.7491577781077
 20
46.884917133203999
 30
0.0
 40
13.374785217653811
 50
72.412046225995169
 51
107.5879537740048
  0
LINE
  5
382D
  8
0
 10
128.6662540094519
 20
59.63448756851858
 30
0.0
 11
130.01838854733879
 21
60.415142807948087
 31
0.0
  0
LINE
  5
382E
  8
0
 10
128.6662540094519
 20
56.195798047377821
 30
0.0
 11
130.01838854733879
 21
55.415142807948321
 31
0.0
  0
ARC
  5
382F
  8
0
 10
130.68697995161571
 20
59.148735112830991
 30
0.0
 40
3.5781518477924039
 50
244.38424746782729
 51
304.38424746803872
  0
ARC
  5
3830
  8
0
 10
136.7491577781077
 20
68.945368482692174
 30
0.0
 40
13.374785217653811
 50
252.4120462259952
 51
287.5879537740048
  0
LINE
  5
3831
  8
0
 10
128.6662540094519
 20
59.63448756851858
 30
0.0
 11
128.6662540094519
 21
56.195798047377821
 31
0.0
  0
LINE
  5
3832
  8
0
 10
132.7077058937812
 20
59.634487568517429
 30
0.0
 11
132.70770589377929
 21
56.195798047379412
 31
0.0
  0
LINE
  5
3833
  8
0
 10
140.79060966243239
 20
59.634487568519027
 30
0.0
 11
140.79060966243421
 21
56.195798047379412
 31
0.0
  0
LINE
  5
3834
  8
0
 10
144.83206154676139
 20
59.63448756851858
 30
0.0
 11
144.83206154676139
 21
56.195798047377821
 31
0.0
  0
ARC
  5
3835
  8
0
 10
142.81133560459759
 20
59.148735112830991
 30
0.0
 40
3.5781518477924039
 50
235.61575253196131
 51
295.61575253217268
  0
LINE
  5
3836
  8
0
 10
144.83206154676139
 20
56.195798047377821
 30
0.0
 11
143.47992700887471
 21
55.415142807948321
 31
0.0
  0
LINE
  5
3837
  8
0
 10
144.83206154676139
 20
59.63448756851858
 30
0.0
 11
143.47992700887471
 21
60.415142807948087
 31
0.0
  0
ARC
  5
3838
  8
0
 10
142.81133560459759
 20
56.681550503065388
 30
0.0
 40
3.5781518477924039
 50
64.384247467827308
 51
124.38424746803869
  0
LINE
  5
3839
  8
0
 10
130.01838854733751
 20
60.415142807948087
 30
0.0
 11
143.47992700887451
 21
60.415142807948087
 31
0.0
  0
LINE
  5
383A
  8
0
 10
143.47992700887471
 20
55.415142807948321
 30
0.0
 11
130.0183885473391
 21
55.415142807948321
 31
0.0
  0
LINE
  5
383B
  8
0
 10
34.651455984947688
 20
215.3711291258526
 30
0.0
 11
40.136283542249203
 21
205.8711291258526
 31
0.0
  0
LINE
  5
383C
  8
0
 10
40.136283542249203
 20
224.8711291258526
 30
0.0
 11
34.651455984947688
 21
215.3711291258526
 31
0.0
  0
LINE
  5
383D
  8
0
 10
51.10593865685199
 20
224.8711291258526
 30
0.0
 11
40.136283542249203
 21
224.8711291258526
 31
0.0
  0
LINE
  5
383E
  8
0
 10
56.590766214153291
 20
215.3711291258526
 30
0.0
 11
51.10593865685199
 21
224.8711291258526
 31
0.0
  0
LINE
  5
383F
  8
0
 10
51.105938656851777
 20
205.8711291258526
 30
0.0
 11
56.590766214153291
 21
215.3711291258526
 31
0.0
  0
CIRCLE
  5
3840
  8
3
 10
45.621111099550497
 20
215.3711291258526
 30
0.0
 40
5.052999999999999
  0
CIRCLE
  5
3841
  8
0
 10
45.621111099550497
 20
215.3711291258526
 30
0.0
 40
6.0
  0
CIRCLE
  5
3842
  8
0
 10
45.621111099550497
 20
215.3711291258526
 30
0.0
 40
9.0
  0
LINE
  5
3843
  8
0
 10
40.136283542249203
 20
205.8711291258526
 30
0.0
 11
51.105938656851777
 21
205.8711291258526
 31
0.0
  0
LINE
  5
3844
  8
1
 10
80.62111109955049
 20
215.3711291258526
 30
0.0
 11
10.62111109955049
 21
215.3711291258526
 31
0.0
  0
LINE
  5
3845
  8
1
 10
45.621111099550497
 20
250.3711291258526
 30
0.0
 11
45.621111099550497
 21
180.37112912585241
 31
0.0
  0
CIRCLE
  5
3846
  8
0
 10
45.62111109955071
 20
215.3711291258526
 30
0.0
 40
14.99999999999981
  0
CIRCLE
  5
3847
  8
0
 10
45.621111099550497
 20
215.3711291258526
 30
0.0
 40
20.00000000000006
  0
CIRCLE
  5
3848
  8
0
 10
45.621111099550497
 20
215.3711291258526
 30
0.0
 40
25.0
  0
CIRCLE
  5
3849
  8
0
 10
45.621111099550497
 20
215.3711291258526
 30
0.0
 40
30.0
  0
LINE
  5
384B
  8
0
 10
166.74915777810361
 20
27.915142807948651
 30
0.0
 11
166.24915777810361
 21
27.415142807948651
 31
0.0
  0
LINE
  5
384C
  8
0
 10
166.74915777810361
 20
27.915142807948651
 30
0.0
 11
166.74915777810361
 21
36.282762050010433
 31
0.0
  0
LINE
  5
384D
  8
0
 10
107.24915777810359
 20
27.415142807948651
 30
0.0
 11
166.24915777810341
 21
27.415142807948651
 31
0.0
  0
LINE
  5
3850
  8
0
 10
111.74915777810359
 20
40.415142807948541
 30
0.0
 11
161.74915777810361
 21
40.415142807948541
 31
0.0
  0
LINE
  5
3851
  8
0
 10
116.74915777810359
 20
45.415142807948662
 30
0.0
 11
156.74915777810361
 21
45.415142807948527
 31
0.0
  0
LINE
  5
3852
  8
0
 10
121.74915777810359
 20
49.415142807948662
 30
0.0
 11
151.74915777810361
 21
49.415142807948662
 31
0.0
  0
LINE
  5
3853
  8
0
 10
156.74915777810361
 20
45.415142807948527
 30
0.0
 11
156.74915777810361
 21
46.061076885094742
 31
0.0
  0
LINE
  5
3854
  8
0
 10
161.74915777810361
 20
40.415142807948541
 30
0.0
 11
161.74915777810361
 21
41.282762050010433
 31
0.0
  0
LINE
  5
3855
  8
0
 10
156.74915777810361
 20
45.415142807948527
 30
0.0
 11
160.7781492889587
 21
42.997747901435559
 31
0.0
  0
LINE
  5
3856
  8
0
 10
151.74915777810361
 20
49.415142807948548
 30
0.0
 11
155.49193913081169
 21
47.918030266865351
 31
0.0
  0
LINE
  5
3857
  8
0
 10
123.74915777810359
 20
51.415142807948648
 30
0.0
 11
149.74915777810361
 21
51.415142807948648
 31
0.0
  0
LINE
  5
3858
  8
0
 10
151.74915777810361
 20
49.415142807948548
 30
0.0
 11
151.74915777810361
 21
49.415142807948662
 31
0.0
  0
LINE
  5
3859
  8
0
 10
161.74915777810361
 20
40.415142807948541
 30
0.0
 11
165.7781492889587
 21
37.997747901435559
 31
0.0
  0
ARC
  5
385A
  8
0
 10
149.74915777810361
 20
49.415142807948662
 30
0.0
 40
2.0
 50
0.0000000000008142
 51
90.0
  0
ARC
  5
385B
  8
0
 10
154.74915777810361
 20
46.061076885094742
 30
0.0
 40
2.0
 50
359.9999999999992
 51
68.198590513648639
  0
ARC
  5
385C
  8
0
 10
159.74915777810361
 20
41.282762050010433
 30
0.0
 40
2.0
 50
0.0
 51
59.036243467926028
  0
ARC
  5
385D
  8
0
 10
164.74915777810361
 20
36.282762050010433
 30
0.0
 40
2.0
 50
359.9999999999996
 51
59.036243467926127
  0
LINE
  5
390F
  8
1
 10
136.74915777810361
 20
163.41513046380209
 30
0.0
 11
136.74915777810361
 21
22.41514280794868
 31
0.0
  0
ARC
  5
3938
  8
0
 10
73.62111109954931
 20
36.282762050010213
 30
0.0
 40
2.0
 50
359.9999999999996
 51
59.036243467926582
  0
ARC
  5
3939
  8
0
 10
68.621111099549339
 20
41.282762050010213
 30
0.0
 40
2.0
 50
0.0
 51
59.036243467926127
  0
ARC
  5
393A
  8
0
 10
63.621111099549317
 20
46.061076885094501
 30
0.0
 40
2.0
 50
359.9999999999992
 51
68.198590513648256
  0
ARC
  5
393B
  8
0
 10
58.621111099549317
 20
49.415142807948421
 30
0.0
 40
2.0
 50
0.0000000000008142
 51
90.0
  0
LINE
  5
393C
  8
0
 10
70.621111099549324
 20
40.415142807948321
 30
0.0
 11
74.65010261040446
 21
37.997747901435332
 31
0.0
  0
LINE
  5
393D
  8
0
 10
60.621111099549317
 20
49.415142807948321
 30
0.0
 11
60.621111099549317
 21
49.415142807948421
 31
0.0
  0
LINE
  5
393E
  8
0
 10
32.621111099549331
 20
51.415142807948421
 30
0.0
 11
58.621111099549317
 21
51.415142807948421
 31
0.0
  0
LINE
  5
393F
  8
0
 10
60.621111099549317
 20
49.415142807948321
 30
0.0
 11
64.363892452257431
 21
47.918030266865109
 31
0.0
  0
LINE
  5
3940
  8
0
 10
65.621111099549324
 20
45.415142807948321
 30
0.0
 11
69.65010261040446
 21
42.997747901435332
 31
0.0
  0
LINE
  5
3941
  8
0
 10
70.621111099549324
 20
40.415142807948321
 30
0.0
 11
70.621111099549324
 21
41.282762050010213
 31
0.0
  0
LINE
  5
3942
  8
0
 10
65.621111099549324
 20
45.415142807948321
 30
0.0
 11
65.621111099549324
 21
46.061076885094501
 31
0.0
  0
LINE
  5
3943
  8
0
 10
30.621111099549321
 20
49.415142807948421
 30
0.0
 11
60.621111099549317
 21
49.415142807948421
 31
0.0
  0
LINE
  5
3944
  8
0
 10
25.621111099549321
 20
45.415142807948428
 30
0.0
 11
65.621111099549324
 21
45.415142807948321
 31
0.0
  0
LINE
  5
3945
  8
0
 10
20.621111099549321
 20
40.415142807948321
 30
0.0
 11
70.621111099549324
 21
40.415142807948321
 31
0.0
  0
LINE
  5
3948
  8
0
 10
16.121111099549321
 20
27.415142807948431
 30
0.0
 11
75.121111099549097
 21
27.415142807948431
 31
0.0
  0
LINE
  5
3949
  8
0
 10
75.62111109954931
 20
27.915142807948431
 30
0.0
 11
75.62111109954931
 21
36.282762050010213
 31
0.0
  0
LINE
  5
394A
  8
0
 10
75.62111109954931
 20
27.915142807948431
 30
0.0
 11
75.12111109954931
 21
27.415142807948431
 31
0.0
  0
LINE
  5
394B
  8
0
 10
15.621111099549321
 20
27.915142807948431
 30
0.0
 11
16.121111099549321
 21
27.415142807948431
 31
0.0
  0
LINE
  5
394C
  8
0
 10
15.621111099549321
 20
27.915142807948431
 30
0.0
 11
15.621111099549321
 21
36.282762050010213
 31
0.0
  0
LINE
  5
394E
  8
0
 10
25.621111099549321
 20
45.415142807948321
 30
0.0
 11
25.621111099549321
 21
46.061076885094501
 31
0.0
  0
LINE
  5
394F
  8
0
 10
20.621111099549321
 20
40.415142807948321
 30
0.0
 11
20.621111099549321
 21
41.282762050010213
 31
0.0
  0
LINE
  5
3950
  8
0
 10
25.621111099549321
 20
45.415142807948321
 30
0.0
 11
21.592119588694199
 21
42.997747901435332
 31
0.0
  0
LINE
  5
3951
  8
0
 10
30.621111099549321
 20
49.415142807948321
 30
0.0
 11
26.878329746841221
 21
47.918030266865109
 31
0.0
  0
LINE
  5
3952
  8
0
 10
30.621111099549321
 20
49.415142807948321
 30
0.0
 11
30.621111099549321
 21
49.415142807948421
 31
0.0
  0
LINE
  5
3953
  8
0
 10
20.621111099549321
 20
40.415142807948321
 30
0.0
 11
16.592119588694199
 21
37.997747901435332
 31
0.0
  0
ARC
  5
3954
  8
0
 10
32.621111099549331
 20
49.415142807948421
 30
0.0
 40
2.0
 50
90.0
 51
179.9999999999992
  0
ARC
  5
3955
  8
0
 10
27.621111099549331
 20
46.061076885094501
 30
0.0
 40
2.0
 50
111.8014094863516
 51
180.0000000000008
  0
ARC
  5
3956
  8
0
 10
22.621111099549331
 20
41.282762050010213
 30
0.0
 40
2.0
 50
120.9637565320738
 51
180.0
  0
ARC
  5
3957
  8
0
 10
17.621111099549321
 20
36.282762050010213
 30
0.0
 40
2.0
 50
120.9637565320735
 51
180.0000000000004
  0
TEXT
  5
3C57
  8
0
 62
     3
 10
0.0
 20
0.0
 30
0.0
 40
10.0
  1
LVE60S12C-SUS
  7
STANDARD1
  0
ENDSEC
  0
EOF
