  0
SECTION
  2
HEADER
  9
$ACADVER
  1
AC1009
  9
$INSBASE
 10
0.0
 20
0.0
 30
0.0
  9
$EXTMIN
 10
0.0
 20
-2.960436562073669
 30
0.0
  9
$EXTMAX
 10
236.9904086712481
 20
285.97167314093781
 30
0.0
  9
$LIMMIN
 10
0.0
 20
0.0
  9
$LIMMAX
 10
375.0
 20
270.0
  9
$ORTHOMODE
 70
     1
  9
$REGENMODE
 70
     1
  9
$FILLMODE
 70
     1
  9
$QTEXTMODE
 70
     0
  9
$MIRRTEXT
 70
     0
  9
$DRAGMODE
 70
     2
  9
$LTSCALE
 40
6.0
  9
$OSMODE
 70
  3071
  9
$ATTMODE
 70
     1
  9
$TEXTSIZE
 40
0.2
  9
$TRACEWID
 40
0.05
  9
$TEXTSTYLE
  7
STANDARD
  9
$CLAYER
  8
0
  9
$CELTYPE
  6
BYLAYER
  9
$CECOLOR
 62
   256
  9
$DIMSCALE
 40
1.0
  9
$DIMASZ
 40
3.0
  9
$DIMEXO
 40
1.0
  9
$DIMDLI
 40
6.0
  9
$DIMRND
 40
0.0
  9
$DIMDLE
 40
0.0
  9
$DIMEXE
 40
1.0
  9
$DIMTP
 40
495.0
  9
$DIMTM
 40
0.0
  9
$DIMTXT
 40
3.0
  9
$DIMCEN
 40
0.0
  9
$DIMTSZ
 40
0.0
  9
$DIMTOL
 70
     0
  9
$DIMLIM
 70
     0
  9
$DIMTIH
 70
     0
  9
$DIMTOH
 70
     0
  9
$DIMSE1
 70
     0
  9
$DIMSE2
 70
     0
  9
$DIMTAD
 70
     1
  9
$DIMZIN
 70
     0
  9
$DIMBLK
  1

  9
$DIMASO
 70
     0
  9
$DIMSHO
 70
     0
  9
$DIMPOST
  1

  9
$DIMAPOST
  1

  9
$DIMALT
 70
     0
  9
$DIMALTD
 70
     2
  9
$DIMALTF
 40
25.399999999999999
  9
$DIMLFAC
 40
1.0
  9
$DIMTOFL
 70
     1
  9
$DIMTVP
 40
0.0
  9
$DIMTIX
 70
     1
  9
$DIMSOXD
 70
     0
  9
$DIMSAH
 70
     0
  9
$DIMBLK1
  1

  9
$DIMBLK2
  1

  9
$DIMSTYLE
  2
STANDARD
  9
$DIMCLRD
 70
     0
  9
$DIMCLRE
 70
     0
  9
$DIMCLRT
 70
     4
  9
$DIMTFAC
 40
1.0
  9
$DIMGAP
 40
1.0
  9
$LUNITS
 70
     2
  9
$LUPREC
 70
     4
  9
$SKETCHINC
 40
0.1
  9
$FILLETRAD
 40
2.0
  9
$AUNITS
 70
     0
  9
$AUPREC
 70
     0
  9
$MENU
  1
C:\R13\WIN\SUPPORT\ACAD-I
  9
$ELEVATION
 40
0.0
  9
$PELEVATION
 40
0.0
  9
$THICKNESS
 40
0.0
  9
$LIMCHECK
 70
     0
  9
$BLIPMODE
 70
     0
  9
$CHAMFERA
 40
0.0
  9
$CHAMFERB
 40
0.0
  9
$SKPOLY
 70
     0
  9
$TDCREATE
 40
2451962.45850184
  9
$TDUPDATE
 40
2456597.6156650581
  9
$TDINDWG
 40
0.0105748495
  9
$TDUSRTIMER
 40
2456556.182104433
  9
$USRTIMER
 70
     1
  9
$ANGBASE
 50
0.0
  9
$ANGDIR
 70
     0
  9
$PDMODE
 70
     0
  9
$PDSIZE
 40
0.0
  9
$PLINEWID
 40
0.0
  9
$COORDS
 70
     1
  9
$SPLFRAME
 70
     0
  9
$SPLINETYPE
 70
     6
  9
$SPLINESEGS
 70
     8
  9
$ATTDIA
 70
     0
  9
$ATTREQ
 70
     1
  9
$HANDLING
 70
     1
  9
$HANDSEED
  5
5C1F
  9
$SURFTAB1
 70
     6
  9
$SURFTAB2
 70
     6
  9
$SURFTYPE
 70
     6
  9
$SURFU
 70
     6
  9
$SURFV
 70
     6
  9
$UCSNAME
  2

  9
$UCSORG
 10
0.0
 20
0.0
 30
0.0
  9
$UCSXDIR
 10
1.0
 20
0.0
 30
0.0
  9
$UCSYDIR
 10
0.0
 20
1.0
 30
0.0
  9
$PUCSNAME
  2

  9
$PUCSORG
 10
0.0
 20
0.0
 30
0.0
  9
$PUCSXDIR
 10
1.0
 20
0.0
 30
0.0
  9
$PUCSYDIR
 10
0.0
 20
1.0
 30
0.0
  9
$USERI1
 70
     4
  9
$USERI2
 70
     1
  9
$USERI3
 70
     0
  9
$USERI4
 70
     0
  9
$USERI5
 70
     0
  9
$USERR1
 40
1.0
  9
$USERR2
 40
3.0
  9
$USERR3
 40
3.0
  9
$USERR4
 40
3.0
  9
$USERR5
 40
10.0
  9
$WORLDVIEW
 70
     1
  9
$SHADEDGE
 70
     3
  9
$SHADEDIF
 70
    70
  9
$TILEMODE
 70
     1
  9
$MAXACTVP
 70
    16
  9
$PLIMCHECK
 70
     0
  9
$PEXTMIN
 10
1.0000000000000000E+020
 20
1.0000000000000000E+020
 30
1.0000000000000000E+020
  9
$PEXTMAX
 10
-1.0000000000000000E+020
 20
-1.0000000000000000E+020
 30
-1.0000000000000000E+020
  9
$PLIMMIN
 10
0.0
 20
0.0
  9
$PLIMMAX
 10
12.0
 20
9.0
  9
$UNITMODE
 70
     0
  9
$VISRETAIN
 70
     0
  9
$PLINEGEN
 70
     0
  9
$PSLTSCALE
 70
     0
  0
ENDSEC
  0
SECTION
  2
TABLES
  0
TABLE
  2
VPORT
 70
     1
  0
VPORT
  2
*ACTIVE
 70
     0
 10
0.0
 20
0.0
 11
1.0
 21
1.0
 12
187.49427839065231
 22
142.12775386293299
 13
0.0
 23
0.0
 14
10.0
 24
10.0
 15
10.0
 25
10.0
 16
0.0
 26
0.0
 36
1.0
 17
0.0
 27
0.0
 37
0.0
 40
293.52876898698997
 41
2.304913294797688
 42
50.0
 43
0.0
 44
0.0
 50
0.0
 51
0.0
 71
    16
 72
   100
 73
     1
 74
     0
 75
     0
 76
     0
 77
     0
 78
     0
  0
ENDTAB
  0
TABLE
  2
LTYPE
 70
     3
  0
LTYPE
  2
CONTINUOUS
 70
     0
  3
Solid Line
 72
    65
 73
     0
 40
0.0
  0
LTYPE
  2
PHANTOM2
 70
     0
  3
___ _ _ ___ _ _ ___ _ _ ___ _ _
 72
    65
 73
     6
 40
1.25
 49
0.625
 49
-0.125
 49
0.125
 49
-0.125
 49
0.125
 49
-0.125
  0
LTYPE
  2
CENTER
 70
     0
  3
____ _ ____ _ ____ _ ____ _ ____ _ ____ _ ____
 72
    65
 73
     4
 40
2.0
 49
1.25
 49
-0.25
 49
0.25
 49
-0.25
  0
ENDTAB
  0
TABLE
  2
LAYER
 70
     3
  0
LAYER
  2
0
 70
     0
 62
     7
  6
CONTINUOUS
  0
LAYER
  2
1
 70
     0
 62
     1
  6
CENTER
  0
LAYER
  2
3
 70
     0
 62
     3
  6
CONTINUOUS
  0
ENDTAB
  0
TABLE
  2
STYLE
 70
     3
  0
STYLE
  2
STANDARD
 70
     0
 40
0.0
 41
1.0
 50
0.0
 71
     0
 42
0.2
  3
SIMPLEX
  4
BIGFONT
  0
STYLE
  2
ANNOTATIVE
 70
     0
 40
0.0
 41
1.0
 50
0.0
 71
     0
 42
0.2
  3
txt
  4

  0
STYLE
  2
STANDARD1
 70
     0
 40
0.0
 41
1.0
 50
0.0
 71
     0
 42
3.0
  3
txt
  4

  0
ENDTAB
  0
TABLE
  2
VIEW
 70
     0
  0
ENDTAB
  0
TABLE
  2
UCS
 70
     0
  0
ENDTAB
  0
TABLE
  2
APPID
 70
    29
  0
APPID
  2
ACAD
 70
     0
  0
APPID
  2
ACADANNOTATIVE
 70
     0
  0
APPID
  2
GENIUS_GENOREF_13
 70
     0
  0
APPID
  2
GENIUS_GENOENT_13
 70
     0
  0
APPID
  2
GENIUS_GENBH_13
 70
     0
  0
APPID
  2
GENIUS_GENOBJ_13
 70
     0
  0
APPID
  2
GENIUS_GENODEF_13
 70
     0
  0
APPID
  2
GENIUS_GENOLIS_13
 70
     0
  0
APPID
  2
GENIUS_GENOBJ-NBEHI-BHF_13
 70
     0
  0
APPID
  2
GENIUS_GENOBJ-NBEHI-BHB_13
 70
     0
  0
APPID
  2
GENIUS_GENOBJ-F-PART_13
 70
     0
  0
APPID
  2
GENIUS_GEFSTDP_13
 70
     0
  0
APPID
  2
GENIUS_GENOBJ-N-RSSYM_13
 70
     0
  0
APPID
  2
GENIUS_GENSYMENT_13
 70
     0
  0
APPID
  2
GENIUS_GENOBJ-N-TIT_13
 70
     0
  0
APPID
  2
GENIUS_GENTITLE_13
 70
     0
  0
APPID
  2
GENIUS_GENZVEED_13
 70
     0
  0
APPID
  2
GENIUS_GENOBJ-N-LEADER_13
 70
     0
  0
APPID
  2
GENIUS_GENOBJ-N-FIL_13
 70
     0
  0
APPID
  2
GENIUS_GENOBJ-N-SEC_13
 70
     0
  0
APPID
  2
GENIUS_GENOBJ-N-CRS_13
 70
     0
  0
APPID
  2
GENIUS_GENOBJ-N-ZOO_13
 70
     0
  0
APPID
  2
GENIUS_GENZOO_13
 70
     0
  0
APPID
  2
GENIUS_GENOBJ-F-TOL_13
 70
     0
  0
APPID
  2
GENIUS_GENFIL_13
 70
     0
  0
APPID
  2
GENIUS_GENOBJ-N-CHA_13
 70
     0
  0
APPID
  2
ACAD_EXEMPT_FROM_CAD_STANDARDS
 70
     0
  0
APPID
  2
ACAD_MLEADERVER
 70
     0
  0
APPID
  2
ACAD_NAV_VCDISPLAY
 70
     0
  0
ENDTAB
  0
TABLE
  2
DIMSTYLE
 70
     2
  0
DIMSTYLE
  2
STANDARD
 70
     0
  3

  4

  5

  6

  7

 40
1.0
 41
0.18
 42
0.0625
 43
0.38
 44
0.18
 45
0.0
 46
0.0
 47
0.0
 48
0.0
140
0.18
141
0.09
142
0.0
143
25.399999999999999
144
1.0
145
0.0
146
1.0
147
0.09
 71
     0
 72
     0
 73
     1
 74
     1
 75
     0
 76
     0
 77
     0
 78
     0
170
     0
171
     2
172
     0
173
     0
174
     0
175
     0
176
     0
177
     0
178
     0
  0
DIMSTYLE
  2
ANNOTATIVE
 70
     0
  3

  4

  5

  6

  7

 40
1.0
 41
0.18
 42
0.0625
 43
0.38
 44
0.18
 45
0.0
 46
0.0
 47
0.0
 48
0.0
140
0.18
141
0.09
142
0.0
143
25.399999999999999
144
1.0
145
0.0
146
1.0
147
0.09
 71
     0
 72
     0
 73
     1
 74
     1
 75
     0
 76
     0
 77
     0
 78
     0
170
     0
171
     2
172
     0
173
     0
174
     0
175
     0
176
     0
177
     0
178
     0
  0
ENDTAB
  0
ENDSEC
  0
SECTION
  2
BLOCKS
  0
BLOCK
  8
0
  2
$MODEL_SPACE
 70
     0
 10
0.0
 20
0.0
 30
0.0
  3
$MODEL_SPACE
  1

  0
ENDBLK
  5
5B42
  8
0
  0
BLOCK
 67
     1
  8
0
  2
$PAPER_SPACE
 70
     0
 10
0.0
 20
0.0
 30
0.0
  3
$PAPER_SPACE
  1

  0
ENDBLK
  5
5B3E
 67
     1
  8
0
  0
ENDSEC
  0
SECTION
  2
ENTITIES
  0
LINE
  5
57BB
  8
1
 10
196.9904086712481
 20
173.5744962999504
 30
0.0
 11
196.9904086712481
 21
22.574496299950631
 31
0.0
  0
LINE
  5
57BC
  8
1
 10
74.712621768062405
 20
22.574496299950631
 30
0.0
 11
74.712621768064764
 21
173.57449629995079
 31
0.0
  0
ARC
  5
57BD
  8
0
 10
74.712621768059549
 20
45.244762481148207
 30
0.0
 40
12.25
 50
31.112020819731999
 51
46.120122896762247
  0
LINE
  5
57BE
  8
3
 10
83.359621768062425
 20
74.574496299950624
 30
0.0
 11
84.71262176806249
 21
72.231031557309734
 31
0.0
  0
LINE
  5
57BF
  8
3
 10
66.065621768062556
 20
74.574496299950624
 30
0.0
 11
64.71262176806249
 21
72.231031557309734
 31
0.0
  0
LINE
  5
57C0
  8
0
 10
84.71262176806249
 20
74.574496299950624
 30
0.0
 11
64.71262176806249
 21
74.574496299950624
 31
0.0
  0
LINE
  5
57C1
  8
0
 10
64.71262176806249
 20
166.07449629995079
 30
0.0
 11
84.71262176806249
 21
166.0744962999504
 31
0.0
  0
LINE
  5
57C2
  8
0
 10
82.21262176806249
 20
168.5744962999504
 30
0.0
 11
84.71262176806249
 21
166.0744962999504
 31
0.0
  0
LINE
  5
57C3
  8
0
 10
64.71262176806249
 20
166.07449629995079
 30
0.0
 11
67.21262176806249
 21
168.57449629995079
 31
0.0
  0
LINE
  5
57C4
  8
0
 10
64.71262176806249
 20
70.574496299950624
 30
0.0
 11
64.71262176806249
 21
96.57449629997312
 31
0.0
  0
LINE
  5
57C5
  8
3
 10
66.065621768062556
 20
74.574496299950624
 30
0.0
 11
66.065621768062556
 21
96.574496299972935
 31
0.0
  0
LINE
  5
57C6
  8
3
 10
83.359621768062425
 20
74.574496299950624
 30
0.0
 11
83.359621768062425
 21
96.57449629997312
 31
0.0
  0
LINE
  5
57C7
  8
0
 10
84.71262176806249
 20
70.574496299950624
 30
0.0
 11
84.71262176806249
 21
96.57449629997312
 31
0.0
  0
LINE
  5
57C8
  8
0
 10
67.21262176806249
 20
168.57449629995079
 30
0.0
 11
82.21262176806249
 21
168.5744962999504
 31
0.0
  0
ARC
  5
57C9
  8
0
 10
80.712621768095687
 20
52.955694148033203
 30
0.0
 40
17.330127017333279
 50
69.743841997633851
 51
110.25615800236611
  0
LINE
  5
57CA
  8
0
 10
86.712621768110694
 20
70.285821165366542
 30
0.0
 11
86.212621768095687
 21
70.574496299969951
 31
0.0
  0
LINE
  5
57CB
  8
0
 10
86.712621768110694
 20
60.8631714344965
 30
0.0
 11
86.212621768095687
 21
60.574496299893099
 31
0.0
  0
ARC
  5
57CC
  8
0
 10
80.712621768095687
 20
78.193298451829818
 30
0.0
 40
17.330127017333279
 50
249.74384199763389
 51
290.25615800236608
  0
LINE
  5
57CD
  8
0
 10
86.712621768110694
 20
70.285821165366542
 30
0.0
 11
86.712621768095687
 21
60.86317143448786
 31
0.0
  0
LINE
  5
57CE
  8
0
 10
74.712621768095687
 20
61.934968204325742
 30
0.0
 11
74.712621768095687
 21
69.214024395537294
 31
0.0
  0
LINE
  5
57CF
  8
0
 10
62.71262176808068
 20
70.285821165366542
 30
0.0
 11
62.71262176809568
 21
60.86317143448786
 31
0.0
  0
ARC
  5
57D0
  8
0
 10
68.712621768095687
 20
78.193298451829818
 30
0.0
 40
17.330127017333279
 50
249.74384199763389
 51
290.25615800236608
  0
LINE
  5
57D1
  8
0
 10
62.71262176808068
 20
60.8631714344965
 30
0.0
 11
63.21262176809568
 21
60.574496299893099
 31
0.0
  0
LINE
  5
57D2
  8
0
 10
62.71262176808068
 20
70.285821165366542
 30
0.0
 11
63.21262176809568
 21
70.574496299969951
 31
0.0
  0
ARC
  5
57D3
  8
0
 10
68.712621768095687
 20
52.955694148033203
 30
0.0
 40
17.330127017333279
 50
69.743841997633851
 51
110.25615800236611
  0
LINE
  5
57D4
  8
0
 10
63.21262176802928
 20
70.574496299931539
 30
0.0
 11
86.212621768095687
 21
70.574496299969951
 31
0.0
  0
LINE
  5
57D5
  8
0
 10
86.212621768095687
 20
60.574496299893099
 30
0.0
 11
63.21262176802928
 21
60.574496299931518
 31
0.0
  0
LINE
  5
57D6
  8
0
 10
66.21262176806249
 20
60.574496299912433
 30
0.0
 11
66.21262176806249
 21
54.07449629992675
 31
0.0
  0
LINE
  5
57D7
  8
0
 10
83.212621768062448
 20
60.574496299912433
 30
0.0
 11
83.212621768062448
 21
54.074496299898328
 31
0.0
  0
LINE
  5
57D8
  8
0
 10
83.212621768062448
 20
54.074496299898328
 30
0.0
 11
66.21262176806249
 21
54.074496299926523
 31
0.0
  0
ARC
  5
57D9
  8
0
 10
74.712621768059549
 20
45.244762481148207
 30
0.0
 40
12.25
 50
133.87987710304881
 51
148.88797918026799
  0
LINE
  5
57DA
  8
0
 10
89.212621768063073
 20
96.574496299973347
 30
0.0
 11
60.212621768062661
 21
96.57449629997312
 31
0.0
  0
LINE
  5
57DB
  8
0
 10
60.212621768062661
 20
112.5744962999736
 30
0.0
 11
89.212621768063329
 21
112.57449629997311
 31
0.0
  0
LINE
  5
57DC
  8
0
 10
89.212621768062647
 20
112.5744962999736
 30
0.0
 11
92.033129843751297
 21
110.9460752032232
 31
0.0
  0
ARC
  5
57DD
  8
0
 10
87.703002824828829
 20
104.6183529201023
 30
0.0
 40
7.6674682452751766
 50
64.384247470460906
 51
124.38424746800619
  0
ARC
  5
57DE
  8
0
 10
87.703002824828829
 20
104.6183529201023
 30
0.0
 40
7.6674682452751766
 50
55.61575253199382
 51
55.61575253199382
  0
ARC
  5
57DF
  8
0
 10
87.703002824828829
 20
104.5306396798444
 30
0.0
 40
7.6674682452751766
 50
304.38424746800621
 51
304.38424746800621
  0
ARC
  5
57E0
  8
0
 10
87.703002824828829
 20
104.5306396798444
 30
0.0
 40
7.6674682452751766
 50
235.61575253199379
 51
295.61575252953912
  0
LINE
  5
57E1
  8
0
 10
89.212621768062647
 20
96.57449629997312
 30
0.0
 11
92.033129843751297
 21
98.202917396723493
 31
0.0
  0
LINE
  5
57E2
  8
0
 10
92.033129843751055
 20
110.9460752032232
 30
0.0
 11
92.033129844034804
 21
98.202917396887202
 31
0.0
  0
LINE
  5
57E3
  8
0
 10
83.372875805906844
 20
98.202917396746884
 30
0.0
 11
83.37287580575294
 21
110.9460752032232
 31
0.0
  0
ARC
  5
57E4
  8
0
 10
74.712621768136088
 20
125.5234254719616
 30
0.0
 40
28.660254037392811
 50
252.41204622556921
 51
287.58795377413009
  0
LINE
  5
57E5
  8
0
 10
66.052367730218464
 20
98.202917396746884
 30
0.0
 11
66.052367730372396
 21
110.9460752032232
 31
0.0
  0
LINE
  5
57E6
  8
0
 10
57.392113692374259
 20
110.9460752032232
 30
0.0
 11
57.392113692090497
 21
98.202917396887202
 31
0.0
  0
LINE
  5
57E7
  8
0
 10
60.212621768062661
 20
96.57449629997312
 30
0.0
 11
57.392113692374039
 21
98.202917396723493
 31
0.0
  0
ARC
  5
57E8
  8
0
 10
61.722240711296472
 20
104.5306396798444
 30
0.0
 40
7.6674682452751766
 50
244.38424747046091
 51
304.38424746800621
  0
ARC
  5
57E9
  8
0
 10
61.722240711296472
 20
104.5306396798444
 30
0.0
 40
7.6674682452751766
 50
235.61575253199379
 51
235.61575253199379
  0
ARC
  5
57EA
  8
0
 10
74.712621768136088
 20
83.625567127984809
 30
0.0
 40
28.660254037392811
 50
72.412046225870014
 51
107.5879537744307
  0
ARC
  5
57EB
  8
0
 10
61.722240711296472
 20
104.6183529201023
 30
0.0
 40
7.6674682452751766
 50
124.38424746800619
 51
124.38424746800619
  0
ARC
  5
57EC
  8
0
 10
61.722240711296472
 20
104.6183529201023
 30
0.0
 40
7.6674682452751766
 50
55.61575253199382
 51
115.61575252953899
  0
LINE
  5
57ED
  8
0
 10
60.212621768062661
 20
112.5744962999736
 30
0.0
 11
57.392113692374039
 21
110.9460752032232
 31
0.0
  0
LINE
  5
57EE
  8
3
 10
83.359621768062425
 20
112.5744962999733
 30
0.0
 11
83.359621768062425
 21
167.42749629995041
 31
0.0
  0
LINE
  5
57EF
  8
0
 10
84.71262176806249
 20
112.57449629997311
 30
0.0
 11
84.71262176806249
 21
166.0744962999504
 31
0.0
  0
LINE
  5
57F0
  8
0
 10
64.71262176806249
 20
112.5744962999733
 30
0.0
 11
64.71262176806249
 21
166.07449629995079
 31
0.0
  0
LINE
  5
57F1
  8
3
 10
66.065621768062556
 20
112.5744962999733
 30
0.0
 11
66.065621768062556
 21
167.4274962999508
 31
0.0
  0
ARC
  5
57F2
  8
0
 10
196.99040867124509
 20
45.244762481148207
 30
0.0
 40
12.25
 50
31.112020819731931
 51
46.12012289676111
  0
LINE
  5
57F3
  8
0
 10
196.9904086712485
 20
110.9460752032232
 30
0.0
 11
196.9904086712485
 21
98.202917396718945
 31
0.0
  0
LINE
  5
57F4
  8
0
 10
211.4904086712487
 20
96.574496299973802
 30
0.0
 11
182.49040867125021
 21
96.574496299973802
 31
0.0
  0
LINE
  5
57F5
  8
0
 10
182.49040867125021
 20
112.5744962999733
 30
0.0
 11
211.49040867124711
 21
112.5744962999733
 31
0.0
  0
ARC
  5
57F6
  8
0
 10
189.4904086712485
 20
90.623162391709457
 30
0.0
 40
21.662658773668529
 50
69.74384199960231
 51
110.2561580003977
  0
LINE
  5
57F7
  8
0
 10
182.49040867125021
 20
112.5744962999733
 30
0.0
 11
181.99040867124879
 21
112.2858211653779
 31
0.0
  0
LINE
  5
57F8
  8
0
 10
182.49040867125021
 20
96.574496299973802
 30
0.0
 11
181.99040867124879
 21
96.863171434569267
 31
0.0
  0
ARC
  5
57F9
  8
0
 10
189.4904086712485
 20
118.52583020823749
 30
0.0
 40
21.662658773668529
 50
249.7438419996023
 51
290.2561580003977
  0
LINE
  5
57FA
  8
0
 10
181.9904086712485
 20
112.2858211653779
 30
0.0
 11
181.99040867124879
 21
96.863171434569267
 31
0.0
  0
LINE
  5
57FB
  8
0
 10
211.99040867124859
 20
112.2858211653779
 30
0.0
 11
211.99040867124839
 21
96.863171434569267
 31
0.0
  0
ARC
  5
57FC
  8
0
 10
204.4904086712485
 20
118.52583020823749
 30
0.0
 40
21.662658773668529
 50
249.7438419996023
 51
290.2561580003977
  0
LINE
  5
57FD
  8
0
 10
211.49040867124711
 20
96.574496299973802
 30
0.0
 11
211.99040867124839
 21
96.863171434569267
 31
0.0
  0
LINE
  5
57FE
  8
0
 10
211.49040867124711
 20
112.5744962999733
 30
0.0
 11
211.99040867124839
 21
112.2858211653779
 31
0.0
  0
ARC
  5
57FF
  8
0
 10
204.4904086712485
 20
90.623162391709457
 30
0.0
 40
21.662658773668529
 50
69.74384199960231
 51
110.2561580003977
  0
LINE
  5
5800
  8
3
 10
188.34340867124811
 20
112.5744962999733
 30
0.0
 11
188.34340867124811
 21
167.4274962999508
 31
0.0
  0
LINE
  5
5801
  8
0
 10
186.9904086712481
 20
112.5744962999733
 30
0.0
 11
186.9904086712481
 21
166.07449629995079
 31
0.0
  0
LINE
  5
5802
  8
0
 10
206.9904086712481
 20
112.57449629997311
 30
0.0
 11
206.9904086712481
 21
166.0744962999504
 31
0.0
  0
LINE
  5
5803
  8
3
 10
205.6374086712481
 20
112.5744962999733
 30
0.0
 11
205.6374086712481
 21
167.42749629995041
 31
0.0
  0
ARC
  5
5804
  8
0
 10
196.99040867124509
 20
45.244762481148207
 30
0.0
 40
12.25
 50
133.87987710305001
 51
148.8879791802681
  0
LINE
  5
5805
  8
0
 10
205.4904086712481
 20
54.074496299898328
 30
0.0
 11
188.4904086712481
 21
54.074496299926523
 31
0.0
  0
LINE
  5
5806
  8
0
 10
205.4904086712481
 20
60.574496299912433
 30
0.0
 11
205.4904086712481
 21
54.074496299898328
 31
0.0
  0
LINE
  5
5807
  8
0
 10
188.4904086712481
 20
60.574496299912433
 30
0.0
 11
188.4904086712481
 21
54.07449629992675
 31
0.0
  0
LINE
  5
5808
  8
0
 10
189.4904086712481
 20
168.57449629995079
 30
0.0
 11
204.4904086712481
 21
168.5744962999504
 31
0.0
  0
LINE
  5
5809
  8
0
 10
206.9904086712481
 20
70.574496299950624
 30
0.0
 11
206.9904086712481
 21
96.57449629997312
 31
0.0
  0
LINE
  5
580A
  8
3
 10
205.6374086712481
 20
74.574496299950624
 30
0.0
 11
205.6374086712481
 21
96.57449629997312
 31
0.0
  0
LINE
  5
580B
  8
3
 10
188.34340867124811
 20
74.574496299950624
 30
0.0
 11
188.34340867124811
 21
96.574496299972935
 31
0.0
  0
LINE
  5
580C
  8
0
 10
186.9904086712481
 20
70.574496299950624
 30
0.0
 11
186.9904086712481
 21
96.57449629997312
 31
0.0
  0
LINE
  5
580D
  8
0
 10
186.9904086712481
 20
166.07449629995079
 30
0.0
 11
189.4904086712481
 21
168.57449629995079
 31
0.0
  0
LINE
  5
580E
  8
0
 10
204.4904086712481
 20
168.5744962999504
 30
0.0
 11
206.9904086712481
 21
166.0744962999504
 31
0.0
  0
LINE
  5
580F
  8
0
 10
186.9904086712481
 20
166.07449629995079
 30
0.0
 11
206.9904086712481
 21
166.0744962999504
 31
0.0
  0
LINE
  5
5810
  8
0
 10
206.9904086712481
 20
74.574496299950624
 30
0.0
 11
186.9904086712481
 21
74.574496299950624
 31
0.0
  0
LINE
  5
5811
  8
3
 10
188.34340867124811
 20
74.574496299950624
 30
0.0
 11
186.9904086712481
 21
72.231031557309734
 31
0.0
  0
LINE
  5
5812
  8
3
 10
205.6374086712481
 20
74.574496299950624
 30
0.0
 11
206.9904086712481
 21
72.231031557309734
 31
0.0
  0
ARC
  5
5813
  8
0
 10
196.99040867130199
 20
47.357617937327397
 30
0.0
 40
22.928203228139491
 50
72.412046224314139
 51
107.5879537756858
  0
ARC
  5
5814
  8
0
 10
186.5981038258885
 20
64.151846569746112
 30
0.0
 40
6.1339745957208196
 50
55.615752528791369
 51
115.6157525301566
  0
LINE
  5
5815
  8
0
 10
183.13400221072891
 20
69.21402439563758
 30
0.0
 11
185.4904086714098
 21
70.574496300031797
 31
0.0
  0
LINE
  5
5816
  8
0
 10
183.13400221072891
 20
61.934968204426013
 30
0.0
 11
185.4904086714098
 21
60.574496300031797
 31
0.0
  0
ARC
  5
5817
  8
0
 10
186.5981038258885
 20
66.997146030317481
 30
0.0
 40
6.1339745957208196
 50
244.38424746984339
 51
304.3842474712086
  0
ARC
  5
5818
  8
0
 10
196.99040867130199
 20
83.791374662736175
 30
0.0
 40
22.928203228139491
 50
252.41204622431411
 51
287.58795377568589
  0
LINE
  5
5819
  8
0
 10
183.13400221075079
 20
69.21402439563758
 30
0.0
 11
183.13400221075079
 21
61.934968204413281
 31
0.0
  0
LINE
  5
581A
  8
0
 10
190.06220544102661
 20
69.21402439563758
 30
0.0
 11
190.06220544102661
 21
61.934968204426013
 31
0.0
  0
LINE
  5
581B
  8
0
 10
203.91861190157741
 20
69.21402439563758
 30
0.0
 11
203.91861190157741
 21
61.934968204426013
 31
0.0
  0
LINE
  5
581C
  8
0
 10
210.84681513185319
 20
69.21402439563758
 30
0.0
 11
210.84681513185319
 21
61.934968204413281
 31
0.0
  0
ARC
  5
581D
  8
0
 10
207.38271351671551
 20
66.997146030317481
 30
0.0
 40
6.1339745957208196
 50
235.6157525287914
 51
295.61575253015661
  0
LINE
  5
581E
  8
0
 10
210.84681513187499
 20
61.934968204426013
 30
0.0
 11
208.4904086711941
 21
60.574496300031797
 31
0.0
  0
LINE
  5
581F
  8
0
 10
210.84681513187499
 20
69.21402439563758
 30
0.0
 11
208.4904086711941
 21
70.574496300031797
 31
0.0
  0
ARC
  5
5820
  8
0
 10
207.38271351671551
 20
64.151846569746112
 30
0.0
 40
6.1339745957208196
 50
64.384247469843373
 51
124.3842474712085
  0
LINE
  5
5821
  8
0
 10
185.49040867130199
 20
70.574496300031797
 30
0.0
 11
208.4904086711941
 21
70.574496300031797
 31
0.0
  0
LINE
  5
5822
  8
0
 10
208.4904086711941
 20
60.574496300031797
 30
0.0
 11
185.4904086714098
 21
60.574496300031797
 31
0.0
  0
CIRCLE
  5
5823
  8
0
 10
74.71262176806249
 20
240.257387426652
 30
0.0
 40
10.0
  0
CIRCLE
  5
5824
  8
3
 10
74.71262176806249
 20
240.257387426652
 30
0.0
 40
8.6470000000000002
  0
LINE
  5
5825
  8
0
 10
66.052367730218236
 20
225.257387426652
 30
0.0
 11
83.372875805906901
 21
225.257387426652
 31
0.0
  0
LINE
  5
5826
  8
0
 10
83.372875805906901
 20
225.257387426652
 30
0.0
 11
92.033129843751297
 21
240.257387426652
 31
0.0
  0
LINE
  5
5827
  8
0
 10
92.033129843751297
 20
240.257387426652
 30
0.0
 11
83.372875805906745
 21
255.257387426652
 31
0.0
  0
LINE
  5
5828
  8
0
 10
83.372875805906745
 20
255.257387426652
 30
0.0
 11
66.05236773021835
 21
255.257387426652
 31
0.0
  0
LINE
  5
5829
  8
0
 10
66.05236773021835
 20
255.257387426652
 30
0.0
 11
57.392113692373812
 21
240.257387426652
 31
0.0
  0
LINE
  5
582A
  8
0
 10
57.392113692373812
 20
240.257387426652
 30
0.0
 11
66.052367730218236
 21
225.257387426652
 31
0.0
  0
CIRCLE
  5
582B
  8
0
 10
74.71262176806249
 20
240.257387426652
 30
0.0
 40
14.5
  0
LINE
  5
582C
  8
0
 10
236.9904086712481
 20
27.574496299950631
 30
0.0
 11
156.9904086712481
 21
27.574496299950631
 31
0.0
  0
LINE
  5
582D
  8
0
 10
236.9904086712481
 20
27.574496299950631
 30
0.0
 11
236.9904086712481
 21
36.419200968240148
 31
0.0
  0
LINE
  5
582F
  8
0
 10
230.4904086712481
 20
39.606000066485187
 30
0.0
 11
163.4904086712481
 21
39.606000066485187
 31
0.0
  0
LINE
  5
5830
  8
0
 10
224.4904086712481
 20
43.97702502855055
 30
0.0
 11
169.4904086712481
 21
43.97702502855055
 31
0.0
  0
LINE
  5
5831
  8
0
 10
217.84085172232381
 20
46.87323489821074
 30
0.0
 11
176.1399656201724
 21
46.87323489821074
 31
0.0
  0
LINE
  5
5832
  8
0
 10
210.9904086712481
 20
51.574496299950617
 30
0.0
 11
182.9904086712481
 21
51.574496299950617
 31
0.0
  0
LINE
  5
5833
  8
0
 10
230.4904086712481
 20
39.606000066485187
 30
0.0
 11
230.4904086712481
 21
40.447387147232583
 31
0.0
  0
LINE
  5
5834
  8
0
 10
230.4904086712481
 20
39.606000066485187
 30
0.0
 11
236.3493877505571
 21
37.352546574443288
 31
0.0
  0
LINE
  5
5835
  8
0
 10
224.4904086712481
 20
43.97702502855055
 30
0.0
 11
229.92588485363621
 21
41.347587399716751
 31
0.0
  0
LINE
  5
5836
  8
0
 10
217.84085172232381
 20
46.87323489821074
 30
0.0
 11
223.71850778471611
 21
45.496246478824538
 31
0.0
  0
LINE
  5
5837
  8
0
 10
211.9904086712481
 20
49.977025028550528
 30
0.0
 11
181.9904086712481
 21
49.977025028550528
 31
0.0
  0
LINE
  5
5838
  8
0
 10
211.9904086712481
 20
49.977025028550528
 30
0.0
 11
217.15057222103809
 21
48.296164743759391
 31
0.0
  0
LINE
  5
5839
  8
0
 10
211.9904086712481
 20
50.574496299950617
 30
0.0
 11
211.9904086712481
 21
49.977025028550528
 31
0.0
  0
LINE
  5
583A
  8
0
 10
224.4904086712481
 20
43.97702502855055
 30
0.0
 11
224.4904086712481
 21
44.522608561303286
 31
0.0
  0
LINE
  5
583B
  8
0
 10
217.84085172232381
 20
46.87323489821074
 30
0.0
 11
217.84085172232381
 21
47.345337097613069
 31
0.0
  0
ARC
  5
583C
  8
0
 10
210.9904086712481
 20
50.574496299950617
 30
0.0
 40
1.0
 50
359.99999999999892
 51
90.0
  0
ARC
  5
583D
  8
0
 10
216.84085172232381
 20
47.345337097613069
 30
0.0
 40
1.0
 50
0.0
 51
71.957612741641853
  0
ARC
  5
583E
  8
0
 10
223.4904086712481
 20
44.522608561303286
 30
0.0
 40
1.0
 50
0.0
 51
76.814815600247044
  0
ARC
  5
583F
  8
0
 10
235.9904086712481
 20
36.419200968240148
 30
0.0
 40
1.0
 50
0.0
 51
68.962488974578235
  0
ARC
  5
5840
  8
0
 10
229.4904086712481
 20
40.447387147232583
 30
0.0
 40
1.0
 50
0.0
 51
64.18440202834887
  0
ARC
  5
5842
  8
0
 10
164.4904086712481
 20
40.447387147232583
 30
0.0
 40
1.0
 50
115.8155979716511
 51
180.0
  0
ARC
  5
5843
  8
0
 10
157.9904086712481
 20
36.419200968240148
 30
0.0
 40
1.0
 50
111.03751102542169
 51
180.0
  0
ARC
  5
5844
  8
0
 10
170.4904086712481
 20
44.522608561303286
 30
0.0
 40
1.0
 50
103.1851843997529
 51
180.0
  0
ARC
  5
5845
  8
0
 10
177.1399656201724
 20
47.345337097613069
 30
0.0
 40
1.0
 50
108.0423872583581
 51
180.0
  0
ARC
  5
5846
  8
0
 10
182.9904086712481
 20
50.574496299950617
 30
0.0
 40
1.0
 50
90.0
 51
180.00000000000099
  0
LINE
  5
5847
  8
0
 10
176.1399656201724
 20
46.87323489821074
 30
0.0
 11
176.1399656201724
 21
47.345337097613069
 31
0.0
  0
LINE
  5
5848
  8
0
 10
169.4904086712481
 20
43.97702502855055
 30
0.0
 11
169.4904086712481
 21
44.522608561303286
 31
0.0
  0
LINE
  5
5849
  8
0
 10
181.9904086712481
 20
50.574496299950617
 30
0.0
 11
181.9904086712481
 21
49.977025028550528
 31
0.0
  0
LINE
  5
584A
  8
0
 10
181.9904086712481
 20
49.977025028550528
 30
0.0
 11
176.83024512145809
 21
48.296164743759391
 31
0.0
  0
LINE
  5
584B
  8
0
 10
176.1399656201724
 20
46.87323489821074
 30
0.0
 11
170.2623095577801
 21
45.496246478824538
 31
0.0
  0
LINE
  5
584C
  8
0
 10
169.4904086712481
 20
43.97702502855055
 30
0.0
 11
164.05493248886
 21
41.347587399716751
 31
0.0
  0
LINE
  5
584D
  8
0
 10
163.4904086712481
 20
39.606000066485187
 30
0.0
 11
157.6314295919392
 21
37.352546574443288
 31
0.0
  0
LINE
  5
584E
  8
0
 10
163.4904086712481
 20
39.606000066485187
 30
0.0
 11
163.4904086712481
 21
40.447387147232583
 31
0.0
  0
LINE
  5
584F
  8
0
 10
156.9904086712481
 20
27.574496299950631
 30
0.0
 11
156.9904086712481
 21
36.419200968240148
 31
0.0
  0
CIRCLE
  5
5851
  8
0
 10
74.71262176806249
 20
240.257387426652
 30
0.0
 40
20.850443051075668
  0
CIRCLE
  5
5852
  8
0
 10
74.71262176806249
 20
240.257387426652
 30
0.0
 40
27.5
  0
CIRCLE
  5
5853
  8
0
 10
74.71262176806249
 20
240.257387426652
 30
0.0
 40
33.5
  0
LINE
  5
5855
  8
0
 10
34.71262176806249
 20
27.574496299950631
 30
0.0
 11
34.712621768062377
 21
36.419200968240148
 31
0.0
  0
LINE
  5
5856
  8
0
 10
41.21262176806249
 20
39.606000066485187
 30
0.0
 11
41.21262176806249
 21
40.447387147232583
 31
0.0
  0
LINE
  5
5857
  8
0
 10
41.21262176806249
 20
39.606000066485187
 30
0.0
 11
35.353642688753553
 21
37.352546574443288
 31
0.0
  0
LINE
  5
5858
  8
0
 10
47.21262176806249
 20
43.97702502855055
 30
0.0
 11
41.777145585674347
 21
41.347587399716751
 31
0.0
  0
LINE
  5
5859
  8
0
 10
53.862178716986818
 20
46.87323489821074
 30
0.0
 11
47.984522654594343
 21
45.496246478824538
 31
0.0
  0
LINE
  5
585A
  8
0
 10
59.71262176806249
 20
49.977025028550528
 30
0.0
 11
54.55245821827247
 21
48.296164743759391
 31
0.0
  0
LINE
  5
585B
  8
0
 10
59.71262176806249
 20
50.574496299950617
 30
0.0
 11
59.71262176806249
 21
49.977025028550528
 31
0.0
  0
LINE
  5
585C
  8
0
 10
47.21262176806249
 20
43.97702502855055
 30
0.0
 11
47.21262176806249
 21
44.522608561303286
 31
0.0
  0
LINE
  5
585D
  8
0
 10
53.862178716986818
 20
46.87323489821074
 30
0.0
 11
53.862178716986818
 21
47.345337097613069
 31
0.0
  0
ARC
  5
585E
  8
0
 10
60.712621768062498
 20
50.574496299950617
 30
0.0
 40
1.0
 50
90.0
 51
180.00000000000099
  0
ARC
  5
585F
  8
0
 10
54.862178716986818
 20
47.345337097613069
 30
0.0
 40
1.0
 50
108.0423872583581
 51
180.0
  0
ARC
  5
5860
  8
0
 10
48.212621768062498
 20
44.522608561303286
 30
0.0
 40
1.0
 50
103.1851843997529
 51
180.0
  0
ARC
  5
5861
  8
0
 10
35.712621768062377
 20
36.419200968240148
 30
0.0
 40
1.0
 50
111.03751102542169
 51
180.0
  0
ARC
  5
5862
  8
0
 10
42.21262176806249
 20
40.447387147232583
 30
0.0
 40
1.0
 50
115.8155979716511
 51
180.0
  0
ARC
  5
5864
  8
0
 10
107.2126217680625
 20
40.447387147232583
 30
0.0
 40
1.0
 50
0.0
 51
64.18440202834887
  0
ARC
  5
5865
  8
0
 10
113.7126217680625
 20
36.419200968240148
 30
0.0
 40
1.0
 50
0.0
 51
68.962488974578235
  0
ARC
  5
5866
  8
0
 10
101.2126217680625
 20
44.522608561303286
 30
0.0
 40
1.0
 50
0.0
 51
76.814815600247044
  0
ARC
  5
5867
  8
0
 10
94.563064819138162
 20
47.345337097613069
 30
0.0
 40
1.0
 50
0.0
 51
71.957612741641853
  0
ARC
  5
5868
  8
0
 10
88.712621768062476
 20
50.574496299950617
 30
0.0
 40
1.0
 50
359.99999999999892
 51
90.0
  0
LINE
  5
5869
  8
0
 10
95.563064819138162
 20
46.87323489821074
 30
0.0
 11
95.563064819138162
 21
47.345337097613069
 31
0.0
  0
LINE
  5
586A
  8
0
 10
102.2126217680625
 20
43.97702502855055
 30
0.0
 11
102.2126217680625
 21
44.522608561303286
 31
0.0
  0
LINE
  5
586B
  8
0
 10
89.712621768062476
 20
50.574496299950617
 30
0.0
 11
89.712621768062476
 21
49.977025028550528
 31
0.0
  0
LINE
  5
586C
  8
0
 10
89.712621768062476
 20
49.977025028550528
 30
0.0
 11
94.872785317852504
 21
48.296164743759391
 31
0.0
  0
LINE
  5
586D
  8
0
 10
89.712621768062476
 20
49.977025028550528
 30
0.0
 11
59.71262176806249
 21
49.977025028550528
 31
0.0
  0
LINE
  5
586E
  8
0
 10
95.563064819138162
 20
46.87323489821074
 30
0.0
 11
101.44072088153059
 21
45.496246478824538
 31
0.0
  0
LINE
  5
586F
  8
0
 10
102.2126217680625
 20
43.97702502855055
 30
0.0
 11
107.64809795045061
 21
41.347587399716751
 31
0.0
  0
LINE
  5
5870
  8
0
 10
108.2126217680625
 20
39.606000066485187
 30
0.0
 11
114.0716008473714
 21
37.352546574443288
 31
0.0
  0
LINE
  5
5871
  8
0
 10
108.2126217680625
 20
39.606000066485187
 30
0.0
 11
108.2126217680625
 21
40.447387147232583
 31
0.0
  0
LINE
  5
5872
  8
0
 10
88.712621768062476
 20
51.574496299950617
 30
0.0
 11
60.712621768062498
 21
51.574496299950617
 31
0.0
  0
LINE
  5
5873
  8
0
 10
95.563064819138276
 20
46.87323489821074
 30
0.0
 11
53.862178716986818
 21
46.87323489821074
 31
0.0
  0
LINE
  5
5874
  8
0
 10
102.2126217680625
 20
43.97702502855055
 30
0.0
 11
47.21262176806249
 21
43.97702502855055
 31
0.0
  0
LINE
  5
5875
  8
0
 10
108.2126217680625
 20
39.606000066485187
 30
0.0
 11
41.21262176806249
 21
39.606000066485187
 31
0.0
  0
LINE
  5
5876
  8
1
 10
120.4269074823482
 20
240.257387426652
 30
0.0
 11
28.998336053776711
 21
240.257387426652
 31
0.0
  0
LINE
  5
5877
  8
1
 10
74.71262176806249
 20
285.97167314093781
 30
0.0
 11
74.71262176806249
 21
194.54310171236611
 31
0.0
  0
CIRCLE
  5
5878
  8
0
 10
74.71262176806249
 20
240.257387426652
 30
0.0
 40
40.00000000000005
  0
LINE
  5
587A
  8
0
 10
114.7126217680625
 20
27.574496299950631
 30
0.0
 11
114.7126217680625
 21
36.419200968240148
 31
0.0
  0
LINE
  5
587B
  8
0
 10
114.7126217680625
 20
27.574496299950631
 30
0.0
 11
34.71262176806249
 21
27.574496299950631
 31
0.0
  0
TEXT
  5
5BC2
  8
0
 62
     3
 10
0.0
 20
0.0
 30
0.0
 40
10.0
  1
LVE80L20A
  7
STANDARD1
  0
ENDSEC
  0
EOF
