  0
SECTION
  2
HEADER
  9
$ACADVER
  1
AC1009
  9
$INSBASE
 10
0.0
 20
0.0
 30
0.0
  9
$EXTMIN
 10
0.0
 20
-2.960436562073669
 30
0.0
  9
$EXTMAX
 10
172.4882038409018
 20
319.00596466000962
 30
0.0
  9
$LIMMIN
 10
0.0
 20
0.0
  9
$LIMMAX
 10
375.0
 20
270.0
  9
$ORTHOMODE
 70
     1
  9
$REGENMODE
 70
     1
  9
$FILLMODE
 70
     1
  9
$QTEXTMODE
 70
     0
  9
$MIRRTEXT
 70
     0
  9
$DRAGMODE
 70
     2
  9
$LTSCALE
 40
6.0
  9
$OSMODE
 70
  3071
  9
$ATTMODE
 70
     1
  9
$TEXTSIZE
 40
0.2
  9
$TRACEWID
 40
0.05
  9
$TEXTSTYLE
  7
STANDARD
  9
$CLAYER
  8
0
  9
$CELTYPE
  6
BYLAYER
  9
$CECOLOR
 62
   256
  9
$DIMSCALE
 40
1.0
  9
$DIMASZ
 40
3.0
  9
$DIMEXO
 40
1.0
  9
$DIMDLI
 40
6.0
  9
$DIMRND
 40
0.0
  9
$DIMDLE
 40
0.0
  9
$DIMEXE
 40
1.0
  9
$DIMTP
 40
495.0
  9
$DIMTM
 40
0.0
  9
$DIMTXT
 40
3.0
  9
$DIMCEN
 40
0.0
  9
$DIMTSZ
 40
0.0
  9
$DIMTOL
 70
     0
  9
$DIMLIM
 70
     0
  9
$DIMTIH
 70
     0
  9
$DIMTOH
 70
     0
  9
$DIMSE1
 70
     0
  9
$DIMSE2
 70
     0
  9
$DIMTAD
 70
     1
  9
$DIMZIN
 70
     0
  9
$DIMBLK
  1

  9
$DIMASO
 70
     0
  9
$DIMSHO
 70
     0
  9
$DIMPOST
  1

  9
$DIMAPOST
  1

  9
$DIMALT
 70
     0
  9
$DIMALTD
 70
     2
  9
$DIMALTF
 40
25.399999999999999
  9
$DIMLFAC
 40
1.0
  9
$DIMTOFL
 70
     1
  9
$DIMTVP
 40
0.0
  9
$DIMTIX
 70
     1
  9
$DIMSOXD
 70
     0
  9
$DIMSAH
 70
     0
  9
$DIMBLK1
  1

  9
$DIMBLK2
  1

  9
$DIMSTYLE
  2
STANDARD
  9
$DIMCLRD
 70
     0
  9
$DIMCLRE
 70
     0
  9
$DIMCLRT
 70
     4
  9
$DIMTFAC
 40
1.0
  9
$DIMGAP
 40
1.0
  9
$LUNITS
 70
     2
  9
$LUPREC
 70
     4
  9
$SKETCHINC
 40
0.1
  9
$FILLETRAD
 40
2.0
  9
$AUNITS
 70
     0
  9
$AUPREC
 70
     0
  9
$MENU
  1
C:\R13\WIN\SUPPORT\ACAD-I
  9
$ELEVATION
 40
0.0
  9
$PELEVATION
 40
0.0
  9
$THICKNESS
 40
0.0
  9
$LIMCHECK
 70
     0
  9
$BLIPMODE
 70
     0
  9
$CHAMFERA
 40
0.0
  9
$CHAMFERB
 40
0.0
  9
$SKPOLY
 70
     0
  9
$TDCREATE
 40
2451962.4176717252
  9
$TDUPDATE
 40
2456597.6162946532
  9
$TDINDWG
 40
0.1350141898
  9
$TDUSRTIMER
 40
2456555.20929485
  9
$USRTIMER
 70
     1
  9
$ANGBASE
 50
0.0
  9
$ANGDIR
 70
     0
  9
$PDMODE
 70
     0
  9
$PDSIZE
 40
0.0
  9
$PLINEWID
 40
0.0
  9
$COORDS
 70
     1
  9
$SPLFRAME
 70
     0
  9
$SPLINETYPE
 70
     6
  9
$SPLINESEGS
 70
     8
  9
$ATTDIA
 70
     0
  9
$ATTREQ
 70
     1
  9
$HANDLING
 70
     1
  9
$HANDSEED
  5
47FB
  9
$SURFTAB1
 70
     6
  9
$SURFTAB2
 70
     6
  9
$SURFTYPE
 70
     6
  9
$SURFU
 70
     6
  9
$SURFV
 70
     6
  9
$UCSNAME
  2

  9
$UCSORG
 10
0.0
 20
0.0
 30
0.0
  9
$UCSXDIR
 10
1.0
 20
0.0
 30
0.0
  9
$UCSYDIR
 10
0.0
 20
1.0
 30
0.0
  9
$PUCSNAME
  2

  9
$PUCSORG
 10
0.0
 20
0.0
 30
0.0
  9
$PUCSXDIR
 10
1.0
 20
0.0
 30
0.0
  9
$PUCSYDIR
 10
0.0
 20
1.0
 30
0.0
  9
$USERI1
 70
     4
  9
$USERI2
 70
     1
  9
$USERI3
 70
     0
  9
$USERI4
 70
     0
  9
$USERI5
 70
     0
  9
$USERR1
 40
1.0
  9
$USERR2
 40
3.0
  9
$USERR3
 40
3.0
  9
$USERR4
 40
3.0
  9
$USERR5
 40
10.0
  9
$WORLDVIEW
 70
     1
  9
$SHADEDGE
 70
     3
  9
$SHADEDIF
 70
    70
  9
$TILEMODE
 70
     1
  9
$MAXACTVP
 70
    16
  9
$PLIMCHECK
 70
     0
  9
$PEXTMIN
 10
1.0000000000000000E+020
 20
1.0000000000000000E+020
 30
1.0000000000000000E+020
  9
$PEXTMAX
 10
-1.0000000000000000E+020
 20
-1.0000000000000000E+020
 30
-1.0000000000000000E+020
  9
$PLIMMIN
 10
0.0
 20
0.0
  9
$PLIMMAX
 10
12.0
 20
9.0
  9
$UNITMODE
 70
     0
  9
$VISRETAIN
 70
     0
  9
$PLINEGEN
 70
     0
  9
$PSLTSCALE
 70
     0
  0
ENDSEC
  0
SECTION
  2
TABLES
  0
TABLE
  2
VPORT
 70
     1
  0
VPORT
  2
*ACTIVE
 70
     0
 10
0.0
 20
0.0
 11
1.0
 21
1.0
 12
187.49427839065231
 22
158.7154073175335
 13
0.0
 23
0.0
 14
10.0
 24
10.0
 15
10.0
 25
10.0
 16
0.0
 26
0.0
 36
1.0
 17
0.0
 27
0.0
 37
0.0
 40
327.08989878799872
 41
2.304913294797688
 42
50.0
 43
0.0
 44
0.0
 50
0.0
 51
0.0
 71
    16
 72
   100
 73
     1
 74
     0
 75
     0
 76
     0
 77
     0
 78
     0
  0
ENDTAB
  0
TABLE
  2
LTYPE
 70
     3
  0
LTYPE
  2
CONTINUOUS
 70
     0
  3
Solid Line
 72
    65
 73
     0
 40
0.0
  0
LTYPE
  2
PHANTOM2
 70
     0
  3
___ _ _ ___ _ _ ___ _ _ ___ _ _
 72
    65
 73
     6
 40
1.25
 49
0.625
 49
-0.125
 49
0.125
 49
-0.125
 49
0.125
 49
-0.125
  0
LTYPE
  2
CENTER
 70
     0
  3
____ _ ____ _ ____ _ ____ _ ____ _ ____ _ ____
 72
    65
 73
     4
 40
2.0
 49
1.25
 49
-0.25
 49
0.25
 49
-0.25
  0
ENDTAB
  0
TABLE
  2
LAYER
 70
     3
  0
LAYER
  2
0
 70
     0
 62
     7
  6
CONTINUOUS
  0
LAYER
  2
1
 70
     0
 62
     1
  6
CENTER
  0
LAYER
  2
3
 70
     0
 62
     3
  6
CONTINUOUS
  0
ENDTAB
  0
TABLE
  2
STYLE
 70
     3
  0
STYLE
  2
STANDARD
 70
     0
 40
0.0
 41
1.0
 50
0.0
 71
     0
 42
0.2
  3
SIMPLEX
  4
BIGFONT
  0
STYLE
  2
ANNOTATIVE
 70
     0
 40
0.0
 41
1.0
 50
0.0
 71
     0
 42
0.2
  3
txt
  4

  0
STYLE
  2
STANDARD1
 70
     0
 40
0.0
 41
1.0
 50
0.0
 71
     0
 42
3.0
  3
txt
  4

  0
ENDTAB
  0
TABLE
  2
VIEW
 70
     0
  0
ENDTAB
  0
TABLE
  2
UCS
 70
     0
  0
ENDTAB
  0
TABLE
  2
APPID
 70
    29
  0
APPID
  2
ACAD
 70
     0
  0
APPID
  2
ACADANNOTATIVE
 70
     0
  0
APPID
  2
GENIUS_GENOREF_13
 70
     0
  0
APPID
  2
GENIUS_GENOENT_13
 70
     0
  0
APPID
  2
GENIUS_GENBH_13
 70
     0
  0
APPID
  2
GENIUS_GENOBJ_13
 70
     0
  0
APPID
  2
GENIUS_GENODEF_13
 70
     0
  0
APPID
  2
GENIUS_GENOLIS_13
 70
     0
  0
APPID
  2
GENIUS_GENOBJ-NBEHI-BHF_13
 70
     0
  0
APPID
  2
GENIUS_GENOBJ-NBEHI-BHB_13
 70
     0
  0
APPID
  2
GENIUS_GENOBJ-F-PART_13
 70
     0
  0
APPID
  2
GENIUS_GEFSTDP_13
 70
     0
  0
APPID
  2
GENIUS_GENOBJ-N-RSSYM_13
 70
     0
  0
APPID
  2
GENIUS_GENSYMENT_13
 70
     0
  0
APPID
  2
GENIUS_GENOBJ-N-TIT_13
 70
     0
  0
APPID
  2
GENIUS_GENTITLE_13
 70
     0
  0
APPID
  2
GENIUS_GENZVEED_13
 70
     0
  0
APPID
  2
GENIUS_GENOBJ-N-LEADER_13
 70
     0
  0
APPID
  2
GENIUS_GENOBJ-N-FIL_13
 70
     0
  0
APPID
  2
GENIUS_GENOBJ-N-SEC_13
 70
     0
  0
APPID
  2
GENIUS_GENOBJ-N-CRS_13
 70
     0
  0
APPID
  2
GENIUS_GENOBJ-N-ZOO_13
 70
     0
  0
APPID
  2
GENIUS_GENZOO_13
 70
     0
  0
APPID
  2
GENIUS_GENOBJ-F-TOL_13
 70
     0
  0
APPID
  2
GENIUS_GENFIL_13
 70
     0
  0
APPID
  2
GENIUS_GENOBJ-N-CHA_13
 70
     0
  0
APPID
  2
ACAD_EXEMPT_FROM_CAD_STANDARDS
 70
     0
  0
APPID
  2
ACAD_MLEADERVER
 70
     0
  0
APPID
  2
ACAD_NAV_VCDISPLAY
 70
     0
  0
ENDTAB
  0
TABLE
  2
DIMSTYLE
 70
     2
  0
DIMSTYLE
  2
STANDARD
 70
     0
  3

  4

  5

  6

  7

 40
1.0
 41
0.18
 42
0.0625
 43
0.38
 44
0.18
 45
0.0
 46
0.0
 47
0.0
 48
0.0
140
0.18
141
0.09
142
0.0
143
25.399999999999999
144
1.0
145
0.0
146
1.0
147
0.09
 71
     0
 72
     0
 73
     1
 74
     1
 75
     0
 76
     0
 77
     0
 78
     0
170
     0
171
     2
172
     0
173
     0
174
     0
175
     0
176
     0
177
     0
178
     0
  0
DIMSTYLE
  2
ANNOTATIVE
 70
     0
  3

  4

  5

  6

  7

 40
1.0
 41
0.18
 42
0.0625
 43
0.38
 44
0.18
 45
0.0
 46
0.0
 47
0.0
 48
0.0
140
0.18
141
0.09
142
0.0
143
25.399999999999999
144
1.0
145
0.0
146
1.0
147
0.09
 71
     0
 72
     0
 73
     1
 74
     1
 75
     0
 76
     0
 77
     0
 78
     0
170
     0
171
     2
172
     0
173
     0
174
     0
175
     0
176
     0
177
     0
178
     0
  0
ENDTAB
  0
ENDSEC
  0
SECTION
  2
BLOCKS
  0
BLOCK
  8
0
  2
$MODEL_SPACE
 70
     0
 10
0.0
 20
0.0
 30
0.0
  3
$MODEL_SPACE
  1

  0
ENDBLK
  5
471E
  8
0
  0
BLOCK
 67
     1
  8
0
  2
$PAPER_SPACE
 70
     0
 10
0.0
 20
0.0
 30
0.0
  3
$PAPER_SPACE
  1

  0
ENDBLK
  5
471A
 67
     1
  8
0
  0
ENDSEC
  0
SECTION
  2
ENTITIES
  0
LINE
  5
437F
  8
1
 10
142.4882038409018
 20
237.94795730243621
 30
0.0
 11
142.4882038409018
 21
23.947957302435722
 31
0.0
  0
LINE
  5
4380
  8
1
 10
51.30440112358702
 20
237.94795730243621
 30
0.0
 11
51.30440112358702
 21
23.947957302435722
 31
0.0
  0
ARC
  5
4381
  8
0
 10
142.48820384089871
 20
49.618223483633763
 30
0.0
 40
12.25
 50
31.112020819732059
 51
46.12012289676111
  0
LINE
  5
4382
  8
0
 10
142.48820384090229
 20
115.3195362057087
 30
0.0
 11
142.48820384090229
 21
102.5763783992045
 31
0.0
  0
LINE
  5
4383
  8
0
 10
156.98820384090229
 20
100.9479573024594
 30
0.0
 11
127.98820384090391
 21
100.9479573024594
 31
0.0
  0
LINE
  5
4384
  8
0
 10
127.98820384090391
 20
116.9479573024588
 30
0.0
 11
156.9882038409007
 21
116.9479573024588
 31
0.0
  0
ARC
  5
4385
  8
0
 10
134.98820384090229
 20
94.996623394194941
 30
0.0
 40
21.662658773668529
 50
69.74384199960231
 51
110.2561580003977
  0
LINE
  5
4386
  8
0
 10
127.98820384090391
 20
116.9479573024588
 30
0.0
 11
127.4882038409025
 21
116.6592821678634
 31
0.0
  0
LINE
  5
4387
  8
0
 10
127.98820384090391
 20
100.9479573024594
 30
0.0
 11
127.4882038409025
 21
101.23663243705479
 31
0.0
  0
ARC
  5
4388
  8
0
 10
134.98820384090229
 20
122.89929121072301
 30
0.0
 40
21.662658773668529
 50
249.7438419996023
 51
290.2561580003977
  0
LINE
  5
4389
  8
0
 10
127.4882038409023
 20
116.6592821678634
 30
0.0
 11
127.4882038409025
 21
101.23663243705479
 31
0.0
  0
LINE
  5
438A
  8
0
 10
157.48820384090229
 20
116.6592821678634
 30
0.0
 11
157.48820384090209
 21
101.23663243705479
 31
0.0
  0
ARC
  5
438B
  8
0
 10
149.98820384090229
 20
122.89929121072301
 30
0.0
 40
21.662658773668529
 50
249.7438419996023
 51
290.2561580003977
  0
LINE
  5
438C
  8
0
 10
156.9882038409007
 20
100.9479573024594
 30
0.0
 11
157.48820384090209
 21
101.23663243705479
 31
0.0
  0
LINE
  5
438D
  8
0
 10
156.9882038409007
 20
116.9479573024588
 30
0.0
 11
157.48820384090209
 21
116.6592821678634
 31
0.0
  0
ARC
  5
438E
  8
0
 10
149.98820384090229
 20
94.996623394194941
 30
0.0
 40
21.662658773668529
 50
69.74384199960231
 51
110.2561580003977
  0
LINE
  5
438F
  8
3
 10
133.8412038409019
 20
116.9479573024588
 30
0.0
 11
133.8412038409019
 21
231.8009573024363
 31
0.0
  0
LINE
  5
4390
  8
0
 10
132.4882038409018
 20
116.9479573024588
 30
0.0
 11
132.4882038409018
 21
230.44795730243621
 31
0.0
  0
LINE
  5
4391
  8
0
 10
152.4882038409018
 20
116.9479573024586
 30
0.0
 11
152.4882038409018
 21
230.44795730243601
 31
0.0
  0
LINE
  5
4392
  8
3
 10
151.1352038409018
 20
116.9479573024588
 30
0.0
 11
151.1352038409018
 21
231.80095730243599
 31
0.0
  0
ARC
  5
4393
  8
0
 10
142.48820384089871
 20
49.618223483633763
 30
0.0
 40
12.25
 50
133.87987710305001
 51
148.88797918026791
  0
LINE
  5
4394
  8
0
 10
150.9882038409018
 20
58.447957302383877
 30
0.0
 11
133.9882038409018
 21
58.447957302412078
 31
0.0
  0
LINE
  5
4395
  8
0
 10
150.9882038409018
 20
64.947957302397981
 30
0.0
 11
150.9882038409018
 21
58.447957302383877
 31
0.0
  0
LINE
  5
4396
  8
0
 10
133.9882038409018
 20
64.947957302397981
 30
0.0
 11
133.9882038409018
 21
58.447957302412298
 31
0.0
  0
LINE
  5
4397
  8
0
 10
134.9882038409018
 20
232.94795730243621
 30
0.0
 11
149.9882038409018
 21
232.94795730243601
 31
0.0
  0
LINE
  5
4398
  8
0
 10
152.4882038409018
 20
74.947957302436194
 30
0.0
 11
152.4882038409018
 21
100.9479573024587
 31
0.0
  0
LINE
  5
4399
  8
3
 10
151.1352038409018
 20
78.947957302436194
 30
0.0
 11
151.1352038409018
 21
100.9479573024587
 31
0.0
  0
LINE
  5
439A
  8
3
 10
133.8412038409019
 20
78.947957302436194
 30
0.0
 11
133.8412038409019
 21
100.94795730245841
 31
0.0
  0
LINE
  5
439B
  8
0
 10
132.4882038409018
 20
74.947957302436194
 30
0.0
 11
132.4882038409018
 21
100.9479573024587
 31
0.0
  0
LINE
  5
439C
  8
0
 10
132.4882038409018
 20
230.44795730243621
 30
0.0
 11
134.9882038409018
 21
232.94795730243621
 31
0.0
  0
LINE
  5
439D
  8
0
 10
149.9882038409018
 20
232.94795730243601
 30
0.0
 11
152.4882038409018
 21
230.44795730243601
 31
0.0
  0
LINE
  5
439E
  8
0
 10
132.4882038409018
 20
230.44795730243621
 30
0.0
 11
152.4882038409018
 21
230.44795730243601
 31
0.0
  0
LINE
  5
439F
  8
0
 10
152.4882038409018
 20
78.947957302436194
 30
0.0
 11
132.4882038409018
 21
78.947957302436194
 31
0.0
  0
LINE
  5
43A0
  8
3
 10
133.8412038409019
 20
78.947957302436194
 30
0.0
 11
132.4882038409018
 21
76.604492559795261
 31
0.0
  0
LINE
  5
43A1
  8
3
 10
151.1352038409018
 20
78.947957302436194
 30
0.0
 11
152.4882038409018
 21
76.604492559795261
 31
0.0
  0
ARC
  5
43A2
  8
0
 10
142.48820384095541
 20
51.73107893981296
 30
0.0
 40
22.928203228139491
 50
72.412046224314139
 51
107.5879537756858
  0
ARC
  5
43A3
  8
0
 10
132.095898995542
 20
68.525307572231668
 30
0.0
 40
6.1339745957208196
 50
55.615752528791369
 51
115.6157525301566
  0
LINE
  5
43A4
  8
0
 10
128.63179738038249
 20
73.587485398123135
 30
0.0
 11
130.9882038410633
 21
74.947957302517352
 31
0.0
  0
LINE
  5
43A5
  8
0
 10
128.63179738038249
 20
66.308429206911569
 30
0.0
 11
130.9882038410633
 21
64.947957302517352
 31
0.0
  0
ARC
  5
43A6
  8
0
 10
132.095898995542
 20
71.370607032803051
 30
0.0
 40
6.1339745957208196
 50
244.38424746984339
 51
304.3842474712086
  0
ARC
  5
43A7
  8
0
 10
142.48820384095541
 20
88.16483566522173
 30
0.0
 40
22.928203228139491
 50
252.41204622431411
 51
287.58795377568589
  0
LINE
  5
43A8
  8
0
 10
128.63179738040429
 20
73.587485398123135
 30
0.0
 11
128.63179738040429
 21
66.308429206898836
 31
0.0
  0
LINE
  5
43A9
  8
0
 10
135.56000061068011
 20
73.587485398123135
 30
0.0
 11
135.56000061068011
 21
66.308429206911569
 31
0.0
  0
LINE
  5
43AA
  8
0
 10
149.41640707123079
 20
73.587485398123135
 30
0.0
 11
149.41640707123079
 21
66.308429206911569
 31
0.0
  0
LINE
  5
43AB
  8
0
 10
156.34461030150669
 20
73.587485398123135
 30
0.0
 11
156.34461030150669
 21
66.308429206898836
 31
0.0
  0
ARC
  5
43AC
  8
0
 10
152.88050868636901
 20
71.370607032803051
 30
0.0
 40
6.1339745957208196
 50
235.6157525287914
 51
295.61575253015661
  0
LINE
  5
43AD
  8
0
 10
156.34461030152841
 20
66.308429206911569
 30
0.0
 11
153.9882038408476
 21
64.947957302517352
 31
0.0
  0
LINE
  5
43AE
  8
0
 10
156.34461030152841
 20
73.587485398123135
 30
0.0
 11
153.9882038408476
 21
74.947957302517352
 31
0.0
  0
ARC
  5
43AF
  8
0
 10
152.88050868636901
 20
68.525307572231668
 30
0.0
 40
6.1339745957208196
 50
64.384247469843373
 51
124.3842474712085
  0
LINE
  5
43B0
  8
0
 10
130.98820384095549
 20
74.947957302517352
 30
0.0
 11
153.9882038408476
 21
74.947957302517352
 31
0.0
  0
LINE
  5
43B1
  8
0
 10
153.9882038408476
 20
64.947957302517352
 30
0.0
 11
130.9882038410633
 21
64.947957302517352
 31
0.0
  0
LINE
  5
43B3
  8
3
 10
59.95140112358694
 20
78.947957302436194
 30
0.0
 11
61.30440112358702
 21
76.604492559795261
 31
0.0
  0
LINE
  5
43B4
  8
3
 10
42.657401123587078
 20
78.947957302436194
 30
0.0
 11
41.304401123587013
 21
76.604492559795261
 31
0.0
  0
LINE
  5
43B5
  8
0
 10
61.30440112358702
 20
78.947957302436194
 30
0.0
 11
41.304401123587013
 21
78.947957302436194
 31
0.0
  0
LINE
  5
43B6
  8
0
 10
41.304401123587013
 20
230.44795730243621
 30
0.0
 11
61.30440112358702
 21
230.44795730243601
 31
0.0
  0
LINE
  5
43B7
  8
0
 10
58.80440112358702
 20
232.94795730243601
 30
0.0
 11
61.30440112358702
 21
230.44795730243601
 31
0.0
  0
LINE
  5
43B8
  8
0
 10
41.304401123587013
 20
230.44795730243621
 30
0.0
 11
43.804401123587013
 21
232.94795730243621
 31
0.0
  0
LINE
  5
43B9
  8
0
 10
41.304401123587013
 20
74.947957302436194
 30
0.0
 11
41.304401123587013
 21
100.9479573024587
 31
0.0
  0
LINE
  5
43BA
  8
3
 10
42.657401123587078
 20
78.947957302436194
 30
0.0
 11
42.657401123587078
 21
100.94795730245841
 31
0.0
  0
LINE
  5
43BB
  8
3
 10
59.95140112358694
 20
78.947957302436194
 30
0.0
 11
59.95140112358694
 21
100.9479573024587
 31
0.0
  0
LINE
  5
43BC
  8
0
 10
61.30440112358702
 20
74.947957302436194
 30
0.0
 11
61.30440112358702
 21
100.9479573024587
 31
0.0
  0
LINE
  5
43BD
  8
0
 10
43.804401123587013
 20
232.94795730243621
 30
0.0
 11
58.80440112358702
 21
232.94795730243601
 31
0.0
  0
ARC
  5
43BE
  8
0
 10
57.30440112362021
 20
57.329155150518773
 30
0.0
 40
17.330127017333279
 50
69.743841997633098
 51
110.2561580023669
  0
LINE
  5
43BF
  8
0
 10
63.304401123635223
 20
74.659282167852098
 30
0.0
 11
62.804401123620217
 21
74.947957302455507
 31
0.0
  0
LINE
  5
43C0
  8
0
 10
63.304401123635223
 20
65.236632436982063
 30
0.0
 11
62.804401123620217
 21
64.947957302378654
 31
0.0
  0
ARC
  5
43C1
  8
0
 10
57.30440112362021
 20
82.566759454315374
 30
0.0
 40
17.330127017333279
 50
249.7438419976331
 51
290.25615800236699
  0
LINE
  5
43C2
  8
0
 10
63.304401123635223
 20
74.659282167852098
 30
0.0
 11
63.304401123620217
 21
65.236632436973423
 31
0.0
  0
LINE
  5
43C3
  8
0
 10
51.304401123620217
 20
66.308429206811283
 30
0.0
 11
51.304401123620217
 21
73.587485398022864
 31
0.0
  0
LINE
  5
43C4
  8
0
 10
39.304401123605203
 20
74.659282167852098
 30
0.0
 11
39.30440112362021
 21
65.236632436973423
 31
0.0
  0
ARC
  5
43C5
  8
0
 10
45.30440112362021
 20
82.566759454315374
 30
0.0
 40
17.330127017333279
 50
249.7438419976331
 51
290.25615800236699
  0
LINE
  5
43C6
  8
0
 10
39.304401123605203
 20
65.236632436982063
 30
0.0
 11
39.80440112362021
 21
64.947957302378654
 31
0.0
  0
LINE
  5
43C7
  8
0
 10
39.304401123605203
 20
74.659282167852098
 30
0.0
 11
39.80440112362021
 21
74.947957302455507
 31
0.0
  0
ARC
  5
43C8
  8
0
 10
45.30440112362021
 20
57.329155150518773
 30
0.0
 40
17.330127017333279
 50
69.743841997633098
 51
110.2561580023669
  0
LINE
  5
43C9
  8
0
 10
39.804401123553809
 20
74.94795730241708
 30
0.0
 11
62.804401123620217
 21
74.947957302455507
 31
0.0
  0
LINE
  5
43CA
  8
0
 10
62.804401123620217
 20
64.947957302378654
 30
0.0
 11
39.804401123553809
 21
64.94795730241708
 31
0.0
  0
LINE
  5
43CB
  8
0
 10
42.804401123586999
 20
64.947957302397981
 30
0.0
 11
42.804401123586999
 21
58.447957302412298
 31
0.0
  0
LINE
  5
43CC
  8
0
 10
59.804401123586999
 20
64.947957302397981
 30
0.0
 11
59.804401123586999
 21
58.447957302383877
 31
0.0
  0
LINE
  5
43CF
  8
0
 10
65.804401123587709
 20
100.9479573024589
 30
0.0
 11
36.80440112358724
 21
100.9479573024587
 31
0.0
  0
LINE
  5
43D0
  8
0
 10
36.80440112358724
 20
116.9479573024591
 30
0.0
 11
65.804401123587922
 21
116.9479573024586
 31
0.0
  0
LINE
  5
43D1
  8
0
 10
65.80440112358724
 20
116.9479573024591
 30
0.0
 11
68.624909199275862
 21
115.3195362057087
 31
0.0
  0
ARC
  5
43D2
  8
0
 10
64.294782180353423
 20
108.9918139225878
 30
0.0
 40
7.6674682452751766
 50
64.384247470461645
 51
124.3842474680055
  0
ARC
  5
43D3
  8
0
 10
64.294782180353423
 20
108.9918139225878
 30
0.0
 40
7.6674682452751766
 50
55.615752531994502
 51
55.615752531994502
  0
ARC
  5
43D4
  8
0
 10
64.294782180353423
 20
108.9041006823299
 30
0.0
 40
7.6674682452751766
 50
304.38424746800558
 51
304.38424746800558
  0
ARC
  5
43D5
  8
0
 10
64.294782180353423
 20
108.9041006823299
 30
0.0
 40
7.6674682452751766
 50
235.6157525319945
 51
295.61575252953838
  0
LINE
  5
43D6
  8
0
 10
65.80440112358724
 20
100.9479573024587
 30
0.0
 11
68.624909199275862
 21
102.57637839920901
 31
0.0
  0
LINE
  5
43D7
  8
0
 10
68.624909199275635
 20
115.3195362057087
 30
0.0
 11
68.624909199559397
 21
102.5763783993727
 31
0.0
  0
LINE
  5
43D8
  8
0
 10
59.96465516143143
 20
102.5763783992324
 30
0.0
 11
59.964655161277499
 21
115.3195362057087
 31
0.0
  0
ARC
  5
43D9
  8
0
 10
51.304401123660682
 20
129.8968864744472
 30
0.0
 40
28.660254037392811
 50
252.41204622556921
 51
287.58795377413009
  0
LINE
  5
43DA
  8
0
 10
42.644147085743043
 20
102.5763783992324
 30
0.0
 11
42.644147085896961
 21
115.3195362057087
 31
0.0
  0
LINE
  5
43DB
  8
0
 10
33.98389304789886
 20
115.3195362057087
 30
0.0
 11
33.983893047615076
 21
102.5763783993727
 31
0.0
  0
LINE
  5
43DC
  8
0
 10
36.80440112358724
 20
100.9479573024587
 30
0.0
 11
33.983893047898611
 21
102.57637839920901
 31
0.0
  0
ARC
  5
43DD
  8
0
 10
38.314020066821058
 20
108.9041006823299
 30
0.0
 40
7.6674682452751766
 50
244.3842474704617
 51
304.38424746800558
  0
ARC
  5
43DE
  8
0
 10
38.314020066821058
 20
108.9041006823299
 30
0.0
 40
7.6674682452751766
 50
235.6157525319945
 51
235.6157525319945
  0
ARC
  5
43DF
  8
0
 10
51.304401123660682
 20
87.999028130470293
 30
0.0
 40
28.660254037392811
 50
72.412046225870014
 51
107.5879537744307
  0
ARC
  5
43E0
  8
0
 10
38.314020066821058
 20
108.9918139225878
 30
0.0
 40
7.6674682452751766
 50
124.3842474680055
 51
124.3842474680055
  0
ARC
  5
43E1
  8
0
 10
38.314020066821058
 20
108.9918139225878
 30
0.0
 40
7.6674682452751766
 50
55.615752531994502
 51
115.6157525295383
  0
LINE
  5
43E2
  8
0
 10
36.80440112358724
 20
116.9479573024591
 30
0.0
 11
33.983893047898611
 21
115.3195362057087
 31
0.0
  0
LINE
  5
43E3
  8
3
 10
59.95140112358694
 20
116.9479573024588
 30
0.0
 11
59.95140112358694
 21
231.80095730243599
 31
0.0
  0
LINE
  5
43E4
  8
0
 10
61.30440112358702
 20
116.9479573024586
 30
0.0
 11
61.30440112358702
 21
230.44795730243601
 31
0.0
  0
LINE
  5
43E5
  8
0
 10
41.304401123587013
 20
116.9479573024588
 30
0.0
 11
41.304401123587013
 21
230.44795730243621
 31
0.0
  0
LINE
  5
43E6
  8
3
 10
42.657401123587078
 20
116.9479573024588
 30
0.0
 11
42.657401123587078
 21
231.8009573024363
 31
0.0
  0
CIRCLE
  5
43E7
  8
0
 10
51.30440112358815
 20
284.00596466000962
 30
0.0
 40
14.5
  0
LINE
  5
43E8
  8
0
 10
33.983893047899542
 20
284.00596466000979
 30
0.0
 11
42.644147085743953
 21
269.00596466000962
 31
0.0
  0
LINE
  5
43E9
  8
0
 10
42.644147085743953
 20
299.00596466000962
 30
0.0
 11
33.983893047899542
 21
284.00596466000979
 31
0.0
  0
LINE
  5
43EA
  8
0
 10
59.96465516143234
 20
299.00596466000962
 30
0.0
 11
42.644147085743953
 21
299.00596466000962
 31
0.0
  0
LINE
  5
43EB
  8
0
 10
68.624909199277226
 20
284.00596466000962
 30
0.0
 11
59.96465516143234
 21
299.00596466000962
 31
0.0
  0
LINE
  5
43EC
  8
0
 10
59.964655161432802
 20
269.00596466000962
 30
0.0
 11
68.624909199277226
 21
284.00596466000962
 31
0.0
  0
LINE
  5
43ED
  8
0
 10
42.644147085743953
 20
269.00596466000962
 30
0.0
 11
59.964655161432802
 21
269.00596466000962
 31
0.0
  0
CIRCLE
  5
43EE
  8
3
 10
51.30440112358815
 20
284.00596466000962
 30
0.0
 40
8.6470000000000002
  0
CIRCLE
  5
43EF
  8
0
 10
51.30440112358815
 20
284.00596466000962
 30
0.0
 40
10.0
  0
ARC
  5
43F0
  8
0
 10
114.4882038409019
 20
40.815576544497837
 30
0.0
 40
2.0
 50
120.9637565320735
 51
180.0000000000004
  0
ARC
  5
43F1
  8
0
 10
119.4882038409022
 20
45.815576544497837
 30
0.0
 40
2.0
 50
120.9637565320738
 51
180.0
  0
ARC
  5
43F2
  8
0
 10
124.4882038409022
 20
50.593891379582139
 30
0.0
 40
2.0
 50
111.8014094863517
 51
180.0000000000008
  0
ARC
  5
43F3
  8
0
 10
129.4882038409018
 20
53.94795730243618
 30
0.0
 40
2.0
 50
90.000000000000057
 51
179.9999999999992
  0
LINE
  5
43F4
  8
0
 10
117.4882038409022
 20
44.947957302435952
 30
0.0
 11
113.459212330047
 21
42.530562395922971
 31
0.0
  0
LINE
  5
43F5
  8
0
 10
127.488203840902
 20
53.947957302435952
 30
0.0
 11
127.488203840902
 21
53.94795730243618
 31
0.0
  0
LINE
  5
43F6
  8
0
 10
127.488203840902
 20
53.947957302435952
 30
0.0
 11
123.7454224881938
 21
52.450844761352741
 31
0.0
  0
LINE
  5
43F7
  8
0
 10
122.4882038409019
 20
49.947957302435952
 30
0.0
 11
118.45921233004709
 21
47.530562395922964
 31
0.0
  0
LINE
  5
43F8
  8
0
 10
117.4882038409022
 20
44.947957302435952
 30
0.0
 11
117.4882038409022
 21
45.815576544497837
 31
0.0
  0
LINE
  5
43F9
  8
0
 10
122.4882038409019
 20
49.947957302435952
 30
0.0
 11
122.4882038409022
 21
50.593891379582139
 31
0.0
  0
LINE
  5
43FA
  8
0
 10
112.9882038409022
 20
28.947957302435949
 30
0.0
 11
112.9882038409022
 21
31.94795730243618
 31
0.0
  0
LINE
  5
43FB
  8
0
 10
112.4882038409022
 20
32.44795730243618
 30
0.0
 11
112.4882038409019
 21
40.815576544497837
 31
0.0
  0
LINE
  5
43FC
  8
0
 10
112.4882038409022
 20
32.44795730243618
 30
0.0
 11
112.9882038409022
 21
31.94795730243618
 31
0.0
  0
LINE
  5
440A
  8
1
 10
86.304401123588164
 20
284.00596466000962
 30
0.0
 11
16.30440112358815
 21
284.00596466000962
 31
0.0
  0
LINE
  5
440B
  8
1
 10
51.30440112358815
 20
319.00596466000962
 30
0.0
 11
51.30440112358815
 21
249.0059646600096
 31
0.0
  0
CIRCLE
  5
440C
  8
0
 10
51.30440112358815
 20
284.00596466000962
 30
0.0
 40
20.00000000000006
  0
CIRCLE
  5
440D
  8
0
 10
51.30440112358815
 20
284.00596466000962
 30
0.0
 40
25.0
  0
CIRCLE
  5
440E
  8
0
 10
51.30440112358815
 20
284.00596466000962
 30
0.0
 40
30.0
  0
LINE
  5
440F
  8
0
 10
172.48820384090169
 20
32.44795730243618
 30
0.0
 11
171.98820384090169
 21
31.94795730243618
 31
0.0
  0
LINE
  5
4410
  8
0
 10
172.48820384090169
 20
32.44795730243618
 30
0.0
 11
172.4882038409018
 21
40.815576544497837
 31
0.0
  0
LINE
  5
4411
  8
0
 10
112.988203840902
 20
31.94795730243618
 30
0.0
 11
171.98820384090169
 21
31.94795730243618
 31
0.0
  0
LINE
  5
4412
  8
0
 10
112.988203840902
 20
28.94795730243618
 30
0.0
 11
171.98820384090169
 21
28.947957302435949
 31
0.0
  0
LINE
  5
4413
  8
0
 10
171.98820384090169
 20
28.947957302435949
 30
0.0
 11
171.98820384090169
 21
31.94795730243618
 31
0.0
  0
LINE
  5
4414
  8
0
 10
117.4882038409022
 20
44.94795730243618
 30
0.0
 11
167.48820384090169
 21
44.947957302435952
 31
0.0
  0
LINE
  5
4415
  8
0
 10
122.4882038409019
 20
49.94795730243618
 30
0.0
 11
162.4882038409018
 21
49.947957302435952
 31
0.0
  0
LINE
  5
4416
  8
0
 10
127.488203840902
 20
53.94795730243618
 30
0.0
 11
157.48820384090169
 21
53.94795730243618
 31
0.0
  0
LINE
  5
4417
  8
0
 10
162.4882038409018
 20
49.947957302435952
 30
0.0
 11
162.48820384090169
 21
50.593891379582139
 31
0.0
  0
LINE
  5
4418
  8
0
 10
167.48820384090169
 20
44.947957302435952
 30
0.0
 11
167.48820384090169
 21
45.815576544497837
 31
0.0
  0
LINE
  5
4419
  8
0
 10
162.4882038409018
 20
49.947957302435952
 30
0.0
 11
166.51719535175681
 21
47.530562395922964
 31
0.0
  0
LINE
  5
441A
  8
0
 10
157.488203840902
 20
53.947957302435952
 30
0.0
 11
161.23098519361
 21
52.450844761352741
 31
0.0
  0
LINE
  5
441B
  8
0
 10
129.4882038409018
 20
55.947957302436173
 30
0.0
 11
155.4882038409018
 21
55.947957302436173
 31
0.0
  0
LINE
  5
441C
  8
0
 10
157.488203840902
 20
53.947957302435952
 30
0.0
 11
157.488203840902
 21
53.94795730243618
 31
0.0
  0
LINE
  5
441D
  8
0
 10
167.48820384090169
 20
44.947957302435952
 30
0.0
 11
171.51719535175681
 21
42.530562395922971
 31
0.0
  0
ARC
  5
441E
  8
0
 10
155.4882038409018
 20
53.94795730243618
 30
0.0
 40
2.0
 50
0.0000000000008142
 51
89.999999999999943
  0
ARC
  5
441F
  8
0
 10
160.48820384090169
 20
50.593891379582139
 30
0.0
 40
2.0
 50
359.9999999999992
 51
68.198590513648284
  0
ARC
  5
4420
  8
0
 10
165.48820384090169
 20
45.815576544497837
 30
0.0
 40
2.0
 50
0.0
 51
59.036243467926177
  0
ARC
  5
4421
  8
0
 10
170.4882038409018
 20
40.815576544497837
 30
0.0
 40
2.0
 50
359.9999999999996
 51
59.036243467926461
  0
ARC
  5
4503
  8
0
 10
79.304401123587127
 20
40.815576544497837
 30
0.0
 40
2.0
 50
359.9999999999996
 51
59.036243467926461
  0
ARC
  5
4504
  8
0
 10
74.304401123586899
 20
45.815576544497837
 30
0.0
 40
2.0
 50
0.0
 51
59.036243467926177
  0
ARC
  5
4505
  8
0
 10
69.304401123586899
 20
50.593891379582139
 30
0.0
 40
2.0
 50
359.9999999999992
 51
68.198590513648284
  0
ARC
  5
4506
  8
0
 10
64.304401123587013
 20
53.94795730243618
 30
0.0
 40
2.0
 50
0.0000000000008142
 51
89.999999999999943
  0
LINE
  5
4507
  8
0
 10
76.304401123586899
 20
44.947957302435952
 30
0.0
 11
80.333392634442035
 21
42.530562395922971
 31
0.0
  0
LINE
  5
4508
  8
0
 10
66.304401123587127
 20
53.947957302435952
 30
0.0
 11
66.304401123587127
 21
53.94795730243618
 31
0.0
  0
LINE
  5
4509
  8
0
 10
38.304401123587013
 20
55.947957302436173
 30
0.0
 11
64.304401123587013
 21
55.947957302436173
 31
0.0
  0
LINE
  5
450A
  8
0
 10
66.304401123587127
 20
53.947957302435952
 30
0.0
 11
70.04718247629522
 21
52.450844761352741
 31
0.0
  0
LINE
  5
450B
  8
0
 10
71.304401123587127
 20
49.947957302435952
 30
0.0
 11
75.333392634442021
 21
47.530562395922964
 31
0.0
  0
LINE
  5
450C
  8
0
 10
76.304401123586899
 20
44.947957302435952
 30
0.0
 11
76.304401123586899
 21
45.815576544497837
 31
0.0
  0
LINE
  5
450D
  8
0
 10
71.304401123587127
 20
49.947957302435952
 30
0.0
 11
71.304401123586899
 21
50.593891379582139
 31
0.0
  0
LINE
  5
450E
  8
0
 10
36.304401123587127
 20
53.94795730243618
 30
0.0
 11
66.304401123586899
 21
53.94795730243618
 31
0.0
  0
LINE
  5
450F
  8
0
 10
31.30440112358713
 20
49.94795730243618
 30
0.0
 11
71.304401123587127
 21
49.947957302435952
 31
0.0
  0
LINE
  5
4510
  8
0
 10
26.304401123587361
 20
44.94795730243618
 30
0.0
 11
76.304401123586899
 21
44.947957302435952
 31
0.0
  0
LINE
  5
4511
  8
0
 10
80.804401123586899
 20
28.947957302435949
 30
0.0
 11
80.804401123586899
 21
31.94795730243618
 31
0.0
  0
LINE
  5
4512
  8
0
 10
21.80440112358713
 20
28.94795730243618
 30
0.0
 11
80.804401123586899
 21
28.947957302435949
 31
0.0
  0
LINE
  5
4513
  8
0
 10
21.80440112358713
 20
31.94795730243618
 30
0.0
 11
80.804401123586899
 21
31.94795730243618
 31
0.0
  0
LINE
  5
4514
  8
0
 10
81.304401123586871
 20
32.44795730243618
 30
0.0
 11
81.304401123587127
 21
40.815576544497837
 31
0.0
  0
LINE
  5
4515
  8
0
 10
81.304401123586871
 20
32.44795730243618
 30
0.0
 11
80.804401123586899
 21
31.94795730243618
 31
0.0
  0
LINE
  5
4516
  8
0
 10
21.30440112358735
 20
32.44795730243618
 30
0.0
 11
21.804401123587361
 21
31.94795730243618
 31
0.0
  0
LINE
  5
4517
  8
0
 10
21.30440112358735
 20
32.44795730243618
 30
0.0
 11
21.30440112358713
 21
40.815576544497837
 31
0.0
  0
LINE
  5
4518
  8
0
 10
21.804401123587361
 20
28.947957302435949
 30
0.0
 11
21.804401123587361
 21
31.94795730243618
 31
0.0
  0
LINE
  5
4519
  8
0
 10
31.30440112358713
 20
49.947957302435952
 30
0.0
 11
31.304401123587361
 21
50.593891379582139
 31
0.0
  0
LINE
  5
451A
  8
0
 10
26.304401123587361
 20
44.947957302435952
 30
0.0
 11
26.304401123587361
 21
45.815576544497837
 31
0.0
  0
LINE
  5
451B
  8
0
 10
31.30440112358713
 20
49.947957302435952
 30
0.0
 11
27.275409612732229
 21
47.530562395922964
 31
0.0
  0
LINE
  5
451C
  8
0
 10
36.304401123587127
 20
53.947957302435952
 30
0.0
 11
32.56161977087902
 21
52.450844761352741
 31
0.0
  0
LINE
  5
451D
  8
0
 10
36.304401123587127
 20
53.947957302435952
 30
0.0
 11
36.304401123587127
 21
53.94795730243618
 31
0.0
  0
LINE
  5
451E
  8
0
 10
26.304401123587361
 20
44.947957302435952
 30
0.0
 11
22.275409612732229
 21
42.530562395922971
 31
0.0
  0
ARC
  5
451F
  8
0
 10
38.304401123587013
 20
53.94795730243618
 30
0.0
 40
2.0
 50
90.000000000000057
 51
179.9999999999992
  0
ARC
  5
4520
  8
0
 10
33.304401123587347
 20
50.593891379582139
 30
0.0
 40
2.0
 50
111.8014094863517
 51
180.0000000000008
  0
ARC
  5
4521
  8
0
 10
28.30440112358735
 20
45.815576544497837
 30
0.0
 40
2.0
 50
120.9637565320738
 51
180.0
  0
ARC
  5
4522
  8
0
 10
23.30440112358713
 20
40.815576544497837
 30
0.0
 40
2.0
 50
120.9637565320735
 51
180.0000000000004
  0
LINE
  5
4523
  8
0
 10
59.804401123586999
 20
58.447957302383877
 30
0.0
 11
42.804401123586999
 21
58.447957302412078
 31
0.0
  0
ARC
  5
4524
  8
0
 10
51.30440112358383
 20
49.618223483633763
 30
0.0
 40
12.25
 50
133.87987710305001
 51
148.88797918026791
  0
ARC
  5
4525
  8
0
 10
51.30440112358383
 20
49.618223483633763
 30
0.0
 40
12.25
 50
31.112020819732059
 51
46.12012289676111
  0
TEXT
  5
479E
  8
0
 62
     3
 10
0.0
 20
0.0
 30
0.0
 40
10.0
  1
LVER60L20C-SUS
  7
STANDARD1
  0
ENDSEC
  0
EOF
