  0
SECTION
  2
HEADER
  9
$ACADVER
  1
AC1009
  9
$INSBASE
 10
0.0
 20
0.0
 30
0.0
  9
$EXTMIN
 10
0.0
 20
-2.960436562073669
 30
0.0
  9
$EXTMAX
 10
172.12152766040981
 20
359.16134961572419
 30
0.0
  9
$LIMMIN
 10
0.0
 20
0.0
  9
$LIMMAX
 10
375.0
 20
270.0
  9
$ORTHOMODE
 70
     1
  9
$REGENMODE
 70
     1
  9
$FILLMODE
 70
     1
  9
$QTEXTMODE
 70
     0
  9
$MIRRTEXT
 70
     0
  9
$DRAGMODE
 70
     2
  9
$LTSCALE
 40
6.0
  9
$OSMODE
 70
    37
  9
$ATTMODE
 70
     1
  9
$TEXTSIZE
 40
0.2
  9
$TRACEWID
 40
0.05
  9
$TEXTSTYLE
  7
STANDARD
  9
$CLAYER
  8
0
  9
$CELTYPE
  6
BYLAYER
  9
$CECOLOR
 62
   256
  9
$DIMSCALE
 40
1.0
  9
$DIMASZ
 40
3.0
  9
$DIMEXO
 40
1.0
  9
$DIMDLI
 40
6.0
  9
$DIMRND
 40
0.0
  9
$DIMDLE
 40
0.0
  9
$DIMEXE
 40
1.0
  9
$DIMTP
 40
495.0
  9
$DIMTM
 40
0.0
  9
$DIMTXT
 40
3.0
  9
$DIMCEN
 40
0.0
  9
$DIMTSZ
 40
0.0
  9
$DIMTOL
 70
     0
  9
$DIMLIM
 70
     0
  9
$DIMTIH
 70
     0
  9
$DIMTOH
 70
     0
  9
$DIMSE1
 70
     0
  9
$DIMSE2
 70
     0
  9
$DIMTAD
 70
     1
  9
$DIMZIN
 70
     0
  9
$DIMBLK
  1

  9
$DIMASO
 70
     0
  9
$DIMSHO
 70
     0
  9
$DIMPOST
  1

  9
$DIMAPOST
  1

  9
$DIMALT
 70
     0
  9
$DIMALTD
 70
     2
  9
$DIMALTF
 40
25.399999999999999
  9
$DIMLFAC
 40
1.0
  9
$DIMTOFL
 70
     1
  9
$DIMTVP
 40
0.0
  9
$DIMTIX
 70
     1
  9
$DIMSOXD
 70
     0
  9
$DIMSAH
 70
     0
  9
$DIMBLK1
  1

  9
$DIMBLK2
  1

  9
$DIMSTYLE
  2
STANDARD
  9
$DIMCLRD
 70
     0
  9
$DIMCLRE
 70
     0
  9
$DIMCLRT
 70
     4
  9
$DIMTFAC
 40
1.0
  9
$DIMGAP
 40
1.0
  9
$LUNITS
 70
     2
  9
$LUPREC
 70
     4
  9
$SKETCHINC
 40
0.1
  9
$FILLETRAD
 40
2.0
  9
$AUNITS
 70
     0
  9
$AUPREC
 70
     0
  9
$MENU
  1
C:\R13\WIN\SUPPORT\ACAD-I
  9
$ELEVATION
 40
0.0
  9
$PELEVATION
 40
0.0
  9
$THICKNESS
 40
0.0
  9
$LIMCHECK
 70
     0
  9
$BLIPMODE
 70
     0
  9
$CHAMFERA
 40
0.0
  9
$CHAMFERB
 40
0.0
  9
$SKPOLY
 70
     0
  9
$TDCREATE
 40
2451962.418147176
  9
$TDUPDATE
 40
2456598.722078912
  9
$TDINDWG
 40
0.1431671181
  9
$TDUSRTIMER
 40
2456598.0668884139
  9
$USRTIMER
 70
     1
  9
$ANGBASE
 50
0.0
  9
$ANGDIR
 70
     0
  9
$PDMODE
 70
     0
  9
$PDSIZE
 40
0.0
  9
$PLINEWID
 40
0.0
  9
$COORDS
 70
     1
  9
$SPLFRAME
 70
     0
  9
$SPLINETYPE
 70
     6
  9
$SPLINESEGS
 70
     8
  9
$ATTDIA
 70
     0
  9
$ATTREQ
 70
     1
  9
$HANDLING
 70
     1
  9
$HANDSEED
  5
4AE1
  9
$SURFTAB1
 70
     6
  9
$SURFTAB2
 70
     6
  9
$SURFTYPE
 70
     6
  9
$SURFU
 70
     6
  9
$SURFV
 70
     6
  9
$UCSNAME
  2

  9
$UCSORG
 10
0.0
 20
0.0
 30
0.0
  9
$UCSXDIR
 10
1.0
 20
0.0
 30
0.0
  9
$UCSYDIR
 10
0.0
 20
1.0
 30
0.0
  9
$PUCSNAME
  2

  9
$PUCSORG
 10
0.0
 20
0.0
 30
0.0
  9
$PUCSXDIR
 10
1.0
 20
0.0
 30
0.0
  9
$PUCSYDIR
 10
0.0
 20
1.0
 30
0.0
  9
$USERI1
 70
     4
  9
$USERI2
 70
     1
  9
$USERI3
 70
     0
  9
$USERI4
 70
     0
  9
$USERI5
 70
     0
  9
$USERR1
 40
1.0
  9
$USERR2
 40
3.0
  9
$USERR3
 40
3.0
  9
$USERR4
 40
3.0
  9
$USERR5
 40
10.0
  9
$WORLDVIEW
 70
     1
  9
$SHADEDGE
 70
     3
  9
$SHADEDIF
 70
    70
  9
$TILEMODE
 70
     1
  9
$MAXACTVP
 70
    16
  9
$PLIMCHECK
 70
     0
  9
$PEXTMIN
 10
1.0000000000000000E+020
 20
1.0000000000000000E+020
 30
1.0000000000000000E+020
  9
$PEXTMAX
 10
-1.0000000000000000E+020
 20
-1.0000000000000000E+020
 30
-1.0000000000000000E+020
  9
$PLIMMIN
 10
0.0
 20
0.0
  9
$PLIMMAX
 10
12.0
 20
9.0
  9
$UNITMODE
 70
     0
  9
$VISRETAIN
 70
     0
  9
$PLINEGEN
 70
     0
  9
$PSLTSCALE
 70
     0
  0
ENDSEC
  0
SECTION
  2
TABLES
  0
TABLE
  2
VPORT
 70
     1
  0
VPORT
  2
*ACTIVE
 70
     0
 10
0.0
 20
0.0
 11
1.0
 21
1.0
 12
187.49427839065231
 22
229.87464392474831
 13
0.0
 23
0.0
 14
10.0
 24
10.0
 15
10.0
 25
10.0
 16
0.0
 26
0.0
 36
1.0
 17
0.0
 27
0.0
 37
0.0
 40
469.73201382237488
 41
1.755244755244755
 42
50.0
 43
0.0
 44
0.0
 50
0.0
 51
0.0
 71
    16
 72
   100
 73
     1
 74
     0
 75
     0
 76
     0
 77
     0
 78
     0
  0
ENDTAB
  0
TABLE
  2
LTYPE
 70
     3
  0
LTYPE
  2
CONTINUOUS
 70
     0
  3
Solid Line
 72
    65
 73
     0
 40
0.0
  0
LTYPE
  2
PHANTOM2
 70
     0
  3
___ _ _ ___ _ _ ___ _ _ ___ _ _
 72
    65
 73
     6
 40
1.25
 49
0.625
 49
-0.125
 49
0.125
 49
-0.125
 49
0.125
 49
-0.125
  0
LTYPE
  2
CENTER
 70
     0
  3
____ _ ____ _ ____ _ ____ _ ____ _ ____ _ ____
 72
    65
 73
     4
 40
2.0
 49
1.25
 49
-0.25
 49
0.25
 49
-0.25
  0
ENDTAB
  0
TABLE
  2
LAYER
 70
     3
  0
LAYER
  2
0
 70
     0
 62
     7
  6
CONTINUOUS
  0
LAYER
  2
1
 70
     0
 62
     1
  6
CENTER
  0
LAYER
  2
3
 70
     0
 62
     3
  6
CONTINUOUS
  0
ENDTAB
  0
TABLE
  2
STYLE
 70
     3
  0
STYLE
  2
STANDARD
 70
     0
 40
0.0
 41
1.0
 50
0.0
 71
     0
 42
0.2
  3
SIMPLEX
  4
BIGFONT
  0
STYLE
  2
ANNOTATIVE
 70
     0
 40
0.0
 41
1.0
 50
0.0
 71
     0
 42
0.2
  3
txt
  4

  0
STYLE
  2
STANDARD1
 70
     0
 40
0.0
 41
1.0
 50
0.0
 71
     0
 42
3.0
  3
txt
  4

  0
ENDTAB
  0
TABLE
  2
VIEW
 70
     0
  0
ENDTAB
  0
TABLE
  2
UCS
 70
     0
  0
ENDTAB
  0
TABLE
  2
APPID
 70
    29
  0
APPID
  2
ACAD
 70
     0
  0
APPID
  2
ACADANNOTATIVE
 70
     0
  0
APPID
  2
GENIUS_GENOREF_13
 70
     0
  0
APPID
  2
GENIUS_GENOENT_13
 70
     0
  0
APPID
  2
GENIUS_GENBH_13
 70
     0
  0
APPID
  2
GENIUS_GENOBJ_13
 70
     0
  0
APPID
  2
GENIUS_GENODEF_13
 70
     0
  0
APPID
  2
GENIUS_GENOLIS_13
 70
     0
  0
APPID
  2
GENIUS_GENOBJ-NBEHI-BHF_13
 70
     0
  0
APPID
  2
GENIUS_GENOBJ-NBEHI-BHB_13
 70
     0
  0
APPID
  2
GENIUS_GENOBJ-F-PART_13
 70
     0
  0
APPID
  2
GENIUS_GEFSTDP_13
 70
     0
  0
APPID
  2
GENIUS_GENOBJ-N-RSSYM_13
 70
     0
  0
APPID
  2
GENIUS_GENSYMENT_13
 70
     0
  0
APPID
  2
GENIUS_GENOBJ-N-TIT_13
 70
     0
  0
APPID
  2
GENIUS_GENTITLE_13
 70
     0
  0
APPID
  2
GENIUS_GENZVEED_13
 70
     0
  0
APPID
  2
GENIUS_GENOBJ-N-LEADER_13
 70
     0
  0
APPID
  2
GENIUS_GENOBJ-N-FIL_13
 70
     0
  0
APPID
  2
GENIUS_GENOBJ-N-SEC_13
 70
     0
  0
APPID
  2
GENIUS_GENOBJ-N-CRS_13
 70
     0
  0
APPID
  2
GENIUS_GENOBJ-N-ZOO_13
 70
     0
  0
APPID
  2
GENIUS_GENZOO_13
 70
     0
  0
APPID
  2
GENIUS_GENOBJ-F-TOL_13
 70
     0
  0
APPID
  2
GENIUS_GENFIL_13
 70
     0
  0
APPID
  2
GENIUS_GENOBJ-N-CHA_13
 70
     0
  0
APPID
  2
ACAD_EXEMPT_FROM_CAD_STANDARDS
 70
     0
  0
APPID
  2
ACAD_MLEADERVER
 70
     0
  0
APPID
  2
ACAD_NAV_VCDISPLAY
 70
     0
  0
ENDTAB
  0
TABLE
  2
DIMSTYLE
 70
     2
  0
DIMSTYLE
  2
STANDARD
 70
     0
  3

  4

  5

  6

  7

 40
1.0
 41
0.18
 42
0.0625
 43
0.38
 44
0.18
 45
0.0
 46
0.0
 47
0.0
 48
0.0
140
0.18
141
0.09
142
0.0
143
25.399999999999999
144
1.0
145
0.0
146
1.0
147
0.09
 71
     0
 72
     0
 73
     1
 74
     1
 75
     0
 76
     0
 77
     0
 78
     0
170
     0
171
     2
172
     0
173
     0
174
     0
175
     0
176
     0
177
     0
178
     0
  0
DIMSTYLE
  2
ANNOTATIVE
 70
     0
  3

  4

  5

  6

  7

 40
1.0
 41
0.18
 42
0.0625
 43
0.38
 44
0.18
 45
0.0
 46
0.0
 47
0.0
 48
0.0
140
0.18
141
0.09
142
0.0
143
25.399999999999999
144
1.0
145
0.0
146
1.0
147
0.09
 71
     0
 72
     0
 73
     1
 74
     1
 75
     0
 76
     0
 77
     0
 78
     0
170
     0
171
     2
172
     0
173
     0
174
     0
175
     0
176
     0
177
     0
178
     0
  0
ENDTAB
  0
ENDSEC
  0
SECTION
  2
BLOCKS
  0
BLOCK
  8
0
  2
$MODEL_SPACE
 70
     0
 10
0.0
 20
0.0
 30
0.0
  3
$MODEL_SPACE
  1

  0
ENDBLK
  5
49A8
  8
0
  0
BLOCK
 67
     1
  8
0
  2
$PAPER_SPACE
 70
     0
 10
0.0
 20
0.0
 30
0.0
  3
$PAPER_SPACE
  1

  0
ENDBLK
  5
49A4
 67
     1
  8
0
  0
ENDSEC
  0
SECTION
  2
ENTITIES
  0
ARC
  5
4536
  8
0
 10
170.12152766040981
 20
40.970961500212532
 30
0.0
 40
2.0
 50
359.9999999999996
 51
59.036243467926241
  0
ARC
  5
4537
  8
0
 10
165.1215276604093
 20
45.970961500212532
 30
0.0
 40
2.0
 50
0.0
 51
59.036243467926127
  0
ARC
  5
4538
  8
0
 10
160.1215276604093
 20
50.74927633529682
 30
0.0
 40
2.0
 50
359.9999999999992
 51
68.198590513648568
  0
ARC
  5
4539
  8
0
 10
155.12152766040981
 20
54.10334225815086
 30
0.0
 40
2.0
 50
0.0000000000008142
 51
90.0
  0
LINE
  5
453A
  8
0
 10
167.1215276604093
 20
45.103342258150633
 30
0.0
 11
171.15051917126439
 21
42.685947351637651
 31
0.0
  0
LINE
  5
453B
  8
0
 10
157.12152766040981
 20
54.103342258150633
 30
0.0
 11
157.12152766040981
 21
54.10334225815086
 31
0.0
  0
LINE
  5
453C
  8
0
 10
129.12152766040981
 20
56.10334225815086
 30
0.0
 11
155.12152766040981
 21
56.10334225815086
 31
0.0
  0
LINE
  5
453D
  8
0
 10
157.12152766040981
 20
54.103342258150633
 30
0.0
 11
160.86430901311769
 21
52.606229717067443
 31
0.0
  0
LINE
  5
453E
  8
0
 10
162.12152766040981
 20
50.103342258150633
 30
0.0
 11
166.15051917126451
 21
47.685947351637651
 31
0.0
  0
LINE
  5
453F
  8
0
 10
167.1215276604093
 20
45.103342258150633
 30
0.0
 11
167.1215276604093
 21
45.970961500212532
 31
0.0
  0
LINE
  5
4540
  8
0
 10
162.12152766040981
 20
50.103342258150633
 30
0.0
 11
162.1215276604093
 21
50.74927633529682
 31
0.0
  0
LINE
  5
4541
  8
0
 10
127.1215276604098
 20
54.10334225815086
 30
0.0
 11
157.1215276604093
 21
54.10334225815086
 31
0.0
  0
LINE
  5
4542
  8
0
 10
122.1215276604098
 20
50.10334225815086
 30
0.0
 11
162.12152766040981
 21
50.103342258150633
 31
0.0
  0
LINE
  5
4543
  8
0
 10
117.1215276604098
 20
45.10334225815086
 30
0.0
 11
167.1215276604093
 21
45.103342258150633
 31
0.0
  0
LINE
  5
4544
  8
0
 10
171.6215276604093
 20
29.103342258150629
 30
0.0
 11
171.6215276604093
 21
32.10334225815086
 31
0.0
  0
LINE
  5
4545
  8
0
 10
112.6215276604098
 20
29.10334225815086
 30
0.0
 11
171.6215276604093
 21
29.103342258150629
 31
0.0
  0
LINE
  5
4546
  8
0
 10
112.6215276604098
 20
32.10334225815086
 30
0.0
 11
171.6215276604093
 21
32.10334225815086
 31
0.0
  0
LINE
  5
4547
  8
0
 10
172.1215276604093
 20
32.60334225815086
 30
0.0
 11
172.12152766040981
 21
40.970961500212532
 31
0.0
  0
LINE
  5
4548
  8
0
 10
172.1215276604093
 20
32.60334225815086
 30
0.0
 11
171.6215276604093
 21
32.10334225815086
 31
0.0
  0
CIRCLE
  5
4549
  8
0
 10
50.937724943096107
 20
324.16134961572419
 30
0.0
 40
30.0
  0
CIRCLE
  5
454A
  8
0
 10
50.937724943096107
 20
324.16134961572419
 30
0.0
 40
25.0
  0
CIRCLE
  5
454B
  8
0
 10
50.937724943096107
 20
324.16134961572419
 30
0.0
 40
20.00000000000006
  0
LINE
  5
454C
  8
1
 10
50.937724943096107
 20
359.16134961572419
 30
0.0
 11
50.937724943096107
 21
289.1613496157243
 31
0.0
  0
LINE
  5
454D
  8
1
 10
85.937724943096086
 20
324.16134961572419
 30
0.0
 11
15.9377249430961
 21
324.16134961572419
 31
0.0
  0
LINE
  5
455B
  8
0
 10
112.1215276604098
 20
32.60334225815086
 30
0.0
 11
112.6215276604098
 21
32.10334225815086
 31
0.0
  0
LINE
  5
455C
  8
0
 10
112.1215276604098
 20
32.60334225815086
 30
0.0
 11
112.1215276604098
 21
40.970961500212532
 31
0.0
  0
LINE
  5
455D
  8
0
 10
112.6215276604098
 20
29.103342258150629
 30
0.0
 11
112.6215276604098
 21
32.10334225815086
 31
0.0
  0
LINE
  5
455E
  8
0
 10
122.1215276604098
 20
50.103342258150633
 30
0.0
 11
122.1215276604098
 21
50.74927633529682
 31
0.0
  0
LINE
  5
455F
  8
0
 10
117.1215276604098
 20
45.103342258150633
 30
0.0
 11
117.1215276604098
 21
45.970961500212532
 31
0.0
  0
LINE
  5
4560
  8
0
 10
122.1215276604098
 20
50.103342258150633
 30
0.0
 11
118.0925361495547
 21
47.685947351637651
 31
0.0
  0
LINE
  5
4561
  8
0
 10
127.1215276604098
 20
54.103342258150633
 30
0.0
 11
123.37874630770141
 21
52.606229717067443
 31
0.0
  0
LINE
  5
4562
  8
0
 10
127.1215276604098
 20
54.103342258150633
 30
0.0
 11
127.1215276604098
 21
54.10334225815086
 31
0.0
  0
LINE
  5
4563
  8
0
 10
117.1215276604098
 20
45.103342258150633
 30
0.0
 11
113.0925361495547
 21
42.685947351637651
 31
0.0
  0
ARC
  5
4564
  8
0
 10
129.12152766040981
 20
54.10334225815086
 30
0.0
 40
2.0
 50
90.0
 51
179.9999999999992
  0
ARC
  5
4565
  8
0
 10
124.1215276604098
 20
50.74927633529682
 30
0.0
 40
2.0
 50
111.8014094863517
 51
180.0000000000008
  0
ARC
  5
4566
  8
0
 10
119.1215276604098
 20
45.970961500212532
 30
0.0
 40
2.0
 50
120.9637565320738
 51
180.0
  0
ARC
  5
4567
  8
0
 10
114.1215276604098
 20
40.970961500212532
 30
0.0
 40
2.0
 50
120.9637565320734
 51
180.0000000000004
  0
CIRCLE
  5
4568
  8
0
 10
50.937724943096107
 20
324.16134961572419
 30
0.0
 40
10.0
  0
CIRCLE
  5
4569
  8
3
 10
50.937724943096107
 20
324.16134961572419
 30
0.0
 40
8.6470000000000002
  0
LINE
  5
456A
  8
0
 10
42.277470905251903
 20
309.16134961572419
 30
0.0
 11
59.597978980940752
 21
309.16134961572419
 31
0.0
  0
LINE
  5
456B
  8
0
 10
59.597978980940752
 20
309.16134961572419
 30
0.0
 11
68.258233018785177
 21
324.16134961572419
 31
0.0
  0
LINE
  5
456C
  8
0
 10
68.258233018785177
 20
324.16134961572419
 30
0.0
 11
59.597978980940297
 21
339.1613496157243
 31
0.0
  0
LINE
  5
456D
  8
0
 10
59.597978980940297
 20
339.1613496157243
 30
0.0
 11
42.277470905251903
 21
339.1613496157243
 31
0.0
  0
LINE
  5
456E
  8
0
 10
42.277470905251903
 20
339.1613496157243
 30
0.0
 11
33.617216867407478
 21
324.1613496157247
 31
0.0
  0
LINE
  5
456F
  8
0
 10
33.617216867407478
 20
324.1613496157247
 30
0.0
 11
42.277470905251903
 21
309.16134961572419
 31
0.0
  0
CIRCLE
  5
4570
  8
0
 10
50.937724943096107
 20
324.16134961572419
 30
0.0
 40
14.5
  0
LINE
  5
4571
  8
3
 10
42.290724943095029
 20
117.1033422581736
 30
0.0
 11
42.290724943095029
 21
271.95634225815093
 31
0.0
  0
LINE
  5
4572
  8
0
 10
40.937724943094949
 20
117.1033422581736
 30
0.0
 11
40.937724943094949
 21
270.6033422581508
 31
0.0
  0
LINE
  5
4573
  8
0
 10
60.937724943094949
 20
117.1033422581733
 30
0.0
 11
60.937724943094949
 21
270.60334225815058
 31
0.0
  0
LINE
  5
4574
  8
3
 10
59.584724943094891
 20
117.1033422581736
 30
0.0
 11
59.584724943094891
 21
271.9563422581507
 31
0.0
  0
LINE
  5
4575
  8
0
 10
36.437724943095191
 20
117.1033422581738
 30
0.0
 11
33.617216867406569
 21
115.4749211614234
 31
0.0
  0
ARC
  5
4576
  8
0
 10
37.947343886329008
 20
109.1471988783025
 30
0.0
 40
7.6674682452751766
 50
55.615752531994488
 51
115.6157525295382
  0
ARC
  5
4577
  8
0
 10
37.947343886329008
 20
109.1471988783025
 30
0.0
 40
7.6674682452751766
 50
124.3842474680055
 51
124.3842474680055
  0
ARC
  5
4578
  8
0
 10
50.937724943168632
 20
88.154413086185059
 30
0.0
 40
28.660254037392811
 50
72.412046225870014
 51
107.5879537744307
  0
ARC
  5
4579
  8
0
 10
37.947343886329008
 20
109.05948563804461
 30
0.0
 40
7.6674682452751766
 50
235.6157525319945
 51
235.6157525319945
  0
ARC
  5
457A
  8
0
 10
37.947343886329008
 20
109.05948563804461
 30
0.0
 40
7.6674682452751766
 50
244.3842474704617
 51
304.38424746800558
  0
LINE
  5
457B
  8
0
 10
36.437724943095191
 20
101.1033422581733
 30
0.0
 11
33.617216867406569
 21
102.7317633549237
 31
0.0
  0
LINE
  5
457C
  8
0
 10
33.61721686740681
 20
115.4749211614234
 30
0.0
 11
33.617216867123041
 21
102.73176335508739
 31
0.0
  0
LINE
  5
457D
  8
0
 10
42.277470905250993
 20
102.73176335494711
 30
0.0
 11
42.277470905404918
 21
115.4749211614234
 31
0.0
  0
ARC
  5
457E
  8
0
 10
50.937724943168632
 20
130.05227143016191
 30
0.0
 40
28.660254037392811
 50
252.41204622556921
 51
287.58795377413009
  0
LINE
  5
457F
  8
0
 10
59.597978980939381
 20
102.73176335494711
 30
0.0
 11
59.597978980785449
 21
115.4749211614234
 31
0.0
  0
LINE
  5
4580
  8
0
 10
68.258233018783599
 20
115.4749211614234
 30
0.0
 11
68.258233019067319
 21
102.73176335508739
 31
0.0
  0
LINE
  5
4581
  8
0
 10
65.437724943095191
 20
101.1033422581733
 30
0.0
 11
68.258233018783812
 21
102.7317633549237
 31
0.0
  0
ARC
  5
4582
  8
0
 10
63.928105999861373
 20
109.05948563804461
 30
0.0
 40
7.6674682452751766
 50
235.6157525319945
 51
295.61575252953838
  0
ARC
  5
4583
  8
0
 10
63.928105999861373
 20
109.05948563804461
 30
0.0
 40
7.6674682452751766
 50
304.38424746800558
 51
304.38424746800558
  0
ARC
  5
4584
  8
0
 10
63.928105999861373
 20
109.1471988783025
 30
0.0
 40
7.6674682452751766
 50
55.615752531994531
 51
55.615752531994531
  0
ARC
  5
4585
  8
0
 10
63.928105999861373
 20
109.1471988783025
 30
0.0
 40
7.6674682452751766
 50
64.384247470461659
 51
124.3842474680055
  0
LINE
  5
4586
  8
0
 10
65.437724943095191
 20
117.1033422581738
 30
0.0
 11
68.258233018783812
 21
115.4749211614234
 31
0.0
  0
LINE
  5
4587
  8
0
 10
36.437724943095191
 20
117.1033422581738
 30
0.0
 11
65.437724943095844
 21
117.1033422581733
 31
0.0
  0
LINE
  5
4588
  8
0
 10
65.437724943095645
 20
101.1033422581736
 30
0.0
 11
36.437724943095191
 21
101.1033422581733
 31
0.0
  0
LINE
  5
458B
  8
0
 10
59.437724943094949
 20
65.103342258112662
 30
0.0
 11
59.437724943094949
 21
58.603342258098557
 31
0.0
  0
LINE
  5
458C
  8
0
 10
42.437724943094949
 20
65.103342258112662
 30
0.0
 11
42.437724943094949
 21
58.603342258127
 31
0.0
  0
LINE
  5
458D
  8
0
 10
62.43772494312816
 20
65.103342258093349
 30
0.0
 11
39.437724943061767
 21
65.103342258131761
 31
0.0
  0
LINE
  5
458E
  8
0
 10
39.437724943061767
 20
75.103342258131761
 30
0.0
 11
62.43772494312816
 21
75.103342258170173
 31
0.0
  0
ARC
  5
458F
  8
0
 10
44.93772494312816
 20
57.484540106233453
 30
0.0
 40
17.330127017333279
 50
69.743841997633098
 51
110.2561580023669
  0
LINE
  5
4590
  8
0
 10
38.93772494311316
 20
74.814667123566764
 30
0.0
 11
39.43772494312816
 21
75.103342258170173
 31
0.0
  0
LINE
  5
4591
  8
0
 10
38.93772494311316
 20
65.392017392696744
 30
0.0
 11
39.43772494312816
 21
65.103342258093349
 31
0.0
  0
ARC
  5
4592
  8
0
 10
44.93772494312816
 20
82.722144410030083
 30
0.0
 40
17.330127017333279
 50
249.7438419976331
 51
290.25615800236699
  0
LINE
  5
4593
  8
0
 10
38.93772494311316
 20
74.814667123566764
 30
0.0
 11
38.93772494312816
 21
65.392017392688103
 31
0.0
  0
LINE
  5
4594
  8
0
 10
50.937724943128153
 20
66.463814162525978
 30
0.0
 11
50.937724943128153
 21
73.742870353737544
 31
0.0
  0
LINE
  5
4595
  8
0
 10
62.937724943143166
 20
74.814667123566764
 30
0.0
 11
62.93772494312816
 21
65.392017392688103
 31
0.0
  0
ARC
  5
4596
  8
0
 10
56.93772494312816
 20
82.722144410030083
 30
0.0
 40
17.330127017333279
 50
249.7438419976331
 51
290.25615800236699
  0
LINE
  5
4597
  8
0
 10
62.937724943143166
 20
65.392017392696744
 30
0.0
 11
62.43772494312816
 21
65.103342258093349
 31
0.0
  0
LINE
  5
4598
  8
0
 10
62.937724943143166
 20
74.814667123566764
 30
0.0
 11
62.43772494312816
 21
75.103342258170173
 31
0.0
  0
ARC
  5
4599
  8
0
 10
56.93772494312816
 20
57.484540106233453
 30
0.0
 40
17.330127017333279
 50
69.743841997633098
 51
110.2561580023669
  0
LINE
  5
459A
  8
0
 10
43.437724943094949
 20
273.1033422581508
 30
0.0
 11
58.437724943094949
 21
273.10334225815058
 31
0.0
  0
LINE
  5
459B
  8
0
 10
60.937724943094949
 20
75.10334225815086
 30
0.0
 11
60.937724943094949
 21
101.1033422581733
 31
0.0
  0
LINE
  5
459C
  8
3
 10
59.584724943094891
 20
79.10334225815086
 30
0.0
 11
59.584724943094891
 21
101.1033422581733
 31
0.0
  0
LINE
  5
459D
  8
3
 10
42.290724943095029
 20
79.10334225815086
 30
0.0
 11
42.290724943095029
 21
101.1033422581731
 31
0.0
  0
LINE
  5
459E
  8
0
 10
40.937724943094949
 20
75.10334225815086
 30
0.0
 11
40.937724943094949
 21
101.1033422581733
 31
0.0
  0
LINE
  5
459F
  8
0
 10
40.937724943094949
 20
270.6033422581508
 30
0.0
 11
43.437724943094949
 21
273.1033422581508
 31
0.0
  0
LINE
  5
45A0
  8
0
 10
58.437724943094949
 20
273.10334225815058
 30
0.0
 11
60.937724943094949
 21
270.60334225815058
 31
0.0
  0
LINE
  5
45A1
  8
0
 10
40.937724943094949
 20
270.6033422581508
 30
0.0
 11
60.937724943094949
 21
270.60334225815058
 31
0.0
  0
LINE
  5
45A2
  8
0
 10
60.937724943094949
 20
79.10334225815086
 30
0.0
 11
40.937724943094949
 21
79.10334225815086
 31
0.0
  0
LINE
  5
45A3
  8
3
 10
42.290724943095029
 20
79.10334225815086
 30
0.0
 11
40.937724943094949
 21
76.75987751550997
 31
0.0
  0
LINE
  5
45A4
  8
3
 10
59.584724943094891
 20
79.10334225815086
 30
0.0
 11
60.937724943094949
 21
76.75987751550997
 31
0.0
  0
LINE
  5
45A6
  8
0
 10
153.6215276603557
 20
65.103342258232033
 30
0.0
 11
130.62152766057119
 21
65.103342258232033
 31
0.0
  0
LINE
  5
45A7
  8
0
 10
130.62152766046341
 20
75.103342258232033
 30
0.0
 11
153.6215276603557
 21
75.103342258232033
 31
0.0
  0
ARC
  5
45A8
  8
0
 10
152.51383250587691
 20
68.680692527946348
 30
0.0
 40
6.1339745957208196
 50
64.384247469843274
 51
124.3842474712085
  0
LINE
  5
45A9
  8
0
 10
155.97793412103641
 20
73.742870353837816
 30
0.0
 11
153.6215276603557
 21
75.103342258232033
 31
0.0
  0
LINE
  5
45AA
  8
0
 10
155.97793412103641
 20
66.46381416262625
 30
0.0
 11
153.6215276603557
 21
65.103342258232033
 31
0.0
  0
ARC
  5
45AB
  8
0
 10
152.51383250587691
 20
71.525991988517717
 30
0.0
 40
6.1339745957208196
 50
235.6157525287914
 51
295.61575253015673
  0
LINE
  5
45AC
  8
0
 10
155.97793412101461
 20
73.742870353837816
 30
0.0
 11
155.97793412101461
 21
66.463814162613517
 31
0.0
  0
LINE
  5
45AD
  8
0
 10
149.0497308907388
 20
73.742870353837816
 30
0.0
 11
149.0497308907388
 21
66.46381416262625
 31
0.0
  0
LINE
  5
45AE
  8
0
 10
135.19332443018811
 20
73.742870353837816
 30
0.0
 11
135.19332443018811
 21
66.46381416262625
 31
0.0
  0
LINE
  5
45AF
  8
0
 10
128.2651211999123
 20
73.742870353837816
 30
0.0
 11
128.2651211999123
 21
66.463814162613517
 31
0.0
  0
ARC
  5
45B0
  8
0
 10
142.12152766046341
 20
88.320220620936425
 30
0.0
 40
22.928203228139491
 50
252.412046224314
 51
287.58795377568589
  0
ARC
  5
45B1
  8
0
 10
131.72922281504981
 20
71.525991988517717
 30
0.0
 40
6.1339745957208196
 50
244.3842474698433
 51
304.38424747120848
  0
LINE
  5
45B2
  8
0
 10
128.2651211998905
 20
66.46381416262625
 30
0.0
 11
130.62152766057119
 21
65.103342258232033
 31
0.0
  0
LINE
  5
45B3
  8
0
 10
128.2651211998905
 20
73.742870353837816
 30
0.0
 11
130.62152766057119
 21
75.103342258232033
 31
0.0
  0
ARC
  5
45B4
  8
0
 10
131.72922281504981
 20
68.680692527946348
 30
0.0
 40
6.1339745957208196
 50
55.615752528791418
 51
115.6157525301567
  0
ARC
  5
45B5
  8
0
 10
142.12152766046341
 20
51.88646389552764
 30
0.0
 40
22.928203228139491
 50
72.412046224314096
 51
107.5879537756858
  0
LINE
  5
45B6
  8
3
 10
150.76852766040969
 20
79.10334225815086
 30
0.0
 11
152.12152766040981
 21
76.75987751550997
 31
0.0
  0
LINE
  5
45B7
  8
3
 10
133.4745276604099
 20
79.10334225815086
 30
0.0
 11
132.12152766040981
 21
76.75987751550997
 31
0.0
  0
LINE
  5
45B8
  8
0
 10
152.12152766040981
 20
79.10334225815086
 30
0.0
 11
132.12152766040981
 21
79.10334225815086
 31
0.0
  0
LINE
  5
45B9
  8
0
 10
132.12152766040981
 20
270.6033422581508
 30
0.0
 11
152.12152766040981
 21
270.60334225815058
 31
0.0
  0
LINE
  5
45BA
  8
0
 10
149.62152766040981
 20
273.10334225815058
 30
0.0
 11
152.12152766040981
 21
270.60334225815058
 31
0.0
  0
LINE
  5
45BB
  8
0
 10
132.12152766040981
 20
270.6033422581508
 30
0.0
 11
134.62152766040981
 21
273.1033422581508
 31
0.0
  0
LINE
  5
45BC
  8
0
 10
132.12152766040981
 20
75.10334225815086
 30
0.0
 11
132.12152766040981
 21
101.1033422581733
 31
0.0
  0
LINE
  5
45BD
  8
3
 10
133.4745276604099
 20
79.10334225815086
 30
0.0
 11
133.4745276604099
 21
101.1033422581731
 31
0.0
  0
LINE
  5
45BE
  8
3
 10
150.76852766040969
 20
79.10334225815086
 30
0.0
 11
150.76852766040969
 21
101.1033422581733
 31
0.0
  0
LINE
  5
45BF
  8
0
 10
152.12152766040981
 20
75.10334225815086
 30
0.0
 11
152.12152766040981
 21
101.1033422581733
 31
0.0
  0
LINE
  5
45C0
  8
0
 10
134.62152766040981
 20
273.1033422581508
 30
0.0
 11
149.62152766040981
 21
273.10334225815058
 31
0.0
  0
LINE
  5
45C1
  8
0
 10
133.62152766040981
 20
65.103342258112662
 30
0.0
 11
133.62152766040981
 21
58.603342258127
 31
0.0
  0
LINE
  5
45C2
  8
0
 10
150.62152766040981
 20
65.103342258112662
 30
0.0
 11
150.62152766040981
 21
58.603342258098557
 31
0.0
  0
LINE
  5
45C3
  8
0
 10
150.62152766040981
 20
58.603342258098557
 30
0.0
 11
133.62152766040981
 21
58.603342258126752
 31
0.0
  0
ARC
  5
45C4
  8
0
 10
142.1215276604066
 20
49.773608439348429
 30
0.0
 40
12.25
 50
133.87987710305001
 51
148.88797918026791
  0
LINE
  5
45C5
  8
3
 10
150.76852766040969
 20
117.1033422581736
 30
0.0
 11
150.76852766040969
 21
271.9563422581507
 31
0.0
  0
LINE
  5
45C6
  8
0
 10
152.12152766040981
 20
117.1033422581733
 30
0.0
 11
152.12152766040981
 21
270.60334225815058
 31
0.0
  0
LINE
  5
45C7
  8
0
 10
132.12152766040981
 20
117.1033422581736
 30
0.0
 11
132.12152766040981
 21
270.6033422581508
 31
0.0
  0
LINE
  5
45C8
  8
3
 10
133.4745276604099
 20
117.1033422581736
 30
0.0
 11
133.4745276604099
 21
271.95634225815093
 31
0.0
  0
ARC
  5
45C9
  8
0
 10
149.62152766041021
 20
95.152008349909664
 30
0.0
 40
21.662658773668529
 50
69.743841999602324
 51
110.2561580003977
  0
LINE
  5
45CA
  8
0
 10
156.6215276604089
 20
117.1033422581736
 30
0.0
 11
157.12152766040981
 21
116.8146671235781
 31
0.0
  0
LINE
  5
45CB
  8
0
 10
156.6215276604089
 20
101.103342258174
 30
0.0
 11
157.12152766040981
 21
101.3920173927695
 31
0.0
  0
ARC
  5
45CC
  8
0
 10
149.62152766041021
 20
123.0546761664377
 30
0.0
 40
21.662658773668529
 50
249.7438419996023
 51
290.25615800039759
  0
LINE
  5
45CD
  8
0
 10
157.12152766041021
 20
116.8146671235781
 30
0.0
 11
157.12152766040981
 21
101.3920173927695
 31
0.0
  0
LINE
  5
45CE
  8
0
 10
127.12152766041019
 20
116.8146671235781
 30
0.0
 11
127.12152766041071
 21
101.3920173927695
 31
0.0
  0
ARC
  5
45CF
  8
0
 10
134.62152766041021
 20
123.0546761664377
 30
0.0
 40
21.662658773668529
 50
249.7438419996023
 51
290.25615800039759
  0
LINE
  5
45D0
  8
0
 10
127.6215276604116
 20
101.103342258174
 30
0.0
 11
127.12152766041071
 21
101.3920173927695
 31
0.0
  0
LINE
  5
45D1
  8
0
 10
127.6215276604116
 20
117.1033422581736
 30
0.0
 11
127.12152766041071
 21
116.8146671235781
 31
0.0
  0
ARC
  5
45D2
  8
0
 10
134.62152766041021
 20
95.152008349909664
 30
0.0
 40
21.662658773668529
 50
69.743841999602324
 51
110.2561580003977
  0
LINE
  5
45D3
  8
0
 10
127.6215276604116
 20
117.1033422581736
 30
0.0
 11
156.6215276604089
 21
117.1033422581736
 31
0.0
  0
LINE
  5
45D4
  8
0
 10
156.62152766041009
 20
101.103342258174
 30
0.0
 11
127.6215276604116
 21
101.103342258174
 31
0.0
  0
LINE
  5
45D5
  8
0
 10
142.12152766041009
 20
115.4749211614234
 30
0.0
 11
142.12152766041009
 21
102.7317633549191
 31
0.0
  0
ARC
  5
45D6
  8
0
 10
142.1215276604066
 20
49.773608439348429
 30
0.0
 40
12.25
 50
31.112020819732091
 51
46.120122896761067
  0
LINE
  5
45D7
  8
1
 10
50.937724943094949
 20
278.10334225815092
 30
0.0
 11
50.937724943094949
 21
24.103342258150398
 31
0.0
  0
LINE
  5
45D8
  8
1
 10
142.12152766040981
 20
278.10334225815092
 30
0.0
 11
142.12152766040981
 21
24.103342258150398
 31
0.0
  0
ARC
  5
474E
  8
0
 10
50.93772494309178
 20
49.773608439348429
 30
0.0
 40
12.25
 50
31.112020819732049
 51
46.120122896761131
  0
ARC
  5
474F
  8
0
 10
50.93772494309178
 20
49.773608439348429
 30
0.0
 40
12.25
 50
133.87987710305001
 51
148.88797918026791
  0
LINE
  5
4750
  8
0
 10
59.437724943094949
 20
58.603342258098557
 30
0.0
 11
42.437724943094949
 21
58.603342258126752
 31
0.0
  0
ARC
  5
4751
  8
0
 10
22.93772494309497
 20
40.970961500212532
 30
0.0
 40
2.0
 50
120.9637565320735
 51
180.0000000000004
  0
ARC
  5
4752
  8
0
 10
27.93772494309497
 20
45.970961500212532
 30
0.0
 40
2.0
 50
120.9637565320738
 51
180.0
  0
ARC
  5
4753
  8
0
 10
32.93772494309497
 20
50.74927633529682
 30
0.0
 40
2.0
 50
111.8014094863517
 51
180.0000000000008
  0
ARC
  5
4754
  8
0
 10
37.93772494309497
 20
54.10334225815086
 30
0.0
 40
2.0
 50
90.0
 51
179.9999999999992
  0
LINE
  5
4755
  8
0
 10
25.93772494309496
 20
45.103342258150633
 30
0.0
 11
21.908733432239838
 21
42.685947351637651
 31
0.0
  0
LINE
  5
4756
  8
0
 10
35.93772494309497
 20
54.103342258150633
 30
0.0
 11
35.93772494309497
 21
54.10334225815086
 31
0.0
  0
LINE
  5
4757
  8
0
 10
35.93772494309497
 20
54.103342258150633
 30
0.0
 11
32.194943590386629
 21
52.606229717067443
 31
0.0
  0
LINE
  5
4758
  8
0
 10
30.93772494309496
 20
50.103342258150633
 30
0.0
 11
26.908733432239838
 21
47.685947351637651
 31
0.0
  0
LINE
  5
4759
  8
0
 10
25.93772494309496
 20
45.103342258150633
 30
0.0
 11
25.93772494309496
 21
45.970961500212532
 31
0.0
  0
LINE
  5
475A
  8
0
 10
30.93772494309496
 20
50.103342258150633
 30
0.0
 11
30.93772494309496
 21
50.74927633529682
 31
0.0
  0
LINE
  5
475B
  8
0
 10
21.43772494309496
 20
29.103342258150629
 30
0.0
 11
21.43772494309496
 21
32.10334225815086
 31
0.0
  0
LINE
  5
475C
  8
0
 10
20.93772494309496
 20
32.60334225815086
 30
0.0
 11
20.93772494309496
 21
40.970961500212532
 31
0.0
  0
LINE
  5
475D
  8
0
 10
20.93772494309496
 20
32.60334225815086
 30
0.0
 11
21.43772494309496
 21
32.10334225815086
 31
0.0
  0
LINE
  5
475E
  8
0
 10
80.937724943094508
 20
32.60334225815086
 30
0.0
 11
80.437724943094494
 21
32.10334225815086
 31
0.0
  0
LINE
  5
475F
  8
0
 10
80.937724943094508
 20
32.60334225815086
 30
0.0
 11
80.937724943094949
 21
40.970961500212532
 31
0.0
  0
LINE
  5
4760
  8
0
 10
21.43772494309496
 20
32.10334225815086
 30
0.0
 11
80.437724943094494
 21
32.10334225815086
 31
0.0
  0
LINE
  5
4761
  8
0
 10
21.43772494309496
 20
29.10334225815086
 30
0.0
 11
80.437724943094494
 21
29.103342258150629
 31
0.0
  0
LINE
  5
4762
  8
0
 10
80.437724943094494
 20
29.103342258150629
 30
0.0
 11
80.437724943094494
 21
32.10334225815086
 31
0.0
  0
LINE
  5
4763
  8
0
 10
25.937724943094949
 20
45.10334225815086
 30
0.0
 11
75.937724943094508
 21
45.103342258150633
 31
0.0
  0
LINE
  5
4764
  8
0
 10
30.93772494309496
 20
50.10334225815086
 30
0.0
 11
70.937724943094949
 21
50.103342258150633
 31
0.0
  0
LINE
  5
4765
  8
0
 10
35.93772494309497
 20
54.10334225815086
 30
0.0
 11
65.937724943094508
 21
54.10334225815086
 31
0.0
  0
LINE
  5
4766
  8
0
 10
70.937724943094949
 20
50.103342258150633
 30
0.0
 11
70.937724943094508
 21
50.74927633529682
 31
0.0
  0
LINE
  5
4767
  8
0
 10
75.937724943094508
 20
45.103342258150633
 30
0.0
 11
75.937724943094508
 21
45.970961500212532
 31
0.0
  0
LINE
  5
4768
  8
0
 10
70.937724943094949
 20
50.103342258150633
 30
0.0
 11
74.96671645394963
 21
47.685947351637651
 31
0.0
  0
LINE
  5
4769
  8
0
 10
65.937724943094963
 20
54.103342258150633
 30
0.0
 11
69.680506295802843
 21
52.606229717067443
 31
0.0
  0
LINE
  5
476A
  8
0
 10
37.93772494309497
 20
56.10334225815086
 30
0.0
 11
63.937724943094949
 21
56.10334225815086
 31
0.0
  0
LINE
  5
476B
  8
0
 10
65.937724943094963
 20
54.103342258150633
 30
0.0
 11
65.937724943094963
 21
54.10334225815086
 31
0.0
  0
LINE
  5
476C
  8
0
 10
75.937724943094508
 20
45.103342258150633
 30
0.0
 11
79.96671645394963
 21
42.685947351637651
 31
0.0
  0
ARC
  5
476D
  8
0
 10
63.937724943094949
 20
54.10334225815086
 30
0.0
 40
2.0
 50
0.0000000000008142
 51
90.0
  0
ARC
  5
476E
  8
0
 10
68.937724943094508
 20
50.74927633529682
 30
0.0
 40
2.0
 50
359.9999999999992
 51
68.198590513648185
  0
ARC
  5
476F
  8
0
 10
73.937724943094508
 20
45.970961500212532
 30
0.0
 40
2.0
 50
0.0
 51
59.036243467926127
  0
ARC
  5
4770
  8
0
 10
78.937724943094935
 20
40.970961500212532
 30
0.0
 40
2.0
 50
359.9999999999996
 51
59.036243467926582
  0
TEXT
  5
4A28
  8
0
 62
     3
 10
0.0
 20
0.0
 30
0.0
 40
10.0
  1
LVER60L20D
  7
STANDARD1
  0
ENDSEC
  0
EOF
