  0
SECTION
  2
HEADER
  9
$ACADVER
  1
AC1009
  9
$INSBASE
 10
0.0
 20
0.0
 30
0.0
  9
$EXTMIN
 10
0.0
 20
-2.960436562073669
 30
0.0
  9
$EXTMAX
 10
171.16112194778711
 20
257.95016695301979
 30
0.0
  9
$LIMMIN
 10
0.0
 20
0.0
  9
$LIMMAX
 10
375.0
 20
270.0
  9
$ORTHOMODE
 70
     1
  9
$REGENMODE
 70
     1
  9
$FILLMODE
 70
     1
  9
$QTEXTMODE
 70
     0
  9
$MIRRTEXT
 70
     0
  9
$DRAGMODE
 70
     2
  9
$LTSCALE
 40
6.0
  9
$OSMODE
 70
    37
  9
$ATTMODE
 70
     1
  9
$TEXTSIZE
 40
0.2
  9
$TRACEWID
 40
0.05
  9
$TEXTSTYLE
  7
STANDARD
  9
$CLAYER
  8
0
  9
$CELTYPE
  6
BYLAYER
  9
$CECOLOR
 62
   256
  9
$DIMSCALE
 40
1.0
  9
$DIMASZ
 40
3.0
  9
$DIMEXO
 40
1.0
  9
$DIMDLI
 40
6.0
  9
$DIMRND
 40
0.0
  9
$DIMDLE
 40
0.0
  9
$DIMEXE
 40
1.0
  9
$DIMTP
 40
495.0
  9
$DIMTM
 40
0.0
  9
$DIMTXT
 40
3.0
  9
$DIMCEN
 40
0.0
  9
$DIMTSZ
 40
0.0
  9
$DIMTOL
 70
     0
  9
$DIMLIM
 70
     0
  9
$DIMTIH
 70
     0
  9
$DIMTOH
 70
     0
  9
$DIMSE1
 70
     0
  9
$DIMSE2
 70
     0
  9
$DIMTAD
 70
     1
  9
$DIMZIN
 70
     0
  9
$DIMBLK
  1

  9
$DIMASO
 70
     0
  9
$DIMSHO
 70
     0
  9
$DIMPOST
  1

  9
$DIMAPOST
  1

  9
$DIMALT
 70
     0
  9
$DIMALTD
 70
     2
  9
$DIMALTF
 40
25.399999999999999
  9
$DIMLFAC
 40
1.0
  9
$DIMTOFL
 70
     1
  9
$DIMTVP
 40
0.0
  9
$DIMTIX
 70
     1
  9
$DIMSOXD
 70
     0
  9
$DIMSAH
 70
     0
  9
$DIMBLK1
  1

  9
$DIMBLK2
  1

  9
$DIMSTYLE
  2
STANDARD
  9
$DIMCLRD
 70
     0
  9
$DIMCLRE
 70
     0
  9
$DIMCLRT
 70
     4
  9
$DIMTFAC
 40
1.0
  9
$DIMGAP
 40
1.0
  9
$LUNITS
 70
     2
  9
$LUPREC
 70
     4
  9
$SKETCHINC
 40
0.1
  9
$FILLETRAD
 40
2.0
  9
$AUNITS
 70
     0
  9
$AUPREC
 70
     0
  9
$MENU
  1
C:\R13\WIN\SUPPORT\ACAD-I
  9
$ELEVATION
 40
0.0
  9
$PELEVATION
 40
0.0
  9
$THICKNESS
 40
0.0
  9
$LIMCHECK
 70
     0
  9
$BLIPMODE
 70
     0
  9
$CHAMFERA
 40
0.0
  9
$CHAMFERB
 40
0.0
  9
$SKPOLY
 70
     0
  9
$TDCREATE
 40
2451962.418678727
  9
$TDUPDATE
 40
2456598.722098588
  9
$TDINDWG
 40
0.1493480671
  9
$TDUSRTIMER
 40
2456598.0664077541
  9
$USRTIMER
 70
     1
  9
$ANGBASE
 50
0.0
  9
$ANGDIR
 70
     0
  9
$PDMODE
 70
     0
  9
$PDSIZE
 40
0.0
  9
$PLINEWID
 40
0.0
  9
$COORDS
 70
     1
  9
$SPLFRAME
 70
     0
  9
$SPLINETYPE
 70
     6
  9
$SPLINESEGS
 70
     8
  9
$ATTDIA
 70
     0
  9
$ATTREQ
 70
     1
  9
$HANDLING
 70
     1
  9
$HANDSEED
  5
4CC3
  9
$SURFTAB1
 70
     6
  9
$SURFTAB2
 70
     6
  9
$SURFTYPE
 70
     6
  9
$SURFU
 70
     6
  9
$SURFV
 70
     6
  9
$UCSNAME
  2

  9
$UCSORG
 10
0.0
 20
0.0
 30
0.0
  9
$UCSXDIR
 10
1.0
 20
0.0
 30
0.0
  9
$UCSYDIR
 10
0.0
 20
1.0
 30
0.0
  9
$PUCSNAME
  2

  9
$PUCSORG
 10
0.0
 20
0.0
 30
0.0
  9
$PUCSXDIR
 10
1.0
 20
0.0
 30
0.0
  9
$PUCSYDIR
 10
0.0
 20
1.0
 30
0.0
  9
$USERI1
 70
     4
  9
$USERI2
 70
     1
  9
$USERI3
 70
     0
  9
$USERI4
 70
     0
  9
$USERI5
 70
     0
  9
$USERR1
 40
1.0
  9
$USERR2
 40
3.0
  9
$USERR3
 40
3.0
  9
$USERR4
 40
3.0
  9
$USERR5
 40
10.0
  9
$WORLDVIEW
 70
     1
  9
$SHADEDGE
 70
     3
  9
$SHADEDIF
 70
    70
  9
$TILEMODE
 70
     1
  9
$MAXACTVP
 70
    16
  9
$PLIMCHECK
 70
     0
  9
$PEXTMIN
 10
1.0000000000000000E+020
 20
1.0000000000000000E+020
 30
1.0000000000000000E+020
  9
$PEXTMAX
 10
-1.0000000000000000E+020
 20
-1.0000000000000000E+020
 30
-1.0000000000000000E+020
  9
$PLIMMIN
 10
0.0
 20
0.0
  9
$PLIMMAX
 10
12.0
 20
9.0
  9
$UNITMODE
 70
     0
  9
$VISRETAIN
 70
     0
  9
$PLINEGEN
 70
     0
  9
$PSLTSCALE
 70
     0
  0
ENDSEC
  0
SECTION
  2
TABLES
  0
TABLE
  2
VPORT
 70
     1
  0
VPORT
  2
*ACTIVE
 70
     0
 10
0.0
 20
0.0
 11
1.0
 21
1.0
 12
187.49427839065231
 22
177.52205812711131
 13
0.0
 23
0.0
 14
10.0
 24
10.0
 15
10.0
 25
10.0
 16
0.0
 26
0.0
 36
1.0
 17
0.0
 27
0.0
 37
0.0
 40
364.13085016302909
 41
1.755244755244755
 42
50.0
 43
0.0
 44
0.0
 50
0.0
 51
0.0
 71
    16
 72
   100
 73
     1
 74
     0
 75
     0
 76
     0
 77
     0
 78
     0
  0
ENDTAB
  0
TABLE
  2
LTYPE
 70
     3
  0
LTYPE
  2
CONTINUOUS
 70
     0
  3
Solid Line
 72
    65
 73
     0
 40
0.0
  0
LTYPE
  2
PHANTOM2
 70
     0
  3
___ _ _ ___ _ _ ___ _ _ ___ _ _
 72
    65
 73
     6
 40
1.25
 49
0.625
 49
-0.125
 49
0.125
 49
-0.125
 49
0.125
 49
-0.125
  0
LTYPE
  2
CENTER
 70
     0
  3
____ _ ____ _ ____ _ ____ _ ____ _ ____ _ ____
 72
    65
 73
     4
 40
2.0
 49
1.25
 49
-0.25
 49
0.25
 49
-0.25
  0
ENDTAB
  0
TABLE
  2
LAYER
 70
     3
  0
LAYER
  2
0
 70
     0
 62
     7
  6
CONTINUOUS
  0
LAYER
  2
1
 70
     0
 62
     1
  6
CENTER
  0
LAYER
  2
3
 70
     0
 62
     3
  6
CONTINUOUS
  0
ENDTAB
  0
TABLE
  2
STYLE
 70
     3
  0
STYLE
  2
STANDARD
 70
     0
 40
0.0
 41
1.0
 50
0.0
 71
     0
 42
0.2
  3
SIMPLEX
  4
BIGFONT
  0
STYLE
  2
ANNOTATIVE
 70
     0
 40
0.0
 41
1.0
 50
0.0
 71
     0
 42
0.2
  3
txt
  4

  0
STYLE
  2
STANDARD1
 70
     0
 40
0.0
 41
1.0
 50
0.0
 71
     0
 42
3.0
  3
txt
  4

  0
ENDTAB
  0
TABLE
  2
VIEW
 70
     0
  0
ENDTAB
  0
TABLE
  2
UCS
 70
     0
  0
ENDTAB
  0
TABLE
  2
APPID
 70
    29
  0
APPID
  2
ACAD
 70
     0
  0
APPID
  2
ACADANNOTATIVE
 70
     0
  0
APPID
  2
GENIUS_GENOREF_13
 70
     0
  0
APPID
  2
GENIUS_GENOENT_13
 70
     0
  0
APPID
  2
GENIUS_GENBH_13
 70
     0
  0
APPID
  2
GENIUS_GENOBJ_13
 70
     0
  0
APPID
  2
GENIUS_GENODEF_13
 70
     0
  0
APPID
  2
GENIUS_GENOLIS_13
 70
     0
  0
APPID
  2
GENIUS_GENOBJ-NBEHI-BHF_13
 70
     0
  0
APPID
  2
GENIUS_GENOBJ-NBEHI-BHB_13
 70
     0
  0
APPID
  2
GENIUS_GENOBJ-F-PART_13
 70
     0
  0
APPID
  2
GENIUS_GEFSTDP_13
 70
     0
  0
APPID
  2
GENIUS_GENOBJ-N-RSSYM_13
 70
     0
  0
APPID
  2
GENIUS_GENSYMENT_13
 70
     0
  0
APPID
  2
GENIUS_GENOBJ-N-TIT_13
 70
     0
  0
APPID
  2
GENIUS_GENTITLE_13
 70
     0
  0
APPID
  2
GENIUS_GENZVEED_13
 70
     0
  0
APPID
  2
GENIUS_GENOBJ-N-LEADER_13
 70
     0
  0
APPID
  2
GENIUS_GENOBJ-N-FIL_13
 70
     0
  0
APPID
  2
GENIUS_GENOBJ-N-SEC_13
 70
     0
  0
APPID
  2
GENIUS_GENOBJ-N-CRS_13
 70
     0
  0
APPID
  2
GENIUS_GENOBJ-N-ZOO_13
 70
     0
  0
APPID
  2
GENIUS_GENZOO_13
 70
     0
  0
APPID
  2
GENIUS_GENOBJ-F-TOL_13
 70
     0
  0
APPID
  2
GENIUS_GENFIL_13
 70
     0
  0
APPID
  2
GENIUS_GENOBJ-N-CHA_13
 70
     0
  0
APPID
  2
ACAD_EXEMPT_FROM_CAD_STANDARDS
 70
     0
  0
APPID
  2
ACAD_MLEADERVER
 70
     0
  0
APPID
  2
ACAD_NAV_VCDISPLAY
 70
     0
  0
ENDTAB
  0
TABLE
  2
DIMSTYLE
 70
     2
  0
DIMSTYLE
  2
STANDARD
 70
     0
  3

  4

  5

  6

  7

 40
1.0
 41
0.18
 42
0.0625
 43
0.38
 44
0.18
 45
0.0
 46
0.0
 47
0.0
 48
0.0
140
0.18
141
0.09
142
0.0
143
25.399999999999999
144
1.0
145
0.0
146
1.0
147
0.09
 71
     0
 72
     0
 73
     1
 74
     1
 75
     0
 76
     0
 77
     0
 78
     0
170
     0
171
     2
172
     0
173
     0
174
     0
175
     0
176
     0
177
     0
178
     0
  0
DIMSTYLE
  2
ANNOTATIVE
 70
     0
  3

  4

  5

  6

  7

 40
1.0
 41
0.18
 42
0.0625
 43
0.38
 44
0.18
 45
0.0
 46
0.0
 47
0.0
 48
0.0
140
0.18
141
0.09
142
0.0
143
25.399999999999999
144
1.0
145
0.0
146
1.0
147
0.09
 71
     0
 72
     0
 73
     1
 74
     1
 75
     0
 76
     0
 77
     0
 78
     0
170
     0
171
     2
172
     0
173
     0
174
     0
175
     0
176
     0
177
     0
178
     0
  0
ENDTAB
  0
ENDSEC
  0
SECTION
  2
BLOCKS
  0
BLOCK
  8
0
  2
$MODEL_SPACE
 70
     0
 10
0.0
 20
0.0
 30
0.0
  3
$MODEL_SPACE
  1

  0
ENDBLK
  5
4B8A
  8
0
  0
BLOCK
 67
     1
  8
0
  2
$PAPER_SPACE
 70
     0
 10
0.0
 20
0.0
 30
0.0
  3
$PAPER_SPACE
  1

  0
ENDBLK
  5
4B86
 67
     1
  8
0
  0
ENDSEC
  0
SECTION
  2
ENTITIES
  0
ARC
  5
46AA
  8
0
 10
49.97731923047354
 20
222.9501669530197
 30
0.0
 40
20.00000000000006
 50
244.1580671405429
 51
295.84193285945707
  0
ARC
  5
46AB
  8
0
 10
49.97731923047354
 20
222.9501669530197
 30
0.0
 40
20.00000000000006
 50
304.1580671405311
 51
355.84193285948948
  0
ARC
  5
46AC
  8
0
 10
49.97731923047354
 20
222.9501669530197
 30
0.0
 40
20.00000000000006
 50
124.1580671405104
 51
175.84193285951039
  0
ARC
  5
46AD
  8
0
 10
49.97731923047354
 20
222.9501669530197
 30
0.0
 40
20.00000000000006
 50
64.158067140505921
 51
115.84193285949399
  0
ARC
  5
46AE
  8
0
 10
49.97731923047354
 20
222.9501669530197
 30
0.0
 40
20.00000000000006
 50
184.15806714057121
 51
235.8419328594828
  0
CIRCLE
  5
46AF
  8
3
 10
49.97731923047354
 20
222.9501669530197
 30
0.0
 40
10.375999999999999
  0
CIRCLE
  5
46B0
  8
0
 10
49.97731923047354
 20
222.9501669530197
 30
0.0
 40
12.0
  0
CIRCLE
  5
46B1
  8
0
 10
49.97731923047354
 20
222.9501669530197
 30
0.0
 40
17.0
  0
LINE
  5
46B2
  8
0
 10
60.369624067433612
 20
204.95016696767081
 30
0.0
 11
39.58501437660847
 21
204.95016696767081
 31
0.0
  0
LINE
  5
46B3
  8
0
 10
39.585014393515962
 20
204.95016696768539
 30
0.0
 11
29.192709548099732
 21
222.9501669676709
 31
0.0
  0
LINE
  5
46B4
  8
0
 10
29.192709556572598
 20
222.95016695301709
 30
0.0
 11
39.585014401981532
 21
240.950166953017
 31
0.0
  0
LINE
  5
46B5
  8
0
 10
39.585014393526869
 20
240.95016693836331
 30
0.0
 11
60.369624084352033
 21
240.95016693836331
 31
0.0
  0
LINE
  5
46B6
  8
0
 10
60.369624067431793
 20
240.95016693836331
 30
0.0
 11
70.76192891284802
 21
222.9501669383632
 31
0.0
  0
LINE
  5
46B7
  8
0
 10
70.761928904375168
 20
222.95016695301709
 30
0.0
 11
60.369624058966217
 21
204.950166953017
 31
0.0
  0
ARC
  5
46B9
  8
0
 10
141.16112194778711
 20
48.571020213200647
 30
0.0
 40
12.25
 50
31.065080896358221
 51
46.062160114254233
  0
ARC
  5
46BA
  8
0
 10
141.16112194778711
 20
48.571020213200647
 30
0.0
 40
12.25
 50
133.93783988574569
 51
148.93491910364179
  0
LINE
  5
46BB
  8
0
 10
132.66112194778711
 20
63.603484460807039
 30
0.0
 11
132.66112194778711
 21
57.39215959538911
 31
0.0
  0
LINE
  5
46BC
  8
0
 10
149.66112194778711
 20
63.603484460807039
 30
0.0
 11
149.66112194778711
 21
57.392159595389089
 31
0.0
  0
LINE
  5
46BD
  8
0
 10
132.16112194778711
 20
171.8921595954468
 30
0.0
 11
150.16112194778711
 21
171.8921595954464
 31
0.0
  0
LINE
  5
46BE
  8
0
 10
153.16112194778711
 20
73.603484460803401
 30
0.0
 11
153.16112194778711
 21
97.892159595446373
 31
0.0
  0
LINE
  5
46BF
  8
3
 10
151.53712194778711
 20
78.892159595446401
 30
0.0
 11
151.53712194778711
 21
97.892159595445932
 31
0.0
  0
LINE
  5
46C0
  8
3
 10
130.7851219477871
 20
78.892159595446401
 30
0.0
 11
130.7851219477871
 21
97.892159595446373
 31
0.0
  0
LINE
  5
46C1
  8
0
 10
129.16112194778711
 20
73.603484460741186
 30
0.0
 11
129.16112194778711
 21
97.892159595446373
 31
0.0
  0
LINE
  5
46C2
  8
0
 10
129.16112194778711
 20
168.8921595954468
 30
0.0
 11
132.16112194778711
 21
171.8921595954468
 31
0.0
  0
LINE
  5
46C3
  8
0
 10
150.16112194778711
 20
171.8921595954464
 30
0.0
 11
153.16112194778711
 21
168.8921595954464
 31
0.0
  0
LINE
  5
46C4
  8
0
 10
129.16112194778711
 20
168.8921595954468
 30
0.0
 11
153.16112194778711
 21
168.8921595954464
 31
0.0
  0
LINE
  5
46C5
  8
0
 10
153.16112194778711
 20
78.892159595446401
 30
0.0
 11
129.16112194778711
 21
78.892159595446401
 31
0.0
  0
LINE
  5
46C6
  8
3
 10
130.7851219477871
 20
78.892159595446401
 30
0.0
 11
129.16112194778711
 21
76.079309083954513
 31
0.0
  0
LINE
  5
46C7
  8
3
 10
151.53712194778711
 20
78.892159595446401
 30
0.0
 11
153.16112194778711
 21
76.079309083954513
 31
0.0
  0
LINE
  5
46C8
  8
0
 10
152.66112194773319
 20
63.892159595429341
 30
0.0
 11
129.6611219479488
 21
63.892159595429341
 31
0.0
  0
LINE
  5
46C9
  8
0
 10
129.661121947841
 20
73.892159595429334
 30
0.0
 11
152.66112194773319
 21
73.892159595429334
 31
0.0
  0
ARC
  5
46CA
  8
0
 10
151.5534267932544
 20
67.46950986514365
 30
0.0
 40
6.1339745957208196
 50
64.384247469840375
 51
124.3842474712085
  0
LINE
  5
46CB
  8
0
 10
155.01752840841399
 20
72.531687691035117
 30
0.0
 11
152.66112194773319
 21
73.892159595429334
 31
0.0
  0
LINE
  5
46CC
  8
0
 10
155.01752840841399
 20
65.252631499823551
 30
0.0
 11
152.66112194773319
 21
63.892159595429341
 31
0.0
  0
ARC
  5
46CD
  8
0
 10
151.5534267932544
 20
70.314809325715004
 30
0.0
 40
6.1339745957208196
 50
235.6157525287887
 51
295.61575253015968
  0
LINE
  5
46CE
  8
0
 10
155.0175284083922
 20
72.531687691035117
 30
0.0
 11
155.0175284083922
 21
65.252631499810818
 31
0.0
  0
LINE
  5
46CF
  8
0
 10
148.08932517811641
 20
72.531687691035117
 30
0.0
 11
148.08932517811641
 21
65.252631499823551
 31
0.0
  0
LINE
  5
46D0
  8
0
 10
134.2329187175655
 20
72.531687691035117
 30
0.0
 11
134.2329187175655
 21
65.252631499823551
 31
0.0
  0
LINE
  5
46D1
  8
0
 10
127.3047154872898
 20
72.531687691035117
 30
0.0
 11
127.3047154872898
 21
65.252631499810818
 31
0.0
  0
ARC
  5
46D2
  8
0
 10
141.161121947841
 20
87.10903795813374
 30
0.0
 40
22.928203228139491
 50
252.412046224314
 51
287.58795377568589
  0
ARC
  5
46D3
  8
0
 10
130.76881710242751
 20
70.314809325715004
 30
0.0
 40
6.1339745957208196
 50
244.38424746984029
 51
304.38424747121132
  0
LINE
  5
46D4
  8
0
 10
127.304715487268
 20
65.252631499823551
 30
0.0
 11
129.6611219479488
 21
63.892159595429341
 31
0.0
  0
LINE
  5
46D5
  8
0
 10
127.304715487268
 20
72.531687691035117
 30
0.0
 11
129.6611219479488
 21
73.892159595429334
 31
0.0
  0
ARC
  5
46D6
  8
0
 10
130.76881710242751
 20
67.46950986514365
 30
0.0
 40
6.1339745957208196
 50
55.61575252879134
 51
115.6157525301594
  0
ARC
  5
46D7
  8
0
 10
141.161121947841
 20
50.675281232724942
 30
0.0
 40
22.928203228139491
 50
72.412046224314111
 51
107.5879537756858
  0
LINE
  5
46D8
  8
0
 10
132.66112194778711
 20
57.392159595389103
 30
0.0
 11
149.66112194778711
 21
57.392159595389103
 31
0.0
  0
LINE
  5
46D9
  8
0
 10
123.1611219624379
 20
116.31480933471499
 30
0.0
 11
123.1611219624379
 21
98.469509856177197
 31
0.0
  0
LINE
  5
46DA
  8
0
 10
124.16112194778719
 20
116.8921595954459
 30
0.0
 11
123.1611219624379
 21
116.31480933471499
 31
0.0
  0
ARC
  5
46DB
  8
0
 10
132.16112195511241
 20
90.319618827403005
 30
0.0
 40
25.995190507312159
 50
69.743841999652673
 51
110.2561580003473
  0
ARC
  5
46DC
  8
0
 10
132.16112195511241
 20
124.4647003634893
 30
0.0
 40
25.995190507312159
 50
249.74384199965269
 51
290.25615800034728
  0
LINE
  5
46DD
  8
0
 10
124.16112194778719
 20
97.892159595445932
 30
0.0
 11
123.1611219624379
 21
98.469509856177197
 31
0.0
  0
LINE
  5
46DE
  8
0
 10
158.1611219477868
 20
97.892159595445932
 30
0.0
 11
159.16112193313609
 21
98.469509856177197
 31
0.0
  0
ARC
  5
46DF
  8
0
 10
150.16112194046161
 20
124.4647003634893
 30
0.0
 40
25.995190507312159
 50
249.74384199965269
 51
290.25615800034728
  0
ARC
  5
46E0
  8
0
 10
150.16112194046161
 20
90.319618827403005
 30
0.0
 40
25.995190507312159
 50
69.743841999652673
 51
110.2561580003473
  0
LINE
  5
46E1
  8
0
 10
158.1611219477868
 20
116.8921595954459
 30
0.0
 11
159.16112193313609
 21
116.31480933471499
 31
0.0
  0
LINE
  5
46E2
  8
0
 10
124.16112194778719
 20
116.8921595954459
 30
0.0
 11
158.16112194778691
 21
116.8921595954459
 31
0.0
  0
LINE
  5
46E3
  8
0
 10
159.16112193313609
 20
116.31480933471499
 30
0.0
 11
159.16112193313609
 21
98.469509856177197
 31
0.0
  0
LINE
  5
46E4
  8
0
 10
124.16112194778719
 20
97.892159595445932
 30
0.0
 11
158.16112194778691
 21
97.892159595445932
 31
0.0
  0
LINE
  5
46E5
  8
0
 10
141.161121947787
 20
114.7071141814428
 30
0.0
 11
141.161121947787
 21
100.0772050094499
 31
0.0
  0
LINE
  5
46E6
  8
0
 10
153.16112194778711
 20
116.8921595954459
 30
0.0
 11
153.16112194778711
 21
168.8921595954464
 31
0.0
  0
LINE
  5
46E7
  8
3
 10
151.53712194778711
 20
116.8921595954459
 30
0.0
 11
151.53712194778711
 21
170.5161595954466
 31
0.0
  0
LINE
  5
46E8
  8
0
 10
129.16112194778711
 20
116.8921595954459
 30
0.0
 11
129.16112194778711
 21
168.8921595954468
 31
0.0
  0
LINE
  5
46E9
  8
3
 10
130.7851219477871
 20
116.8921595954459
 30
0.0
 11
130.7851219477871
 21
170.5161595954466
 31
0.0
  0
LINE
  5
46EA
  8
3
 10
60.353319230472479
 20
78.892159595445932
 30
0.0
 11
61.97731923047246
 21
76.079309083954072
 31
0.0
  0
LINE
  5
46EB
  8
3
 10
39.601319230472548
 20
78.892159595445932
 30
0.0
 11
37.977319230472531
 21
76.079309083954072
 31
0.0
  0
LINE
  5
46EC
  8
0
 10
61.977319230472517
 20
78.892159595445932
 30
0.0
 11
37.977319230472531
 21
78.892159595445932
 31
0.0
  0
LINE
  5
46ED
  8
0
 10
37.977319230472531
 20
168.8921595954468
 30
0.0
 11
61.977319230472517
 21
168.89215959544589
 31
0.0
  0
LINE
  5
46EE
  8
0
 10
58.977319230472531
 20
171.89215959544589
 30
0.0
 11
61.977319230472517
 21
168.89215959544589
 31
0.0
  0
LINE
  5
46EF
  8
0
 10
37.977319230472531
 20
168.8921595954468
 30
0.0
 11
40.97731923047251
 21
171.8921595954464
 31
0.0
  0
LINE
  5
46F0
  8
0
 10
37.977319230490721
 20
73.603484460842765
 30
0.0
 11
37.977319230472531
 21
97.892159595445932
 31
0.0
  0
LINE
  5
46F1
  8
3
 10
39.601319230472548
 20
78.892159595445932
 30
0.0
 11
39.601319230472548
 21
97.892159595445932
 31
0.0
  0
LINE
  5
46F2
  8
3
 10
60.353319230472479
 20
78.892159595445932
 30
0.0
 11
60.353319230472479
 21
97.892159595445932
 31
0.0
  0
LINE
  5
46F3
  8
0
 10
61.977319230520713
 20
73.603484460842765
 30
0.0
 11
61.977319230472517
 21
97.892159595445932
 31
0.0
  0
LINE
  5
46F4
  8
0
 10
40.97731923047251
 20
171.8921595954464
 30
0.0
 11
58.977319230472531
 21
171.89215959544589
 31
0.0
  0
LINE
  5
46F5
  8
0
 10
58.477319230472517
 20
63.892159595388648
 30
0.0
 11
58.477319230472517
 21
57.392159595374999
 31
0.0
  0
LINE
  5
46F6
  8
0
 10
41.477319230472517
 20
63.892159595388648
 30
0.0
 11
41.477319230472517
 21
57.392159595403179
 31
0.0
  0
LINE
  5
46F7
  8
0
 10
61.477319230505707
 20
63.892159595369542
 30
0.0
 11
38.477319230439321
 21
63.89215959540774
 31
0.0
  0
LINE
  5
46F8
  8
0
 10
38.477319230439321
 20
73.892159595407733
 30
0.0
 11
61.477319230505707
 21
73.892159595446401
 31
0.0
  0
ARC
  5
46F9
  8
0
 10
43.977319230505699
 20
56.273357443509433
 30
0.0
 40
17.330127017333279
 50
69.74384199763081
 51
110.2561580023692
  0
LINE
  5
46FA
  8
0
 10
37.977319230490721
 20
73.603484460842765
 30
0.0
 11
38.477319230505721
 21
73.892159595446401
 31
0.0
  0
LINE
  5
46FB
  8
0
 10
37.977319230490721
 20
64.18083472997273
 30
0.0
 11
38.477319230505721
 21
63.892159595369542
 31
0.0
  0
ARC
  5
46FC
  8
0
 10
43.977319230505699
 20
81.510961747306055
 30
0.0
 40
17.330127017333279
 50
249.74384199763071
 51
290.2561580023692
  0
LINE
  5
46FD
  8
0
 10
37.977319230490721
 20
73.603484460842765
 30
0.0
 11
37.977319230505721
 21
64.180834729964545
 31
0.0
  0
LINE
  5
46FE
  8
0
 10
49.977319230505707
 20
65.252631499801964
 30
0.0
 11
49.977319230505707
 21
72.531687691013531
 31
0.0
  0
LINE
  5
46FF
  8
0
 10
61.977319230520713
 20
73.603484460842765
 30
0.0
 11
61.977319230505721
 21
64.180834729964545
 31
0.0
  0
ARC
  5
4700
  8
0
 10
55.977319230505699
 20
81.510961747306055
 30
0.0
 40
17.330127017333279
 50
249.74384199763071
 51
290.2561580023692
  0
LINE
  5
4701
  8
0
 10
61.977319230520713
 20
64.18083472997273
 30
0.0
 11
61.477319230505707
 21
63.892159595369542
 31
0.0
  0
LINE
  5
4702
  8
0
 10
61.977319230520713
 20
73.603484460842765
 30
0.0
 11
61.477319230505707
 21
73.892159595446401
 31
0.0
  0
ARC
  5
4703
  8
0
 10
55.977319230505699
 20
56.273357443509433
 30
0.0
 40
17.330127017333279
 50
69.74384199763081
 51
110.2561580023692
  0
LINE
  5
4706
  8
0
 10
70.761928904371672
 20
114.7071141814428
 30
0.0
 11
70.761928904371672
 21
100.0772050094494
 31
0.0
  0
LINE
  5
4707
  8
0
 10
66.977319230472432
 20
116.8921595954459
 30
0.0
 11
70.761928904371672
 21
114.7071141814428
 31
0.0
  0
ARC
  5
4708
  8
0
 10
65.565776485896734
 20
107.1138474478614
 30
0.0
 40
9.2009618868538041
 50
64.384247467930564
 51
124.384247467937
  0
ARC
  5
4709
  8
0
 10
65.565776485896734
 20
107.6704717430309
 30
0.0
 40
9.2009618868538041
 50
235.61575253206291
 51
295.61575253206951
  0
LINE
  5
470A
  8
0
 10
66.977319230472432
 20
97.892159595445932
 30
0.0
 11
70.761928904371672
 21
100.0772050094494
 31
0.0
  0
LINE
  5
470B
  8
0
 10
32.977319230472553
 20
97.892159595445932
 30
0.0
 11
29.192709556573359
 21
100.0772050094494
 31
0.0
  0
ARC
  5
470C
  8
0
 10
34.388861975048293
 20
107.6704717430309
 30
0.0
 40
9.2009618868538041
 50
244.38424746793069
 51
304.38424746793697
  0
ARC
  5
470D
  8
0
 10
49.977319230474471
 20
132.86181467369369
 30
0.0
 40
34.392304817516766
 50
252.41204622606821
 51
287.58795377393329
  0
ARC
  5
470E
  8
0
 10
34.388861975048293
 20
107.1138474478614
 30
0.0
 40
9.2009618868538041
 50
55.615752532062928
 51
115.61575253206939
  0
ARC
  5
470F
  8
0
 10
49.977319230474471
 20
81.922504517198135
 30
0.0
 40
34.392304817516766
 50
72.412046226066636
 51
107.58795377393329
  0
LINE
  5
4710
  8
0
 10
60.36962406742574
 20
114.7071141814428
 30
0.0
 11
60.36962406742574
 21
100.0772050094494
 31
0.0
  0
LINE
  5
4711
  8
0
 10
39.585014393523508
 20
114.7071141814428
 30
0.0
 11
39.585014393523508
 21
100.0772050094494
 31
0.0
  0
LINE
  5
4712
  8
0
 10
32.977319230472553
 20
116.8921595954459
 30
0.0
 11
29.192709556573359
 21
114.7071141814428
 31
0.0
  0
LINE
  5
4713
  8
0
 10
29.192709556573359
 20
114.7071141814428
 30
0.0
 11
29.192709556573359
 21
100.0772050094494
 31
0.0
  0
LINE
  5
4714
  8
0
 10
32.977319230472553
 20
97.892159595445932
 30
0.0
 11
66.977319230472489
 21
97.892159595445932
 31
0.0
  0
LINE
  5
4715
  8
0
 10
32.977319230472609
 20
116.8921595954459
 30
0.0
 11
66.977319230472432
 21
116.8921595954459
 31
0.0
  0
LINE
  5
4716
  8
0
 10
61.977319230472517
 20
116.8921595954459
 30
0.0
 11
61.977319230472517
 21
168.89215959544589
 31
0.0
  0
LINE
  5
4717
  8
3
 10
60.353319230472479
 20
116.8921595954459
 30
0.0
 11
60.353319230472479
 21
170.5161595954462
 31
0.0
  0
LINE
  5
4718
  8
3
 10
39.601319230472548
 20
116.8921595954459
 30
0.0
 11
39.601319230472548
 21
170.5161595954466
 31
0.0
  0
LINE
  5
4719
  8
0
 10
37.977319230472531
 20
116.8921595954459
 30
0.0
 11
37.977319230472531
 21
168.8921595954468
 31
0.0
  0
ARC
  5
473C
  8
0
 10
169.16112194778711
 20
39.759778837522163
 30
0.0
 40
2.0
 50
359.9999999999996
 51
59.036243467926127
  0
ARC
  5
473D
  8
0
 10
164.161121947787
 20
44.75977883752217
 30
0.0
 40
2.0
 50
0.0
 51
59.036243467926127
  0
ARC
  5
473E
  8
0
 10
159.161121947787
 20
49.538093672606252
 30
0.0
 40
2.0
 50
359.9999999999992
 51
68.198590513648568
  0
ARC
  5
473F
  8
0
 10
154.16112194778711
 20
52.892159595460491
 30
0.0
 40
2.0
 50
0.0000000000008142
 51
90.0
  0
LINE
  5
4740
  8
0
 10
166.161121947787
 20
43.892159595460051
 30
0.0
 11
170.19011345864209
 21
41.474764688947509
 31
0.0
  0
LINE
  5
4741
  8
0
 10
156.16112194778711
 20
52.892159595460029
 30
0.0
 11
156.16112194778711
 21
52.892159595460491
 31
0.0
  0
LINE
  5
4742
  8
0
 10
128.16112194778711
 20
54.892159595460491
 30
0.0
 11
154.16112194778711
 21
54.892159595460491
 31
0.0
  0
LINE
  5
4743
  8
0
 10
156.16112194778711
 20
52.892159595460029
 30
0.0
 11
159.90390330049519
 21
51.395047054377059
 31
0.0
  0
LINE
  5
4744
  8
0
 10
161.16112194778711
 20
48.892159595460051
 30
0.0
 11
165.19011345864209
 21
46.474764688947523
 31
0.0
  0
LINE
  5
4745
  8
0
 10
166.161121947787
 20
43.892159595460051
 30
0.0
 11
166.161121947787
 21
44.75977883752217
 31
0.0
  0
LINE
  5
4746
  8
0
 10
161.16112194778711
 20
48.892159595460051
 30
0.0
 11
161.161121947787
 21
49.538093672606252
 31
0.0
  0
LINE
  5
4747
  8
0
 10
126.16112194778709
 20
52.892159595460491
 30
0.0
 11
156.161121947787
 21
52.892159595460491
 31
0.0
  0
LINE
  5
4748
  8
0
 10
121.161121947787
 20
48.892159595460491
 30
0.0
 11
161.16112194778711
 21
48.892159595460051
 31
0.0
  0
LINE
  5
4749
  8
0
 10
116.16112194778719
 20
43.892159595460051
 30
0.0
 11
166.161121947787
 21
43.892159595460051
 31
0.0
  0
LINE
  5
474A
  8
0
 10
170.661121947787
 20
27.89215959546004
 30
0.0
 11
170.66112194778691
 21
30.892159595460502
 31
0.0
  0
LINE
  5
474B
  8
0
 10
111.66112194778709
 20
27.892159595460502
 30
0.0
 11
170.661121947787
 21
27.89215959546004
 31
0.0
  0
LINE
  5
474C
  8
0
 10
111.66112194778709
 20
30.892159595460502
 30
0.0
 11
170.66112194778691
 21
30.892159595460502
 31
0.0
  0
LINE
  5
474D
  8
0
 10
171.161121947787
 20
31.392159595460502
 30
0.0
 11
171.16112194778711
 21
39.759778837522163
 31
0.0
  0
LINE
  5
474E
  8
0
 10
171.161121947787
 20
31.392159595460502
 30
0.0
 11
170.661121947787
 21
30.892159595460502
 31
0.0
  0
CIRCLE
  5
474F
  8
0
 10
49.97731923047354
 20
222.9501669530197
 30
0.0
 40
30.0
  0
CIRCLE
  5
4750
  8
0
 10
49.97731923047354
 20
222.9501669530197
 30
0.0
 40
25.0
  0
ARC
  5
4751
  8
0
 10
49.97731923047354
 20
222.9501669530197
 30
0.0
 40
20.00000000000006
 50
4.1580671405607674
 51
55.841932859453458
  0
LINE
  5
4752
  8
1
 10
49.97731923047354
 20
257.95016695301979
 30
0.0
 11
49.97731923047354
 21
187.95016695301979
 31
0.0
  0
LINE
  5
4753
  8
1
 10
84.97731923047354
 20
222.9501669530197
 30
0.0
 11
14.97731923047354
 21
222.9501669530197
 31
0.0
  0
LINE
  5
4761
  8
0
 10
111.16112194778719
 20
31.392159595460502
 30
0.0
 11
111.66112194778719
 21
30.892159595460502
 31
0.0
  0
LINE
  5
4762
  8
0
 10
111.16112194778719
 20
31.392159595460502
 30
0.0
 11
111.16112194778709
 21
39.759778837522163
 31
0.0
  0
LINE
  5
4763
  8
0
 10
111.66112194778719
 20
27.89215959546004
 30
0.0
 11
111.66112194778729
 21
30.892159595460502
 31
0.0
  0
LINE
  5
4764
  8
0
 10
121.161121947787
 20
48.892159595460051
 30
0.0
 11
121.16112194778719
 21
49.538093672606252
 31
0.0
  0
LINE
  5
4765
  8
0
 10
116.16112194778719
 20
43.892159595460051
 30
0.0
 11
116.16112194778719
 21
44.75977883752217
 31
0.0
  0
LINE
  5
4766
  8
0
 10
121.161121947787
 20
48.892159595460051
 30
0.0
 11
117.1321304369321
 21
46.474764688947523
 31
0.0
  0
LINE
  5
4767
  8
0
 10
126.16112194778709
 20
52.892159595460029
 30
0.0
 11
122.418340595079
 21
51.395047054377059
 31
0.0
  0
LINE
  5
4768
  8
0
 10
126.16112194778709
 20
52.892159595460029
 30
0.0
 11
126.16112194778709
 21
52.892159595460491
 31
0.0
  0
LINE
  5
4769
  8
0
 10
116.16112194778719
 20
43.892159595460051
 30
0.0
 11
112.1321304369321
 21
41.474764688947509
 31
0.0
  0
ARC
  5
476A
  8
0
 10
128.16112194778711
 20
52.892159595460491
 30
0.0
 40
2.0
 50
90.0
 51
179.9999999999992
  0
ARC
  5
476B
  8
0
 10
123.16112194778719
 20
49.538093672606252
 30
0.0
 40
2.0
 50
111.8014094863517
 51
180.0000000000008
  0
ARC
  5
476C
  8
0
 10
118.16112194778719
 20
44.75977883752217
 30
0.0
 40
2.0
 50
120.9637565320738
 51
180.0
  0
ARC
  5
476D
  8
0
 10
113.16112194778709
 20
39.759778837522163
 30
0.0
 40
2.0
 50
120.9637565320735
 51
180.0000000000004
  0
LINE
  5
476E
  8
1
 10
49.97731923047251
 20
176.8921595954464
 30
0.0
 11
49.97731923047251
 21
22.892159595445939
 31
0.0
  0
LINE
  5
476F
  8
1
 10
141.16112194778711
 20
176.8921595954464
 30
0.0
 11
141.16112194778711
 21
22.892159595445939
 31
0.0
  0
ARC
  5
4835
  8
0
 10
21.977319230472521
 20
39.759778837481477
 30
0.0
 40
2.0
 50
120.9637565320735
 51
180.0000000000004
  0
ARC
  5
4836
  8
0
 10
26.977319230472631
 20
44.75977883748147
 30
0.0
 40
2.0
 50
120.9637565320738
 51
180.0
  0
ARC
  5
4837
  8
0
 10
31.977319230472631
 20
49.538093672565537
 30
0.0
 40
2.0
 50
111.8014094863516
 51
180.0000000000008
  0
ARC
  5
4838
  8
0
 10
36.977319230472517
 20
52.892159595419812
 30
0.0
 40
2.0
 50
90.0
 51
179.9999999999992
  0
LINE
  5
4839
  8
0
 10
24.977319230472631
 20
43.892159595419351
 30
0.0
 11
20.94832771961751
 21
41.474764688906824
 31
0.0
  0
LINE
  5
483A
  8
0
 10
34.977319230472531
 20
52.892159595419358
 30
0.0
 11
34.977319230472531
 21
52.892159595419812
 31
0.0
  0
LINE
  5
483B
  8
0
 10
34.977319230472531
 20
52.892159595419358
 30
0.0
 11
31.23453787776441
 21
51.395047054336388
 31
0.0
  0
LINE
  5
483C
  8
0
 10
29.977319230472521
 20
48.892159595419351
 30
0.0
 11
25.94832771961751
 21
46.474764688906824
 31
0.0
  0
LINE
  5
483D
  8
0
 10
24.977319230472631
 20
43.892159595419351
 30
0.0
 11
24.977319230472631
 21
44.75977883748147
 31
0.0
  0
LINE
  5
483E
  8
0
 10
29.977319230472521
 20
48.892159595419351
 30
0.0
 11
29.977319230472631
 21
49.538093672565537
 31
0.0
  0
LINE
  5
483F
  8
0
 10
20.477319230472641
 20
27.892159595419361
 30
0.0
 11
20.477319230472741
 21
30.892159595419809
 31
0.0
  0
LINE
  5
4840
  8
0
 10
19.977319230472631
 20
31.392159595419809
 30
0.0
 11
19.977319230472521
 21
39.759778837481477
 31
0.0
  0
LINE
  5
4841
  8
0
 10
19.977319230472631
 20
31.392159595419809
 30
0.0
 11
20.477319230472641
 21
30.892159595419809
 31
0.0
  0
LINE
  5
4842
  8
0
 10
79.977319230472403
 20
31.392159595419809
 30
0.0
 11
79.477319230472403
 21
30.892159595419809
 31
0.0
  0
LINE
  5
4843
  8
0
 10
79.977319230472403
 20
31.392159595419809
 30
0.0
 11
79.977319230472503
 21
39.759778837481477
 31
0.0
  0
LINE
  5
4844
  8
0
 10
20.477319230472521
 20
30.892159595419809
 30
0.0
 11
79.477319230472276
 21
30.892159595419809
 31
0.0
  0
LINE
  5
4845
  8
0
 10
20.477319230472521
 20
27.892159595419809
 30
0.0
 11
79.477319230472403
 21
27.892159595419361
 31
0.0
  0
LINE
  5
4846
  8
0
 10
79.477319230472403
 20
27.892159595419361
 30
0.0
 11
79.477319230472276
 21
30.892159595419809
 31
0.0
  0
LINE
  5
4847
  8
0
 10
24.977319230472631
 20
43.892159595419351
 30
0.0
 11
74.977319230472403
 21
43.892159595419351
 31
0.0
  0
LINE
  5
4848
  8
0
 10
29.977319230472521
 20
48.892159595419812
 30
0.0
 11
69.977319230472503
 21
48.892159595419351
 31
0.0
  0
LINE
  5
4849
  8
0
 10
34.977319230472531
 20
52.892159595419812
 30
0.0
 11
64.977319230472403
 21
52.892159595419812
 31
0.0
  0
LINE
  5
484A
  8
0
 10
69.977319230472503
 20
48.892159595419351
 30
0.0
 11
69.977319230472403
 21
49.538093672565537
 31
0.0
  0
LINE
  5
484B
  8
0
 10
74.977319230472403
 20
43.892159595419351
 30
0.0
 11
74.977319230472403
 21
44.75977883748147
 31
0.0
  0
LINE
  5
484C
  8
0
 10
69.977319230472503
 20
48.892159595419351
 30
0.0
 11
74.006310741327511
 21
46.474764688906824
 31
0.0
  0
LINE
  5
484D
  8
0
 10
64.977319230472503
 20
52.892159595419358
 30
0.0
 11
68.720100583180624
 21
51.395047054336388
 31
0.0
  0
LINE
  5
484E
  8
0
 10
36.977319230472517
 20
54.89215959541982
 30
0.0
 11
62.97731923047251
 21
54.89215959541982
 31
0.0
  0
LINE
  5
484F
  8
0
 10
64.977319230472503
 20
52.892159595419358
 30
0.0
 11
64.977319230472503
 21
52.892159595419812
 31
0.0
  0
LINE
  5
4850
  8
0
 10
74.977319230472403
 20
43.892159595419351
 30
0.0
 11
79.006310741327511
 21
41.474764688906824
 31
0.0
  0
ARC
  5
4851
  8
0
 10
62.97731923047251
 20
52.892159595419812
 30
0.0
 40
2.0
 50
0.0000000000008142
 51
90.0
  0
ARC
  5
4852
  8
0
 10
67.977319230472403
 20
49.538093672565537
 30
0.0
 40
2.0
 50
359.9999999999992
 51
68.198590513648185
  0
ARC
  5
4853
  8
0
 10
72.977319230472403
 20
44.75977883748147
 30
0.0
 40
2.0
 50
0.0
 51
59.036243467926127
  0
ARC
  5
4854
  8
0
 10
77.977319230472503
 20
39.759778837481477
 30
0.0
 40
2.0
 50
359.9999999999996
 51
59.036243467926582
  0
LINE
  5
4855
  8
0
 10
41.477319230472517
 20
57.392159595348403
 30
0.0
 11
58.477319230472517
 21
57.392159595348403
 31
0.0
  0
ARC
  5
4856
  8
0
 10
49.97731923047251
 20
48.571020213159969
 30
0.0
 40
12.25
 50
133.93783988574569
 51
148.93491910364179
  0
ARC
  5
4857
  8
0
 10
49.97731923047251
 20
48.571020213159969
 30
0.0
 40
12.25
 50
31.0650808963582
 51
46.062160114254247
  0
TEXT
  5
4C0A
  8
0
 62
     3
 10
0.0
 20
0.0
 30
0.0
 40
10.0
  1
LVER60L24A-SUS
  7
STANDARD1
  0
ENDSEC
  0
EOF
