  0
SECTION
  2
HEADER
  9
$ACADVER
  1
AC1009
  9
$INSBASE
 10
0.0
 20
0.0
 30
0.0
  9
$EXTMIN
 10
0.0
 20
-2.960436562073669
 30
0.0
  9
$EXTMAX
 10
172.5789093258112
 20
324.97190133531888
 30
0.0
  9
$LIMMIN
 10
0.0
 20
0.0
  9
$LIMMAX
 10
375.0
 20
270.0
  9
$ORTHOMODE
 70
     1
  9
$REGENMODE
 70
     1
  9
$FILLMODE
 70
     1
  9
$QTEXTMODE
 70
     0
  9
$MIRRTEXT
 70
     0
  9
$DRAGMODE
 70
     2
  9
$LTSCALE
 40
6.0
  9
$OSMODE
 70
    37
  9
$ATTMODE
 70
     1
  9
$TEXTSIZE
 40
0.2
  9
$TRACEWID
 40
0.05
  9
$TEXTSTYLE
  7
STANDARD
  9
$CLAYER
  8
0
  9
$CELTYPE
  6
BYLAYER
  9
$CECOLOR
 62
   256
  9
$DIMSCALE
 40
1.0
  9
$DIMASZ
 40
3.0
  9
$DIMEXO
 40
1.0
  9
$DIMDLI
 40
6.0
  9
$DIMRND
 40
0.0
  9
$DIMDLE
 40
0.0
  9
$DIMEXE
 40
1.0
  9
$DIMTP
 40
495.0
  9
$DIMTM
 40
0.0
  9
$DIMTXT
 40
3.0
  9
$DIMCEN
 40
0.0
  9
$DIMTSZ
 40
0.0
  9
$DIMTOL
 70
     0
  9
$DIMLIM
 70
     0
  9
$DIMTIH
 70
     0
  9
$DIMTOH
 70
     0
  9
$DIMSE1
 70
     0
  9
$DIMSE2
 70
     0
  9
$DIMTAD
 70
     1
  9
$DIMZIN
 70
     0
  9
$DIMBLK
  1

  9
$DIMASO
 70
     0
  9
$DIMSHO
 70
     0
  9
$DIMPOST
  1

  9
$DIMAPOST
  1

  9
$DIMALT
 70
     0
  9
$DIMALTD
 70
     2
  9
$DIMALTF
 40
25.399999999999999
  9
$DIMLFAC
 40
1.0
  9
$DIMTOFL
 70
     1
  9
$DIMTVP
 40
0.0
  9
$DIMTIX
 70
     1
  9
$DIMSOXD
 70
     0
  9
$DIMSAH
 70
     0
  9
$DIMBLK1
  1

  9
$DIMBLK2
  1

  9
$DIMSTYLE
  2
STANDARD
  9
$DIMCLRD
 70
     0
  9
$DIMCLRE
 70
     0
  9
$DIMCLRT
 70
     4
  9
$DIMTFAC
 40
1.0
  9
$DIMGAP
 40
1.0
  9
$LUNITS
 70
     2
  9
$LUPREC
 70
     4
  9
$SKETCHINC
 40
0.1
  9
$FILLETRAD
 40
2.0
  9
$AUNITS
 70
     0
  9
$AUPREC
 70
     0
  9
$MENU
  1
C:\R13\WIN\SUPPORT\ACAD-I
  9
$ELEVATION
 40
0.0
  9
$PELEVATION
 40
0.0
  9
$THICKNESS
 40
0.0
  9
$LIMCHECK
 70
     0
  9
$BLIPMODE
 70
     0
  9
$CHAMFERA
 40
0.0
  9
$CHAMFERB
 40
0.0
  9
$SKPOLY
 70
     0
  9
$TDCREATE
 40
2451962.4192219791
  9
$TDUPDATE
 40
2456598.7221384952
  9
$TDINDWG
 40
0.1587280787
  9
$TDUSRTIMER
 40
2456598.0670493292
  9
$USRTIMER
 70
     1
  9
$ANGBASE
 50
0.0
  9
$ANGDIR
 70
     0
  9
$PDMODE
 70
     0
  9
$PDSIZE
 40
0.0
  9
$PLINEWID
 40
0.0
  9
$COORDS
 70
     1
  9
$SPLFRAME
 70
     0
  9
$SPLINETYPE
 70
     6
  9
$SPLINESEGS
 70
     8
  9
$ATTDIA
 70
     0
  9
$ATTREQ
 70
     1
  9
$HANDLING
 70
     1
  9
$HANDSEED
  5
4D67
  9
$SURFTAB1
 70
     6
  9
$SURFTAB2
 70
     6
  9
$SURFTYPE
 70
     6
  9
$SURFU
 70
     6
  9
$SURFV
 70
     6
  9
$UCSNAME
  2

  9
$UCSORG
 10
0.0
 20
0.0
 30
0.0
  9
$UCSXDIR
 10
1.0
 20
0.0
 30
0.0
  9
$UCSYDIR
 10
0.0
 20
1.0
 30
0.0
  9
$PUCSNAME
  2

  9
$PUCSORG
 10
0.0
 20
0.0
 30
0.0
  9
$PUCSXDIR
 10
1.0
 20
0.0
 30
0.0
  9
$PUCSYDIR
 10
0.0
 20
1.0
 30
0.0
  9
$USERI1
 70
     4
  9
$USERI2
 70
     1
  9
$USERI3
 70
     0
  9
$USERI4
 70
     0
  9
$USERI5
 70
     0
  9
$USERR1
 40
1.0
  9
$USERR2
 40
3.0
  9
$USERR3
 40
3.0
  9
$USERR4
 40
3.0
  9
$USERR5
 40
10.0
  9
$WORLDVIEW
 70
     1
  9
$SHADEDGE
 70
     3
  9
$SHADEDIF
 70
    70
  9
$TILEMODE
 70
     1
  9
$MAXACTVP
 70
    16
  9
$PLIMCHECK
 70
     0
  9
$PEXTMIN
 10
1.0000000000000000E+020
 20
1.0000000000000000E+020
 30
1.0000000000000000E+020
  9
$PEXTMAX
 10
-1.0000000000000000E+020
 20
-1.0000000000000000E+020
 30
-1.0000000000000000E+020
  9
$PLIMMIN
 10
0.0
 20
0.0
  9
$PLIMMAX
 10
12.0
 20
9.0
  9
$UNITMODE
 70
     0
  9
$VISRETAIN
 70
     0
  9
$PLINEGEN
 70
     0
  9
$PSLTSCALE
 70
     0
  0
ENDSEC
  0
SECTION
  2
TABLES
  0
TABLE
  2
VPORT
 70
     1
  0
VPORT
  2
*ACTIVE
 70
     0
 10
0.0
 20
0.0
 11
1.0
 21
1.0
 12
187.4942783906524
 22
200.65585976004661
 13
0.0
 23
0.0
 14
10.0
 24
10.0
 15
10.0
 25
10.0
 16
0.0
 26
0.0
 36
1.0
 17
0.0
 27
0.0
 37
0.0
 40
410.77988286587782
 41
1.755244755244755
 42
50.0
 43
0.0
 44
0.0
 50
0.0
 51
0.0
 71
    16
 72
   100
 73
     1
 74
     0
 75
     0
 76
     0
 77
     0
 78
     0
  0
ENDTAB
  0
TABLE
  2
LTYPE
 70
     3
  0
LTYPE
  2
CONTINUOUS
 70
     0
  3
Solid Line
 72
    65
 73
     0
 40
0.0
  0
LTYPE
  2
PHANTOM2
 70
     0
  3
___ _ _ ___ _ _ ___ _ _ ___ _ _
 72
    65
 73
     6
 40
1.25
 49
0.625
 49
-0.125
 49
0.125
 49
-0.125
 49
0.125
 49
-0.125
  0
LTYPE
  2
CENTER
 70
     0
  3
____ _ ____ _ ____ _ ____ _ ____ _ ____ _ ____
 72
    65
 73
     4
 40
2.0
 49
1.25
 49
-0.25
 49
0.25
 49
-0.25
  0
ENDTAB
  0
TABLE
  2
LAYER
 70
     3
  0
LAYER
  2
0
 70
     0
 62
     7
  6
CONTINUOUS
  0
LAYER
  2
1
 70
     0
 62
     1
  6
CENTER
  0
LAYER
  2
3
 70
     0
 62
     3
  6
CONTINUOUS
  0
ENDTAB
  0
TABLE
  2
STYLE
 70
     3
  0
STYLE
  2
STANDARD
 70
     0
 40
0.0
 41
1.0
 50
0.0
 71
     0
 42
0.2
  3
SIMPLEX
  4
BIGFONT
  0
STYLE
  2
ANNOTATIVE
 70
     0
 40
0.0
 41
1.0
 50
0.0
 71
     0
 42
0.2
  3
txt
  4

  0
STYLE
  2
STANDARD1
 70
     0
 40
0.0
 41
1.0
 50
0.0
 71
     0
 42
3.0
  3
txt
  4

  0
ENDTAB
  0
TABLE
  2
VIEW
 70
     0
  0
ENDTAB
  0
TABLE
  2
UCS
 70
     0
  0
ENDTAB
  0
TABLE
  2
APPID
 70
    29
  0
APPID
  2
ACAD
 70
     0
  0
APPID
  2
ACADANNOTATIVE
 70
     0
  0
APPID
  2
GENIUS_GENOREF_13
 70
     0
  0
APPID
  2
GENIUS_GENOENT_13
 70
     0
  0
APPID
  2
GENIUS_GENBH_13
 70
     0
  0
APPID
  2
GENIUS_GENOBJ_13
 70
     0
  0
APPID
  2
GENIUS_GENODEF_13
 70
     0
  0
APPID
  2
GENIUS_GENOLIS_13
 70
     0
  0
APPID
  2
GENIUS_GENOBJ-NBEHI-BHF_13
 70
     0
  0
APPID
  2
GENIUS_GENOBJ-NBEHI-BHB_13
 70
     0
  0
APPID
  2
GENIUS_GENOBJ-F-PART_13
 70
     0
  0
APPID
  2
GENIUS_GEFSTDP_13
 70
     0
  0
APPID
  2
GENIUS_GENOBJ-N-RSSYM_13
 70
     0
  0
APPID
  2
GENIUS_GENSYMENT_13
 70
     0
  0
APPID
  2
GENIUS_GENOBJ-N-TIT_13
 70
     0
  0
APPID
  2
GENIUS_GENTITLE_13
 70
     0
  0
APPID
  2
GENIUS_GENZVEED_13
 70
     0
  0
APPID
  2
GENIUS_GENOBJ-N-LEADER_13
 70
     0
  0
APPID
  2
GENIUS_GENOBJ-N-FIL_13
 70
     0
  0
APPID
  2
GENIUS_GENOBJ-N-SEC_13
 70
     0
  0
APPID
  2
GENIUS_GENOBJ-N-CRS_13
 70
     0
  0
APPID
  2
GENIUS_GENOBJ-N-ZOO_13
 70
     0
  0
APPID
  2
GENIUS_GENZOO_13
 70
     0
  0
APPID
  2
GENIUS_GENOBJ-F-TOL_13
 70
     0
  0
APPID
  2
GENIUS_GENFIL_13
 70
     0
  0
APPID
  2
GENIUS_GENOBJ-N-CHA_13
 70
     0
  0
APPID
  2
ACAD_EXEMPT_FROM_CAD_STANDARDS
 70
     0
  0
APPID
  2
ACAD_MLEADERVER
 70
     0
  0
APPID
  2
ACAD_NAV_VCDISPLAY
 70
     0
  0
ENDTAB
  0
TABLE
  2
DIMSTYLE
 70
     2
  0
DIMSTYLE
  2
STANDARD
 70
     0
  3

  4

  5

  6

  7

 40
1.0
 41
0.18
 42
0.0625
 43
0.38
 44
0.18
 45
0.0
 46
0.0
 47
0.0
 48
0.0
140
0.18
141
0.09
142
0.0
143
25.399999999999999
144
1.0
145
0.0
146
1.0
147
0.09
 71
     0
 72
     0
 73
     1
 74
     1
 75
     0
 76
     0
 77
     0
 78
     0
170
     0
171
     2
172
     0
173
     0
174
     0
175
     0
176
     0
177
     0
178
     0
  0
DIMSTYLE
  2
ANNOTATIVE
 70
     0
  3

  4

  5

  6

  7

 40
1.0
 41
0.18
 42
0.0625
 43
0.38
 44
0.18
 45
0.0
 46
0.0
 47
0.0
 48
0.0
140
0.18
141
0.09
142
0.0
143
25.399999999999999
144
1.0
145
0.0
146
1.0
147
0.09
 71
     0
 72
     0
 73
     1
 74
     1
 75
     0
 76
     0
 77
     0
 78
     0
170
     0
171
     2
172
     0
173
     0
174
     0
175
     0
176
     0
177
     0
178
     0
  0
ENDTAB
  0
ENDSEC
  0
SECTION
  2
BLOCKS
  0
BLOCK
  8
0
  2
$MODEL_SPACE
 70
     0
 10
0.0
 20
0.0
 30
0.0
  3
$MODEL_SPACE
  1

  0
ENDBLK
  5
4C2E
  8
0
  0
BLOCK
 67
     1
  8
0
  2
$PAPER_SPACE
 70
     0
 10
0.0
 20
0.0
 30
0.0
  3
$PAPER_SPACE
  1

  0
ENDBLK
  5
4C2A
 67
     1
  8
0
  0
ENDSEC
  0
SECTION
  2
ENTITIES
  0
LINE
  5
4841
  8
1
 10
142.5789093258112
 20
243.9138939777456
 30
0.0
 11
142.5789093258112
 21
29.91389397774515
 31
0.0
  0
LINE
  5
4842
  8
1
 10
51.39510660849659
 20
243.9138939777456
 30
0.0
 11
51.39510660849659
 21
29.91389397774515
 31
0.0
  0
ARC
  5
4843
  8
0
 10
114.5789093258112
 20
46.781513219807273
 30
0.0
 40
2.0
 50
120.9637565320735
 51
180.0000000000004
  0
ARC
  5
4844
  8
0
 10
119.5789093258113
 20
51.781513219807273
 30
0.0
 40
2.0
 50
120.9637565320738
 51
180.0
  0
ARC
  5
4845
  8
0
 10
124.5789093258113
 20
56.559828054891341
 30
0.0
 40
2.0
 50
111.8014094863517
 51
180.0000000000008
  0
ARC
  5
4846
  8
0
 10
129.5789093258112
 20
59.913893977745602
 30
0.0
 40
2.0
 50
90.0
 51
179.9999999999992
  0
LINE
  5
4847
  8
0
 10
117.5789093258113
 20
50.913893977745147
 30
0.0
 11
113.5499178149562
 21
48.49649907123262
 31
0.0
  0
LINE
  5
4848
  8
0
 10
127.5789093258112
 20
59.913893977745147
 30
0.0
 11
127.5789093258112
 21
59.913893977745602
 31
0.0
  0
LINE
  5
4849
  8
0
 10
127.5789093258112
 20
59.913893977745147
 30
0.0
 11
123.8361279731031
 21
58.41678143666217
 31
0.0
  0
LINE
  5
484A
  8
0
 10
122.5789093258112
 20
55.913893977745147
 30
0.0
 11
118.5499178149562
 21
53.49649907123262
 31
0.0
  0
LINE
  5
484B
  8
0
 10
117.5789093258113
 20
50.913893977745147
 30
0.0
 11
117.5789093258113
 21
51.781513219807273
 31
0.0
  0
LINE
  5
484C
  8
0
 10
122.5789093258112
 20
55.913893977745147
 30
0.0
 11
122.5789093258113
 21
56.559828054891341
 31
0.0
  0
LINE
  5
484D
  8
0
 10
113.0789093258113
 20
34.91389397774514
 30
0.0
 11
113.0789093258114
 21
37.913893977745602
 31
0.0
  0
LINE
  5
484E
  8
0
 10
112.5789093258113
 20
38.413893977745602
 30
0.0
 11
112.5789093258112
 21
46.781513219807273
 31
0.0
  0
LINE
  5
484F
  8
0
 10
112.5789093258113
 20
38.413893977745602
 30
0.0
 11
113.0789093258113
 21
37.913893977745602
 31
0.0
  0
LINE
  5
485D
  8
1
 10
86.395106608497599
 20
289.97190133531899
 30
0.0
 11
16.395106608497599
 21
289.97190133531899
 31
0.0
  0
LINE
  5
485E
  8
1
 10
51.395106608497599
 20
324.97190133531888
 30
0.0
 11
51.395106608497599
 21
254.97190133531899
 31
0.0
  0
ARC
  5
485F
  8
0
 10
51.395106608497599
 20
289.97190133531899
 30
0.0
 40
20.00000000000006
 50
4.1580671405607674
 51
55.841932859453458
  0
CIRCLE
  5
4860
  8
0
 10
51.395106608497599
 20
289.97190133531899
 30
0.0
 40
25.0
  0
CIRCLE
  5
4861
  8
0
 10
51.395106608497599
 20
289.97190133531899
 30
0.0
 40
30.0
  0
LINE
  5
4862
  8
0
 10
172.57890932581111
 20
38.413893977745602
 30
0.0
 11
172.07890932581111
 21
37.913893977745602
 31
0.0
  0
LINE
  5
4863
  8
0
 10
172.57890932581111
 20
38.413893977745602
 30
0.0
 11
172.5789093258112
 21
46.781513219807273
 31
0.0
  0
LINE
  5
4864
  8
0
 10
113.0789093258112
 20
37.913893977745602
 30
0.0
 11
172.078909325811
 21
37.913893977745602
 31
0.0
  0
LINE
  5
4865
  8
0
 10
113.0789093258112
 20
34.913893977745602
 30
0.0
 11
172.07890932581111
 21
34.91389397774514
 31
0.0
  0
LINE
  5
4866
  8
0
 10
172.07890932581111
 20
34.91389397774514
 30
0.0
 11
172.078909325811
 21
37.913893977745602
 31
0.0
  0
LINE
  5
4867
  8
0
 10
117.5789093258113
 20
50.913893977745602
 30
0.0
 11
167.578909325811
 21
50.913893977745147
 31
0.0
  0
LINE
  5
4868
  8
0
 10
122.5789093258112
 20
55.913893977745602
 30
0.0
 11
162.5789093258112
 21
55.913893977745147
 31
0.0
  0
LINE
  5
4869
  8
0
 10
127.5789093258112
 20
59.913893977745602
 30
0.0
 11
157.57890932581111
 21
59.913893977745602
 31
0.0
  0
LINE
  5
486A
  8
0
 10
162.5789093258112
 20
55.913893977745147
 30
0.0
 11
162.57890932581111
 21
56.559828054891341
 31
0.0
  0
LINE
  5
486B
  8
0
 10
167.578909325811
 20
50.913893977745147
 30
0.0
 11
167.578909325811
 21
51.781513219807273
 31
0.0
  0
LINE
  5
486C
  8
0
 10
162.5789093258112
 20
55.913893977745147
 30
0.0
 11
166.6079008366662
 21
53.49649907123262
 31
0.0
  0
LINE
  5
486D
  8
0
 10
157.5789093258112
 20
59.913893977745147
 30
0.0
 11
161.3216906785193
 21
58.41678143666217
 31
0.0
  0
LINE
  5
486E
  8
0
 10
129.5789093258112
 20
61.913893977745587
 30
0.0
 11
155.5789093258112
 21
61.913893977745587
 31
0.0
  0
LINE
  5
486F
  8
0
 10
157.5789093258112
 20
59.913893977745147
 30
0.0
 11
157.5789093258112
 21
59.913893977745602
 31
0.0
  0
LINE
  5
4870
  8
0
 10
167.578909325811
 20
50.913893977745147
 30
0.0
 11
171.60790083666609
 21
48.49649907123262
 31
0.0
  0
ARC
  5
4871
  8
0
 10
155.5789093258112
 20
59.913893977745602
 30
0.0
 40
2.0
 50
0.0000000000008142
 51
90.0
  0
ARC
  5
4872
  8
0
 10
160.57890932581111
 20
56.559828054891341
 30
0.0
 40
2.0
 50
359.9999999999992
 51
68.198590513648639
  0
ARC
  5
4873
  8
0
 10
165.57890932581111
 20
51.781513219807273
 30
0.0
 40
2.0
 50
0.0
 51
59.036243467926127
  0
ARC
  5
4874
  8
0
 10
170.5789093258112
 20
46.781513219807273
 30
0.0
 40
2.0
 50
359.9999999999996
 51
59.036243467926127
  0
LINE
  5
4897
  8
0
 10
39.395106608496583
 20
123.9138939777451
 30
0.0
 11
39.395106608496583
 21
235.91389397774611
 31
0.0
  0
LINE
  5
4898
  8
3
 10
41.0191066084966
 20
123.9138939777451
 30
0.0
 11
41.0191066084966
 21
237.53789397774591
 31
0.0
  0
LINE
  5
4899
  8
3
 10
61.771106608496552
 20
123.9138939777451
 30
0.0
 11
61.771106608496552
 21
237.5378939777454
 31
0.0
  0
LINE
  5
489A
  8
0
 10
63.395106608496583
 20
123.9138939777451
 30
0.0
 11
63.395106608496583
 21
235.91389397774509
 31
0.0
  0
LINE
  5
489B
  8
0
 10
34.39510660849669
 20
123.9138939777451
 30
0.0
 11
68.395106608496462
 21
123.9138939777451
 31
0.0
  0
LINE
  5
489C
  8
0
 10
34.395106608496583
 20
104.9138939777451
 30
0.0
 11
68.395106608496462
 21
104.9138939777451
 31
0.0
  0
LINE
  5
489D
  8
0
 10
30.61049693459745
 20
121.72884856374201
 30
0.0
 11
30.61049693459745
 21
107.0989393917487
 31
0.0
  0
LINE
  5
489E
  8
0
 10
34.395106608496583
 20
123.9138939777451
 30
0.0
 11
30.61049693459745
 21
121.72884856374201
 31
0.0
  0
LINE
  5
489F
  8
0
 10
41.002801771547517
 20
121.72884856374201
 30
0.0
 11
41.002801771547517
 21
107.0989393917487
 31
0.0
  0
LINE
  5
48A0
  8
0
 10
61.78741144544982
 20
121.72884856374201
 30
0.0
 11
61.78741144544982
 21
107.0989393917487
 31
0.0
  0
ARC
  5
48A1
  8
0
 10
51.395106608498487
 20
88.944238899497336
 30
0.0
 40
34.392304817516766
 50
72.41204622606665
 51
107.58795377393329
  0
ARC
  5
48A2
  8
0
 10
35.806649353072331
 20
114.1355818301606
 30
0.0
 40
9.2009618868538041
 50
55.615752532062928
 51
115.61575253206939
  0
ARC
  5
48A3
  8
0
 10
51.395106608498487
 20
139.88354905599289
 30
0.0
 40
34.392304817516766
 50
252.41204622606821
 51
287.58795377393329
  0
ARC
  5
48A4
  8
0
 10
35.806649353072331
 20
114.6922061253301
 30
0.0
 40
9.2009618868538041
 50
244.38424746793069
 51
304.38424746793697
  0
LINE
  5
48A5
  8
0
 10
34.395106608496583
 20
104.9138939777451
 30
0.0
 11
30.61049693459745
 21
107.0989393917487
 31
0.0
  0
LINE
  5
48A6
  8
0
 10
68.395106608496462
 20
104.9138939777451
 30
0.0
 11
72.179716282395702
 21
107.0989393917487
 31
0.0
  0
ARC
  5
48A7
  8
0
 10
66.983563863920836
 20
114.6922061253301
 30
0.0
 40
9.2009618868538041
 50
235.61575253206291
 51
295.61575253206951
  0
ARC
  5
48A8
  8
0
 10
66.983563863920836
 20
114.1355818301606
 30
0.0
 40
9.2009618868538041
 50
64.384247467930564
 51
124.384247467937
  0
LINE
  5
48A9
  8
0
 10
68.395106608496462
 20
123.9138939777451
 30
0.0
 11
72.179716282395702
 21
121.72884856374201
 31
0.0
  0
LINE
  5
48AA
  8
0
 10
72.179716282395702
 20
121.72884856374201
 30
0.0
 11
72.179716282395702
 21
107.0989393917487
 31
0.0
  0
ARC
  5
48AD
  8
0
 10
57.39510660852978
 20
63.29509182580864
 30
0.0
 40
17.330127017333279
 50
69.74384199763081
 51
110.2561580023692
  0
LINE
  5
48AE
  8
0
 10
63.395106608544779
 20
80.625218843141965
 30
0.0
 11
62.89510660852978
 21
80.913893977745616
 31
0.0
  0
LINE
  5
48AF
  8
0
 10
63.395106608544779
 20
71.202569112271931
 30
0.0
 11
62.89510660852978
 21
70.913893977668735
 31
0.0
  0
ARC
  5
48B0
  8
0
 10
57.39510660852978
 20
88.532696129605256
 30
0.0
 40
17.330127017333279
 50
249.74384199763071
 51
290.2561580023692
  0
LINE
  5
48B1
  8
0
 10
63.395106608544779
 20
80.625218843141965
 30
0.0
 11
63.39510660852978
 21
71.202569112263745
 31
0.0
  0
LINE
  5
48B2
  8
0
 10
51.39510660852978
 20
72.274365882101165
 30
0.0
 11
51.39510660852978
 21
79.553422073312731
 31
0.0
  0
LINE
  5
48B3
  8
0
 10
39.395106608514773
 20
80.625218843141965
 30
0.0
 11
39.395106608529773
 21
71.202569112263745
 31
0.0
  0
ARC
  5
48B4
  8
0
 10
45.39510660852978
 20
88.532696129605256
 30
0.0
 40
17.330127017333279
 50
249.74384199763071
 51
290.2561580023692
  0
LINE
  5
48B5
  8
0
 10
39.395106608514773
 20
71.202569112271931
 30
0.0
 11
39.895106608529773
 21
70.913893977668735
 31
0.0
  0
LINE
  5
48B6
  8
0
 10
39.395106608514773
 20
80.625218843141965
 30
0.0
 11
39.895106608529773
 21
80.913893977745616
 31
0.0
  0
ARC
  5
48B7
  8
0
 10
45.39510660852978
 20
63.29509182580864
 30
0.0
 40
17.330127017333279
 50
69.74384199763081
 51
110.2561580023692
  0
LINE
  5
48B8
  8
0
 10
39.895106608463372
 20
80.913893977706948
 30
0.0
 11
62.89510660852978
 21
80.913893977745616
 31
0.0
  0
LINE
  5
48B9
  8
0
 10
62.89510660852978
 20
70.913893977668735
 30
0.0
 11
39.895106608463372
 21
70.913893977706934
 31
0.0
  0
LINE
  5
48BA
  8
0
 10
42.895106608496562
 20
70.913893977687849
 30
0.0
 11
42.895106608496562
 21
64.413893977702386
 31
0.0
  0
LINE
  5
48BB
  8
0
 10
59.895106608496562
 20
70.913893977687849
 30
0.0
 11
59.895106608496562
 21
64.413893977674206
 31
0.0
  0
LINE
  5
48BC
  8
0
 10
42.395106608496562
 20
238.9138939777456
 30
0.0
 11
60.395106608496569
 21
238.9138939777452
 31
0.0
  0
LINE
  5
48BD
  8
0
 10
63.395106608544779
 20
80.625218843141965
 30
0.0
 11
63.395106608496583
 21
104.9138939777451
 31
0.0
  0
LINE
  5
48BE
  8
3
 10
61.771106608496552
 20
85.913893977745147
 30
0.0
 11
61.771106608496552
 21
104.9138939777451
 31
0.0
  0
LINE
  5
48BF
  8
3
 10
41.0191066084966
 20
85.913893977745147
 30
0.0
 11
41.0191066084966
 21
104.9138939777451
 31
0.0
  0
LINE
  5
48C0
  8
0
 10
39.395106608514773
 20
80.625218843141965
 30
0.0
 11
39.395106608496583
 21
104.9138939777451
 31
0.0
  0
LINE
  5
48C1
  8
0
 10
39.395106608496583
 20
235.91389397774611
 30
0.0
 11
42.395106608496562
 21
238.9138939777456
 31
0.0
  0
LINE
  5
48C2
  8
0
 10
60.395106608496569
 20
238.9138939777452
 30
0.0
 11
63.395106608496583
 21
235.91389397774509
 31
0.0
  0
LINE
  5
48C3
  8
0
 10
39.395106608496583
 20
235.91389397774611
 30
0.0
 11
63.395106608496583
 21
235.91389397774509
 31
0.0
  0
LINE
  5
48C4
  8
0
 10
63.395106608496583
 20
85.913893977745147
 30
0.0
 11
39.395106608496583
 21
85.913893977745147
 31
0.0
  0
LINE
  5
48C5
  8
3
 10
41.0191066084966
 20
85.913893977745147
 30
0.0
 11
39.395106608496583
 21
83.101043466253259
 31
0.0
  0
LINE
  5
48C6
  8
3
 10
61.771106608496552
 20
85.913893977745147
 30
0.0
 11
63.395106608496462
 21
83.101043466253259
 31
0.0
  0
LINE
  5
48C7
  8
3
 10
132.20290932581119
 20
123.9138939777451
 30
0.0
 11
132.20290932581119
 21
237.53789397774591
 31
0.0
  0
LINE
  5
48C8
  8
0
 10
130.5789093258112
 20
123.9138939777451
 30
0.0
 11
130.5789093258112
 21
235.91389397774611
 31
0.0
  0
LINE
  5
48C9
  8
3
 10
152.95490932581109
 20
123.9138939777451
 30
0.0
 11
152.95490932581109
 21
237.53789397774591
 31
0.0
  0
LINE
  5
48CA
  8
0
 10
154.5789093258112
 20
123.9138939777451
 30
0.0
 11
154.5789093258112
 21
235.9138939777456
 31
0.0
  0
LINE
  5
48CB
  8
0
 10
142.578909325811
 20
121.72884856374201
 30
0.0
 11
142.578909325811
 21
107.0989393917491
 31
0.0
  0
LINE
  5
48CC
  8
0
 10
125.5789093258113
 20
104.9138939777451
 30
0.0
 11
159.578909325811
 21
104.9138939777451
 31
0.0
  0
LINE
  5
48CD
  8
0
 10
160.57890931116009
 20
123.33654371701429
 30
0.0
 11
160.57890931116009
 21
105.4912442384764
 31
0.0
  0
LINE
  5
48CE
  8
0
 10
125.5789093258113
 20
123.9138939777451
 30
0.0
 11
159.578909325811
 21
123.9138939777451
 31
0.0
  0
LINE
  5
48CF
  8
0
 10
159.5789093258108
 20
123.9138939777451
 30
0.0
 11
160.57890931116009
 21
123.33654371701429
 31
0.0
  0
ARC
  5
48D0
  8
0
 10
151.57890931848559
 20
97.341353209702234
 30
0.0
 40
25.995190507312159
 50
69.743841999652673
 51
110.2561580003473
  0
ARC
  5
48D1
  8
0
 10
151.57890931848559
 20
131.4864347457885
 30
0.0
 40
25.995190507312159
 50
249.74384199965269
 51
290.25615800034728
  0
LINE
  5
48D2
  8
0
 10
159.5789093258108
 20
104.9138939777451
 30
0.0
 11
160.57890931116009
 21
105.4912442384764
 31
0.0
  0
LINE
  5
48D3
  8
0
 10
125.5789093258113
 20
104.9138939777451
 30
0.0
 11
124.578909340462
 21
105.4912442384764
 31
0.0
  0
ARC
  5
48D4
  8
0
 10
133.57890933313649
 20
131.4864347457885
 30
0.0
 40
25.995190507312159
 50
249.74384199965269
 51
290.25615800034728
  0
ARC
  5
48D5
  8
0
 10
133.57890933313649
 20
97.341353209702234
 30
0.0
 40
25.995190507312159
 50
69.743841999652673
 51
110.2561580003473
  0
LINE
  5
48D6
  8
0
 10
125.5789093258113
 20
123.9138939777451
 30
0.0
 11
124.578909340462
 21
123.33654371701429
 31
0.0
  0
LINE
  5
48D7
  8
0
 10
124.578909340462
 20
123.33654371701429
 30
0.0
 11
124.578909340462
 21
105.4912442384764
 31
0.0
  0
LINE
  5
48D8
  8
0
 10
134.0789093258112
 20
64.413893977674206
 30
0.0
 11
151.0789093258112
 21
64.413893977674206
 31
0.0
  0
ARC
  5
48D9
  8
0
 10
142.578909325865
 20
57.697015614983457
 30
0.0
 40
22.928203228139491
 50
72.412046224314096
 51
107.5879537756858
  0
ARC
  5
48DA
  8
0
 10
132.18660448045159
 20
74.49124424740215
 30
0.0
 40
6.1339745957208196
 50
55.61575252879134
 51
115.6157525301594
  0
LINE
  5
48DB
  8
0
 10
128.72250286529211
 20
79.553422073293632
 30
0.0
 11
131.0789093259728
 21
80.913893977687835
 31
0.0
  0
LINE
  5
48DC
  8
0
 10
128.72250286529211
 20
72.274365882082066
 30
0.0
 11
131.0789093259728
 21
70.913893977687849
 31
0.0
  0
ARC
  5
48DD
  8
0
 10
132.18660448045159
 20
77.336543707973533
 30
0.0
 40
6.1339745957208196
 50
244.3842474698404
 51
304.38424747121121
  0
ARC
  5
48DE
  8
0
 10
142.578909325865
 20
94.130772340392241
 30
0.0
 40
22.928203228139491
 50
252.412046224314
 51
287.58795377568589
  0
LINE
  5
48DF
  8
0
 10
128.72250286531391
 20
79.553422073293632
 30
0.0
 11
128.72250286531391
 21
72.274365882069333
 31
0.0
  0
LINE
  5
48E0
  8
0
 10
135.6507060955897
 20
79.553422073293632
 30
0.0
 11
135.6507060955897
 21
72.274365882082066
 31
0.0
  0
LINE
  5
48E1
  8
0
 10
149.50711255614041
 20
79.553422073293632
 30
0.0
 11
149.50711255614041
 21
72.274365882082066
 31
0.0
  0
LINE
  5
48E2
  8
0
 10
156.4353157864162
 20
79.553422073293632
 30
0.0
 11
156.4353157864162
 21
72.274365882069333
 31
0.0
  0
ARC
  5
48E3
  8
0
 10
152.97121417127849
 20
77.336543707973533
 30
0.0
 40
6.1339745957208196
 50
235.6157525287887
 51
295.61575253015963
  0
LINE
  5
48E4
  8
0
 10
156.435315786438
 20
72.274365882082066
 30
0.0
 11
154.07890932575731
 21
70.913893977687849
 31
0.0
  0
LINE
  5
48E5
  8
0
 10
156.435315786438
 20
79.553422073293632
 30
0.0
 11
154.07890932575731
 21
80.913893977687835
 31
0.0
  0
ARC
  5
48E6
  8
0
 10
152.97121417127849
 20
74.49124424740215
 30
0.0
 40
6.1339745957208196
 50
64.384247469840375
 51
124.3842474712085
  0
LINE
  5
48E7
  8
0
 10
131.07890932586511
 20
80.913893977687835
 30
0.0
 11
154.07890932575731
 21
80.913893977687835
 31
0.0
  0
LINE
  5
48E8
  8
0
 10
154.07890932575731
 20
70.913893977687849
 30
0.0
 11
131.0789093259728
 21
70.913893977687849
 31
0.0
  0
LINE
  5
48E9
  8
3
 10
152.95490932581109
 20
85.913893977745616
 30
0.0
 11
154.57890932581111
 21
83.101043466253714
 31
0.0
  0
LINE
  5
48EA
  8
3
 10
132.20290932581119
 20
85.913893977745616
 30
0.0
 11
130.5789093258112
 21
83.101043466253714
 31
0.0
  0
LINE
  5
48EB
  8
0
 10
154.5789093258112
 20
85.913893977745616
 30
0.0
 11
130.5789093258112
 21
85.913893977745616
 31
0.0
  0
LINE
  5
48EC
  8
0
 10
130.5789093258112
 20
235.91389397774611
 30
0.0
 11
154.5789093258112
 21
235.9138939777456
 31
0.0
  0
LINE
  5
48ED
  8
0
 10
151.5789093258112
 20
238.9138939777456
 30
0.0
 11
154.5789093258112
 21
235.9138939777456
 31
0.0
  0
LINE
  5
48EE
  8
0
 10
130.5789093258112
 20
235.91389397774611
 30
0.0
 11
133.5789093258112
 21
238.913893977746
 31
0.0
  0
LINE
  5
48EF
  8
0
 10
130.5789093258112
 20
80.625218842999686
 30
0.0
 11
130.5789093258112
 21
104.9138939777456
 31
0.0
  0
LINE
  5
48F0
  8
3
 10
132.20290932581119
 20
85.913893977745616
 30
0.0
 11
132.20290932581119
 21
104.9138939777456
 31
0.0
  0
LINE
  5
48F1
  8
3
 10
152.95490932581109
 20
85.913893977745616
 30
0.0
 11
152.95490932581109
 21
104.9138939777451
 31
0.0
  0
LINE
  5
48F2
  8
0
 10
154.57890932581111
 20
80.625218843061916
 30
0.0
 11
154.5789093258112
 21
104.9138939777456
 31
0.0
  0
LINE
  5
48F3
  8
0
 10
133.5789093258112
 20
238.913893977746
 30
0.0
 11
151.5789093258112
 21
238.9138939777456
 31
0.0
  0
LINE
  5
48F4
  8
0
 10
151.0789093258112
 20
70.913893977688303
 30
0.0
 11
151.0789093258112
 21
64.413893977674206
 31
0.0
  0
LINE
  5
48F5
  8
0
 10
134.0789093258112
 20
70.913893977688303
 30
0.0
 11
134.0789093258112
 21
64.413893977702386
 31
0.0
  0
ARC
  5
48F6
  8
0
 10
142.5789093258112
 20
55.592754595485758
 30
0.0
 40
12.25
 50
133.9378398857456
 51
148.93491910364179
  0
ARC
  5
48F7
  8
0
 10
142.5789093258112
 20
55.592754595485758
 30
0.0
 40
12.25
 50
31.065080896358221
 51
46.062160114254198
  0
LINE
  5
48F9
  8
0
 10
72.179716282399212
 20
289.9719013353162
 30
0.0
 11
61.787411436990283
 21
271.97190133531632
 31
0.0
  0
LINE
  5
48FA
  8
0
 10
61.787411445455859
 20
307.97190132066248
 30
0.0
 11
72.179716290872079
 21
289.97190132066248
 31
0.0
  0
LINE
  5
48FB
  8
0
 10
41.002801771550928
 20
307.97190132066248
 30
0.0
 11
61.787411462376099
 21
307.97190132066248
 31
0.0
  0
LINE
  5
48FC
  8
0
 10
30.61049693459665
 20
289.9719013353162
 30
0.0
 11
41.002801780005584
 21
307.97190133531632
 31
0.0
  0
LINE
  5
48FD
  8
0
 10
41.002801771540007
 20
271.97190134998459
 30
0.0
 11
30.610496926123801
 21
289.9719013499701
 31
0.0
  0
LINE
  5
48FE
  8
0
 10
61.787411445457671
 20
271.97190134996998
 30
0.0
 11
41.0028017546325
 21
271.97190134996998
 31
0.0
  0
CIRCLE
  5
48FF
  8
0
 10
51.395106608497599
 20
289.97190133531899
 30
0.0
 40
17.0
  0
CIRCLE
  5
4900
  8
0
 10
51.395106608497599
 20
289.97190133531899
 30
0.0
 40
12.0
  0
CIRCLE
  5
4901
  8
3
 10
51.395106608497599
 20
289.97190133531899
 30
0.0
 40
10.375999999999999
  0
ARC
  5
4902
  8
0
 10
51.395106608497599
 20
289.97190133531899
 30
0.0
 40
20.00000000000006
 50
184.15806714057121
 51
235.8419328594828
  0
ARC
  5
4903
  8
0
 10
51.395106608497599
 20
289.97190133531899
 30
0.0
 40
20.00000000000006
 50
64.158067140505921
 51
115.84193285949399
  0
ARC
  5
4904
  8
0
 10
51.395106608497599
 20
289.97190133531899
 30
0.0
 40
20.00000000000006
 50
124.1580671405104
 51
175.84193285951039
  0
ARC
  5
4905
  8
0
 10
51.395106608497599
 20
289.97190133531899
 30
0.0
 40
20.00000000000006
 50
304.1580671405311
 51
355.84193285948948
  0
ARC
  5
4906
  8
0
 10
51.395106608497599
 20
289.97190133531899
 30
0.0
 40
20.00000000000006
 50
244.1580671405429
 51
295.84193285945707
  0
ARC
  5
49CC
  8
0
 10
51.395106608442688
 20
55.592754595485758
 30
0.0
 40
12.25
 50
31.0650808963582
 51
46.062160114254247
  0
ARC
  5
49CD
  8
0
 10
51.395106608442688
 20
55.592754595485758
 30
0.0
 40
12.25
 50
133.93783988574569
 51
148.93491910364179
  0
LINE
  5
49CE
  8
0
 10
42.895106608442688
 20
64.413893977674206
 30
0.0
 11
59.895106608442688
 21
64.413893977674206
 31
0.0
  0
ARC
  5
49CF
  8
0
 10
79.395106608442688
 20
46.781513219807273
 30
0.0
 40
2.0
 50
359.9999999999996
 51
59.036243467926482
  0
ARC
  5
49D0
  8
0
 10
74.395106608442575
 20
51.781513219807273
 30
0.0
 40
2.0
 50
0.0
 51
59.036243467926127
  0
ARC
  5
49D1
  8
0
 10
69.395106608442575
 20
56.559828054891341
 30
0.0
 40
2.0
 50
359.9999999999992
 51
68.198590513648256
  0
ARC
  5
49D2
  8
0
 10
64.395106608442688
 20
59.913893977745602
 30
0.0
 40
2.0
 50
0.0000000000008142
 51
90.0
  0
LINE
  5
49D3
  8
0
 10
76.395106608442575
 20
50.913893977745147
 30
0.0
 11
80.424098119297696
 21
48.49649907123262
 31
0.0
  0
LINE
  5
49D4
  8
0
 10
66.395106608442688
 20
59.913893977745147
 30
0.0
 11
66.395106608442688
 21
59.913893977745602
 31
0.0
  0
LINE
  5
49D5
  8
0
 10
38.395106608442688
 20
61.913893977745587
 30
0.0
 11
64.395106608442688
 21
61.913893977745587
 31
0.0
  0
LINE
  5
49D6
  8
0
 10
66.395106608442688
 20
59.913893977745147
 30
0.0
 11
70.137887961150795
 21
58.41678143666217
 31
0.0
  0
LINE
  5
49D7
  8
0
 10
71.395106608442688
 20
55.913893977745147
 30
0.0
 11
75.42409811929771
 21
53.49649907123262
 31
0.0
  0
LINE
  5
49D8
  8
0
 10
76.395106608442575
 20
50.913893977745147
 30
0.0
 11
76.395106608442575
 21
51.781513219807273
 31
0.0
  0
LINE
  5
49D9
  8
0
 10
71.395106608442688
 20
55.913893977745147
 30
0.0
 11
71.395106608442575
 21
56.559828054891341
 31
0.0
  0
LINE
  5
49DA
  8
0
 10
36.395106608442688
 20
59.913893977745602
 30
0.0
 11
66.395106608442575
 21
59.913893977745602
 31
0.0
  0
LINE
  5
49DB
  8
0
 10
31.395106608442688
 20
55.913893977745602
 30
0.0
 11
71.395106608442688
 21
55.913893977745147
 31
0.0
  0
LINE
  5
49DC
  8
0
 10
26.395106608442791
 20
50.913893977745602
 30
0.0
 11
76.395106608442575
 21
50.913893977745147
 31
0.0
  0
LINE
  5
49DD
  8
0
 10
80.895106608442575
 20
34.91389397774514
 30
0.0
 11
80.895106608442447
 21
37.913893977745602
 31
0.0
  0
LINE
  5
49DE
  8
0
 10
21.895106608442688
 20
34.913893977745602
 30
0.0
 11
80.895106608442575
 21
34.91389397774514
 31
0.0
  0
LINE
  5
49DF
  8
0
 10
21.895106608442688
 20
37.913893977745602
 30
0.0
 11
80.895106608442447
 21
37.913893977745602
 31
0.0
  0
LINE
  5
49E0
  8
0
 10
81.395106608442575
 20
38.413893977745602
 30
0.0
 11
81.395106608442688
 21
46.781513219807273
 31
0.0
  0
LINE
  5
49E1
  8
0
 10
81.395106608442575
 20
38.413893977745602
 30
0.0
 11
80.895106608442575
 21
37.913893977745602
 31
0.0
  0
LINE
  5
49E2
  8
0
 10
21.395106608442799
 20
38.413893977745602
 30
0.0
 11
21.895106608442799
 21
37.913893977745602
 31
0.0
  0
LINE
  5
49E3
  8
0
 10
21.395106608442799
 20
38.413893977745602
 30
0.0
 11
21.395106608442688
 21
46.781513219807273
 31
0.0
  0
LINE
  5
49E4
  8
0
 10
21.895106608442799
 20
34.91389397774514
 30
0.0
 11
21.895106608442919
 21
37.913893977745602
 31
0.0
  0
LINE
  5
49E5
  8
0
 10
31.395106608442688
 20
55.913893977745147
 30
0.0
 11
31.395106608442799
 21
56.559828054891341
 31
0.0
  0
LINE
  5
49E6
  8
0
 10
26.395106608442799
 20
50.913893977745147
 30
0.0
 11
26.395106608442799
 21
51.781513219807273
 31
0.0
  0
LINE
  5
49E7
  8
0
 10
31.395106608442688
 20
55.913893977745147
 30
0.0
 11
27.366115097587681
 21
53.49649907123262
 31
0.0
  0
LINE
  5
49E8
  8
0
 10
36.395106608442688
 20
59.913893977745147
 30
0.0
 11
32.652325255734581
 21
58.41678143666217
 31
0.0
  0
LINE
  5
49E9
  8
0
 10
36.395106608442688
 20
59.913893977745147
 30
0.0
 11
36.395106608442688
 21
59.913893977745602
 31
0.0
  0
LINE
  5
49EA
  8
0
 10
26.395106608442799
 20
50.913893977745147
 30
0.0
 11
22.366115097587681
 21
48.49649907123262
 31
0.0
  0
ARC
  5
49EB
  8
0
 10
38.395106608442688
 20
59.913893977745602
 30
0.0
 40
2.0
 50
90.0
 51
179.9999999999992
  0
ARC
  5
49EC
  8
0
 10
33.395106608442802
 20
56.559828054891341
 30
0.0
 40
2.0
 50
111.8014094863517
 51
180.0000000000008
  0
ARC
  5
49ED
  8
0
 10
28.395106608442799
 20
51.781513219807273
 30
0.0
 40
2.0
 50
120.9637565320738
 51
180.0
  0
ARC
  5
49EE
  8
0
 10
23.395106608442688
 20
46.781513219807273
 30
0.0
 40
2.0
 50
120.9637565320736
 51
180.0000000000004
  0
TEXT
  5
4CAE
  8
0
 62
     3
 10
0.0
 20
0.0
 30
0.0
 40
10.0
  1
LVER60L24B-SUS
  7
STANDARD1
  0
ENDSEC
  0
EOF
