  0
SECTION
  2
HEADER
  9
$ACADVER
  1
AC1009
  9
$INSBASE
 10
0.0
 20
0.0
 30
0.0
  9
$EXTMIN
 10
0.0
 20
-2.960436562073669
 30
0.0
  9
$EXTMAX
 10
175.57265662101881
 20
257.39761930039617
 30
0.0
  9
$LIMMIN
 10
0.0
 20
0.0
  9
$LIMMAX
 10
375.0
 20
270.0
  9
$ORTHOMODE
 70
     1
  9
$REGENMODE
 70
     1
  9
$FILLMODE
 70
     1
  9
$QTEXTMODE
 70
     0
  9
$MIRRTEXT
 70
     0
  9
$DRAGMODE
 70
     2
  9
$LTSCALE
 40
6.0
  9
$OSMODE
 70
  3071
  9
$ATTMODE
 70
     1
  9
$TEXTSIZE
 40
0.2
  9
$TRACEWID
 40
0.05
  9
$TEXTSTYLE
  7
STANDARD
  9
$CLAYER
  8
0
  9
$CELTYPE
  6
BYLAYER
  9
$CECOLOR
 62
   256
  9
$DIMSCALE
 40
1.0
  9
$DIMASZ
 40
3.0
  9
$DIMEXO
 40
1.0
  9
$DIMDLI
 40
6.0
  9
$DIMRND
 40
0.0
  9
$DIMDLE
 40
0.0
  9
$DIMEXE
 40
1.0
  9
$DIMTP
 40
495.0
  9
$DIMTM
 40
0.0
  9
$DIMTXT
 40
3.0
  9
$DIMCEN
 40
0.0
  9
$DIMTSZ
 40
0.0
  9
$DIMTOL
 70
     0
  9
$DIMLIM
 70
     0
  9
$DIMTIH
 70
     0
  9
$DIMTOH
 70
     0
  9
$DIMSE1
 70
     0
  9
$DIMSE2
 70
     0
  9
$DIMTAD
 70
     1
  9
$DIMZIN
 70
     0
  9
$DIMBLK
  1

  9
$DIMASO
 70
     0
  9
$DIMSHO
 70
     0
  9
$DIMPOST
  1

  9
$DIMAPOST
  1

  9
$DIMALT
 70
     0
  9
$DIMALTD
 70
     2
  9
$DIMALTF
 40
25.399999999999999
  9
$DIMLFAC
 40
1.0
  9
$DIMTOFL
 70
     1
  9
$DIMTVP
 40
0.0
  9
$DIMTIX
 70
     1
  9
$DIMSOXD
 70
     0
  9
$DIMSAH
 70
     0
  9
$DIMBLK1
  1

  9
$DIMBLK2
  1

  9
$DIMSTYLE
  2
STANDARD
  9
$DIMCLRD
 70
     0
  9
$DIMCLRE
 70
     0
  9
$DIMCLRT
 70
     4
  9
$DIMTFAC
 40
1.0
  9
$DIMGAP
 40
1.0
  9
$LUNITS
 70
     2
  9
$LUPREC
 70
     4
  9
$SKETCHINC
 40
0.1
  9
$FILLETRAD
 40
2.0
  9
$AUNITS
 70
     0
  9
$AUPREC
 70
     0
  9
$MENU
  1
C:\R13\WIN\SUPPORT\ACAD-I
  9
$ELEVATION
 40
0.0
  9
$PELEVATION
 40
0.0
  9
$THICKNESS
 40
0.0
  9
$LIMCHECK
 70
     0
  9
$BLIPMODE
 70
     0
  9
$CHAMFERA
 40
0.0
  9
$CHAMFERB
 40
0.0
  9
$SKPOLY
 70
     0
  9
$TDCREATE
 40
2451962.4073800701
  9
$TDUPDATE
 40
2456597.6164098498
  9
$TDINDWG
 40
0.0763789005
  9
$TDUSRTIMER
 40
2456555.1231942708
  9
$USRTIMER
 70
     1
  9
$ANGBASE
 50
0.0
  9
$ANGDIR
 70
     0
  9
$PDMODE
 70
     0
  9
$PDSIZE
 40
0.0
  9
$PLINEWID
 40
0.0
  9
$COORDS
 70
     1
  9
$SPLFRAME
 70
     0
  9
$SPLINETYPE
 70
     6
  9
$SPLINESEGS
 70
     8
  9
$ATTDIA
 70
     0
  9
$ATTREQ
 70
     1
  9
$HANDLING
 70
     1
  9
$HANDSEED
  5
37CD
  9
$SURFTAB1
 70
     6
  9
$SURFTAB2
 70
     6
  9
$SURFTYPE
 70
     6
  9
$SURFU
 70
     6
  9
$SURFV
 70
     6
  9
$UCSNAME
  2

  9
$UCSORG
 10
0.0
 20
0.0
 30
0.0
  9
$UCSXDIR
 10
1.0
 20
0.0
 30
0.0
  9
$UCSYDIR
 10
0.0
 20
1.0
 30
0.0
  9
$PUCSNAME
  2

  9
$PUCSORG
 10
0.0
 20
0.0
 30
0.0
  9
$PUCSXDIR
 10
1.0
 20
0.0
 30
0.0
  9
$PUCSYDIR
 10
0.0
 20
1.0
 30
0.0
  9
$USERI1
 70
     4
  9
$USERI2
 70
     1
  9
$USERI3
 70
     0
  9
$USERI4
 70
     0
  9
$USERI5
 70
     0
  9
$USERR1
 40
1.0
  9
$USERR2
 40
3.0
  9
$USERR3
 40
3.0
  9
$USERR4
 40
3.0
  9
$USERR5
 40
10.0
  9
$WORLDVIEW
 70
     1
  9
$SHADEDGE
 70
     3
  9
$SHADEDIF
 70
    70
  9
$TILEMODE
 70
     1
  9
$MAXACTVP
 70
    16
  9
$PLIMCHECK
 70
     0
  9
$PEXTMIN
 10
1.0000000000000000E+020
 20
1.0000000000000000E+020
 30
1.0000000000000000E+020
  9
$PEXTMAX
 10
-1.0000000000000000E+020
 20
-1.0000000000000000E+020
 30
-1.0000000000000000E+020
  9
$PLIMMIN
 10
0.0
 20
0.0
  9
$PLIMMAX
 10
12.0
 20
9.0
  9
$UNITMODE
 70
     0
  9
$VISRETAIN
 70
     0
  9
$PLINEGEN
 70
     0
  9
$PSLTSCALE
 70
     0
  0
ENDSEC
  0
SECTION
  2
TABLES
  0
TABLE
  2
VPORT
 70
     1
  0
VPORT
  2
*ACTIVE
 70
     0
 10
0.0
 20
0.0
 11
1.0
 21
1.0
 12
187.49427839065231
 22
134.10366293909439
 13
0.0
 23
0.0
 14
10.0
 24
10.0
 15
10.0
 25
10.0
 16
0.0
 26
0.0
 36
1.0
 17
0.0
 27
0.0
 37
0.0
 40
277.29405978699532
 41
2.304913294797688
 42
50.0
 43
0.0
 44
0.0
 50
0.0
 51
0.0
 71
    16
 72
   100
 73
     1
 74
     0
 75
     0
 76
     0
 77
     0
 78
     0
  0
ENDTAB
  0
TABLE
  2
LTYPE
 70
     3
  0
LTYPE
  2
CONTINUOUS
 70
     0
  3
Solid Line
 72
    65
 73
     0
 40
0.0
  0
LTYPE
  2
PHANTOM2
 70
     0
  3
___ _ _ ___ _ _ ___ _ _ ___ _ _
 72
    65
 73
     6
 40
1.25
 49
0.625
 49
-0.125
 49
0.125
 49
-0.125
 49
0.125
 49
-0.125
  0
LTYPE
  2
CENTER
 70
     0
  3
____ _ ____ _ ____ _ ____ _ ____ _ ____ _ ____
 72
    65
 73
     4
 40
2.0
 49
1.25
 49
-0.25
 49
0.25
 49
-0.25
  0
ENDTAB
  0
TABLE
  2
LAYER
 70
     3
  0
LAYER
  2
0
 70
     0
 62
     7
  6
CONTINUOUS
  0
LAYER
  2
1
 70
     0
 62
     1
  6
CENTER
  0
LAYER
  2
3
 70
     0
 62
     3
  6
CONTINUOUS
  0
ENDTAB
  0
TABLE
  2
STYLE
 70
     3
  0
STYLE
  2
STANDARD
 70
     0
 40
0.0
 41
1.0
 50
0.0
 71
     0
 42
0.2
  3
SIMPLEX
  4
BIGFONT
  0
STYLE
  2
ANNOTATIVE
 70
     0
 40
0.0
 41
1.0
 50
0.0
 71
     0
 42
0.2
  3
txt
  4

  0
STYLE
  2
STANDARD1
 70
     0
 40
0.0
 41
1.0
 50
0.0
 71
     0
 42
3.0
  3
txt
  4

  0
ENDTAB
  0
TABLE
  2
VIEW
 70
     0
  0
ENDTAB
  0
TABLE
  2
UCS
 70
     0
  0
ENDTAB
  0
TABLE
  2
APPID
 70
    29
  0
APPID
  2
ACAD
 70
     0
  0
APPID
  2
ACADANNOTATIVE
 70
     0
  0
APPID
  2
GENIUS_GENOREF_13
 70
     0
  0
APPID
  2
GENIUS_GENOENT_13
 70
     0
  0
APPID
  2
GENIUS_GENBH_13
 70
     0
  0
APPID
  2
GENIUS_GENOBJ_13
 70
     0
  0
APPID
  2
GENIUS_GENODEF_13
 70
     0
  0
APPID
  2
GENIUS_GENOLIS_13
 70
     0
  0
APPID
  2
GENIUS_GENOBJ-NBEHI-BHF_13
 70
     0
  0
APPID
  2
GENIUS_GENOBJ-NBEHI-BHB_13
 70
     0
  0
APPID
  2
GENIUS_GENOBJ-F-PART_13
 70
     0
  0
APPID
  2
GENIUS_GEFSTDP_13
 70
     0
  0
APPID
  2
GENIUS_GENOBJ-N-RSSYM_13
 70
     0
  0
APPID
  2
GENIUS_GENSYMENT_13
 70
     0
  0
APPID
  2
GENIUS_GENOBJ-N-TIT_13
 70
     0
  0
APPID
  2
GENIUS_GENTITLE_13
 70
     0
  0
APPID
  2
GENIUS_GENZVEED_13
 70
     0
  0
APPID
  2
GENIUS_GENOBJ-N-LEADER_13
 70
     0
  0
APPID
  2
GENIUS_GENOBJ-N-FIL_13
 70
     0
  0
APPID
  2
GENIUS_GENOBJ-N-SEC_13
 70
     0
  0
APPID
  2
GENIUS_GENOBJ-N-CRS_13
 70
     0
  0
APPID
  2
GENIUS_GENOBJ-N-ZOO_13
 70
     0
  0
APPID
  2
GENIUS_GENZOO_13
 70
     0
  0
APPID
  2
GENIUS_GENOBJ-F-TOL_13
 70
     0
  0
APPID
  2
GENIUS_GENFIL_13
 70
     0
  0
APPID
  2
GENIUS_GENOBJ-N-CHA_13
 70
     0
  0
APPID
  2
ACAD_EXEMPT_FROM_CAD_STANDARDS
 70
     0
  0
APPID
  2
ACAD_MLEADERVER
 70
     0
  0
APPID
  2
ACAD_NAV_VCDISPLAY
 70
     0
  0
ENDTAB
  0
TABLE
  2
DIMSTYLE
 70
     2
  0
DIMSTYLE
  2
STANDARD
 70
     0
  3

  4

  5

  6

  7

 40
1.0
 41
0.18
 42
0.0625
 43
0.38
 44
0.18
 45
0.0
 46
0.0
 47
0.0
 48
0.0
140
0.18
141
0.09
142
0.0
143
25.399999999999999
144
1.0
145
0.0
146
1.0
147
0.09
 71
     0
 72
     0
 73
     1
 74
     1
 75
     0
 76
     0
 77
     0
 78
     0
170
     0
171
     2
172
     0
173
     0
174
     0
175
     0
176
     0
177
     0
178
     0
  0
DIMSTYLE
  2
ANNOTATIVE
 70
     0
  3

  4

  5

  6

  7

 40
1.0
 41
0.18
 42
0.0625
 43
0.38
 44
0.18
 45
0.0
 46
0.0
 47
0.0
 48
0.0
140
0.18
141
0.09
142
0.0
143
25.399999999999999
144
1.0
145
0.0
146
1.0
147
0.09
 71
     0
 72
     0
 73
     1
 74
     1
 75
     0
 76
     0
 77
     0
 78
     0
170
     0
171
     2
172
     0
173
     0
174
     0
175
     0
176
     0
177
     0
178
     0
  0
ENDTAB
  0
ENDSEC
  0
SECTION
  2
BLOCKS
  0
BLOCK
  8
0
  2
$MODEL_SPACE
 70
     0
 10
0.0
 20
0.0
 30
0.0
  3
$MODEL_SPACE
  1

  0
ENDBLK
  5
36F0
  8
0
  0
BLOCK
 67
     1
  8
0
  2
$PAPER_SPACE
 70
     0
 10
0.0
 20
0.0
 30
0.0
  3
$PAPER_SPACE
  1

  0
ENDBLK
  5
36EC
 67
     1
  8
0
  0
ENDSEC
  0
SECTION
  2
ENTITIES
  0
CIRCLE
  5
333B
  8
0
 10
55.628415155319317
 20
222.3976193003962
 30
0.0
 40
8.25
  0
LINE
  5
333C
  8
0
 10
45.813460579095697
 20
222.3976193003962
 30
0.0
 11
50.720937867207461
 21
213.89761930039629
 31
0.0
  0
LINE
  5
333D
  8
0
 10
50.72093786720756
 20
230.8976193003962
 30
0.0
 11
45.813460579095697
 21
222.3976193003962
 31
0.0
  0
LINE
  5
333E
  8
0
 10
60.53589244343118
 20
230.8976193003962
 30
0.0
 11
50.72093786720756
 21
230.8976193003962
 31
0.0
  0
LINE
  5
333F
  8
0
 10
65.44336973154293
 20
222.3976193003962
 30
0.0
 11
60.53589244343118
 21
230.8976193003962
 31
0.0
  0
LINE
  5
3340
  8
0
 10
60.53589244343118
 20
213.8976193003962
 30
0.0
 11
65.44336973154293
 21
222.3976193003962
 31
0.0
  0
LINE
  5
3341
  8
0
 10
50.720937867207461
 20
213.89761930039629
 30
0.0
 11
60.53589244343118
 21
213.8976193003962
 31
0.0
  0
CIRCLE
  5
3342
  8
3
 10
55.628415155319317
 20
222.3976193003962
 30
0.0
 40
4.1879999999999979
  0
CIRCLE
  5
3343
  8
0
 10
55.628415155319317
 20
222.3976193003962
 30
0.0
 40
5.0
  0
LINE
  5
3344
  8
0
 10
151.07265662101921
 20
58.441632982492351
 30
0.0
 11
151.07265662101921
 21
62.44163298249191
 31
0.0
  0
LINE
  5
3345
  8
0
 10
140.07265662101921
 20
58.441632982492351
 30
0.0
 11
140.07265662101921
 21
62.44163298249191
 31
0.0
  0
ARC
  5
3346
  8
0
 10
139.5104787945281
 20
63.708040677609119
 30
0.0
 40
3.5781518477924039
 50
55.615752531961313
 51
115.6157525321742
  0
ARC
  5
3347
  8
0
 10
145.57265662102
 20
53.911407307747709
 30
0.0
 40
13.374785217653811
 50
72.412046225995155
 51
107.5879537740048
  0
LINE
  5
3348
  8
0
 10
137.48975285236421
 20
66.66097774306229
 30
0.0
 11
138.841887390251
 21
67.441632982491797
 31
0.0
  0
LINE
  5
3349
  8
0
 10
137.48975285236421
 20
63.222288221921403
 30
0.0
 11
138.841887390251
 21
62.44163298249191
 31
0.0
  0
ARC
  5
334A
  8
0
 10
139.5104787945281
 20
66.175225287374587
 30
0.0
 40
3.5781518477924039
 50
244.3842474678257
 51
304.38424746803872
  0
ARC
  5
334B
  8
0
 10
145.57265662102
 20
75.97185865723587
 30
0.0
 40
13.374785217653811
 50
252.4120462259952
 51
287.5879537740048
  0
LINE
  5
334C
  8
0
 10
137.48975285236421
 20
66.66097774306229
 30
0.0
 11
137.48975285236421
 21
63.222288221921403
 31
0.0
  0
LINE
  5
334D
  8
0
 10
141.5312047366933
 20
66.660977743061039
 30
0.0
 11
141.53120473669151
 21
63.222288221923108
 31
0.0
  0
LINE
  5
334E
  8
0
 10
149.6141085053444
 20
66.660977743062745
 30
0.0
 11
149.61410850534639
 21
63.222288221923108
 31
0.0
  0
LINE
  5
334F
  8
0
 10
153.65556038967381
 20
66.66097774306229
 30
0.0
 11
153.65556038967381
 21
63.222288221921403
 31
0.0
  0
ARC
  5
3350
  8
0
 10
151.63483444751
 20
66.175225287374587
 30
0.0
 40
3.5781518477924039
 50
235.61575253196131
 51
295.61575253217421
  0
LINE
  5
3351
  8
0
 10
153.65556038967381
 20
63.222288221921403
 30
0.0
 11
152.3034258517871
 21
62.44163298249191
 31
0.0
  0
LINE
  5
3352
  8
0
 10
153.65556038967381
 20
66.66097774306229
 30
0.0
 11
152.3034258517871
 21
67.441632982491797
 31
0.0
  0
ARC
  5
3353
  8
0
 10
151.63483444751
 20
63.708040677609119
 30
0.0
 40
3.5781518477924039
 50
64.384247467825773
 51
124.38424746803869
  0
LINE
  5
3354
  8
0
 10
138.84188739024989
 20
67.441632982491797
 30
0.0
 11
152.30342585178681
 21
67.441632982491797
 31
0.0
  0
LINE
  5
3355
  8
0
 10
152.3034258517871
 20
62.44163298249191
 30
0.0
 11
138.8418873902512
 21
62.44163298249191
 31
0.0
  0
ARC
  5
3356
  8
0
 10
149.82265662101881
 20
75.02178877677747
 30
0.0
 40
12.275506638416489
 50
69.743841999604243
 51
110.2561580003957
  0
LINE
  5
3357
  8
0
 10
154.07265662101901
 20
87.297295415194057
 30
0.0
 11
153.8226566210179
 21
87.44163298249201
 31
0.0
  0
LINE
  5
3358
  8
0
 10
154.07265662101921
 20
79.585970549789764
 30
0.0
 11
153.82265662101801
 21
79.441632982491683
 31
0.0
  0
ARC
  5
3359
  8
0
 10
149.82265662101881
 20
91.861477188206081
 30
0.0
 40
12.275506638416489
 50
249.74384199960431
 51
290.25615800039583
  0
LINE
  5
335A
  8
0
 10
154.07265662101901
 20
87.297295415194057
 30
0.0
 11
154.07265662101889
 21
79.585970549789764
 31
0.0
  0
LINE
  5
335B
  8
0
 10
145.57265662101881
 20
86.538106036639732
 30
0.0
 11
145.57265662101881
 21
80.345159928343847
 31
0.0
  0
LINE
  5
335C
  8
0
 10
137.07265662101869
 20
87.297295415194057
 30
0.0
 11
137.07265662101881
 21
79.585970549789764
 31
0.0
  0
LINE
  5
335D
  8
0
 10
137.07265662101881
 20
79.585970549789764
 30
0.0
 11
137.32265662102
 21
79.441632982491683
 31
0.0
  0
ARC
  5
335E
  8
0
 10
141.32265662101881
 20
91.861477188206081
 30
0.0
 40
12.275506638416489
 50
249.74384199960431
 51
290.25615800039583
  0
LINE
  5
335F
  8
0
 10
137.07265662101869
 20
87.297295415194057
 30
0.0
 11
137.32265662101989
 21
87.44163298249201
 31
0.0
  0
ARC
  5
3360
  8
0
 10
141.32265662101881
 20
75.02178877677747
 30
0.0
 40
12.275506638416489
 50
69.743841999604243
 51
110.2561580003957
  0
LINE
  5
3361
  8
0
 10
153.8226566210179
 20
87.44163298249201
 30
0.0
 11
137.32265662101989
 21
87.44163298249201
 31
0.0
  0
LINE
  5
3362
  8
0
 10
137.32265662101881
 20
79.441632982492266
 30
0.0
 11
153.82265662101881
 21
79.441632982492266
 31
0.0
  0
LINE
  5
3363
  8
0
 10
140.57265662101881
 20
163.94163298249251
 30
0.0
 11
150.57265662101881
 21
163.94163298249211
 31
0.0
  0
LINE
  5
3364
  8
3
 10
149.760656621019
 20
69.441632982492024
 30
0.0
 11
150.57265662101881
 21
68.035207726746194
 31
0.0
  0
LINE
  5
3365
  8
3
 10
141.38465662101879
 20
69.441632982492024
 30
0.0
 11
140.57265662101881
 21
68.035207726746194
 31
0.0
  0
LINE
  5
3366
  8
0
 10
140.57265662101881
 20
69.441632982492024
 30
0.0
 11
150.57265662101881
 21
69.441632982491797
 31
0.0
  0
LINE
  5
3367
  8
0
 10
149.07265662101881
 20
165.44163298249211
 30
0.0
 11
150.57265662101881
 21
163.94163298249211
 31
0.0
  0
LINE
  5
3368
  8
0
 10
140.57265662101881
 20
163.94163298249251
 30
0.0
 11
142.07265662101881
 21
165.44163298249251
 31
0.0
  0
LINE
  5
3369
  8
3
 10
141.38465662101879
 20
69.44163298249191
 30
0.0
 11
141.3846566210191
 21
79.441632982492266
 31
0.0
  0
LINE
  5
336A
  8
3
 10
149.76065662101919
 20
69.441632982491797
 30
0.0
 11
149.76065662101919
 21
79.441632982492266
 31
0.0
  0
LINE
  5
336B
  8
0
 10
142.07265662101881
 20
165.44163298249251
 30
0.0
 11
149.07265662101881
 21
165.44163298249211
 31
0.0
  0
LINE
  5
336C
  8
0
 10
140.57265662101881
 20
67.441632982491797
 30
0.0
 11
140.57265662101881
 21
79.441632982492266
 31
0.0
  0
LINE
  5
336D
  8
0
 10
150.57265662101881
 20
67.441632982491797
 30
0.0
 11
150.57265662101881
 21
79.441632982492266
 31
0.0
  0
LINE
  5
336E
  8
3
 10
149.76065662101911
 20
87.44163298249201
 30
0.0
 11
149.760656621019
 21
164.75363298249209
 31
0.0
  0
LINE
  5
336F
  8
0
 10
150.57265662101881
 20
87.44163298249201
 30
0.0
 11
150.57265662101881
 21
163.94163298249211
 31
0.0
  0
LINE
  5
3370
  8
0
 10
140.57265662101881
 20
87.44163298249201
 30
0.0
 11
140.57265662101881
 21
163.94163298249251
 31
0.0
  0
LINE
  5
3371
  8
3
 10
141.38465662101871
 20
87.44163298249201
 30
0.0
 11
141.38465662101879
 21
164.75363298249221
 31
0.0
  0
LINE
  5
3372
  8
0
 10
50.628415155319203
 20
87.441632982492223
 30
0.0
 11
50.628415155319317
 21
163.94163298249251
 31
0.0
  0
LINE
  5
3373
  8
3
 10
51.440415155319101
 20
87.441632982492223
 30
0.0
 11
51.440415155319208
 21
164.75363298249221
 31
0.0
  0
LINE
  5
3374
  8
0
 10
60.628415155319203
 20
87.441632982492123
 30
0.0
 11
60.628415155319317
 21
163.94163298249211
 31
0.0
  0
LINE
  5
3375
  8
3
 10
59.816415155319291
 20
87.441632982492123
 30
0.0
 11
59.816415155319433
 21
164.75363298249209
 31
0.0
  0
LINE
  5
3376
  8
0
 10
50.628415155319317
 20
163.94163298249251
 30
0.0
 11
60.628415155319317
 21
163.94163298249211
 31
0.0
  0
LINE
  5
3377
  8
3
 10
59.816415155319433
 20
69.441632982492592
 30
0.0
 11
60.628415155319317
 21
68.035207726746762
 31
0.0
  0
LINE
  5
3378
  8
3
 10
51.440415155319208
 20
69.441632982492592
 30
0.0
 11
50.628415155319317
 21
68.035207726746762
 31
0.0
  0
LINE
  5
3379
  8
0
 10
50.628415155319317
 20
69.441632982492592
 30
0.0
 11
60.628415155319317
 21
69.441632982492479
 31
0.0
  0
LINE
  5
337A
  8
0
 10
59.128415155319317
 20
165.44163298249211
 30
0.0
 11
60.628415155319317
 21
163.94163298249211
 31
0.0
  0
LINE
  5
337B
  8
0
 10
50.628415155319317
 20
163.94163298249251
 30
0.0
 11
52.128415155319303
 21
165.44163298249251
 31
0.0
  0
LINE
  5
337C
  8
0
 10
50.628415155319317
 20
67.441632982492251
 30
0.0
 11
50.628415155319317
 21
79.441632982492266
 31
0.0
  0
LINE
  5
337D
  8
3
 10
51.440415155319208
 20
69.441632982492592
 30
0.0
 11
51.440415155319208
 21
79.441632982492266
 31
0.0
  0
LINE
  5
337E
  8
3
 10
59.816415155319433
 20
69.441632982492479
 30
0.0
 11
59.816415155319433
 21
79.441632982492266
 31
0.0
  0
LINE
  5
337F
  8
0
 10
60.628415155319317
 20
67.441632982492251
 30
0.0
 11
60.628415155319317
 21
79.441632982492266
 31
0.0
  0
LINE
  5
3380
  8
0
 10
52.128415155319303
 20
165.44163298249251
 30
0.0
 11
59.128415155319317
 21
165.44163298249211
 31
0.0
  0
LINE
  5
3381
  8
0
 10
63.878415155320241
 20
79.441632982492266
 30
0.0
 11
47.37841515531953
 21
79.441632982492266
 31
0.0
  0
LINE
  5
3382
  8
0
 10
47.378415155319779
 20
87.441632982492223
 30
0.0
 11
63.878415155320113
 21
87.44163298249201
 31
0.0
  0
ARC
  5
3383
  8
0
 10
62.989631087487503
 20
82.952396742870718
 30
0.0
 40
4.3448986723233833
 50
64.384247467891299
 51
124.3842474680048
  0
LINE
  5
3384
  8
0
 10
65.443369731543385
 20
86.538106036640116
 30
0.0
 11
63.878415155319878
 21
87.441632982492223
 31
0.0
  0
LINE
  5
3385
  8
0
 10
65.443369731543498
 20
80.345159928344259
 30
0.0
 11
63.878415155319999
 21
79.441632982492024
 31
0.0
  0
ARC
  5
3386
  8
0
 10
62.989631087487624
 20
83.930869222113714
 30
0.0
 40
4.3448986723233833
 50
235.61575253199521
 51
295.61575253210867
  0
LINE
  5
3387
  8
0
 10
65.443369731543385
 20
86.538106036639974
 30
0.0
 11
65.443369731543498
 21
80.345159928344259
 31
0.0
  0
LINE
  5
3388
  8
0
 10
60.53589244343253
 20
86.538106036640116
 30
0.0
 11
60.535892443432211
 21
80.345159928344032
 31
0.0
  0
LINE
  5
3389
  8
0
 10
50.720937867206992
 20
86.538106036640116
 30
0.0
 11
50.720937867207681
 21
80.345159928344032
 31
0.0
  0
LINE
  5
338A
  8
0
 10
45.813460579096137
 20
86.538106036639974
 30
0.0
 11
45.813460579096272
 21
80.345159928344259
 31
0.0
  0
ARC
  5
338B
  8
0
 10
55.628415155319317
 20
95.826781171256926
 30
0.0
 40
16.24081062146659
 50
252.4120462260268
 51
287.5879537739724
  0
ARC
  5
338C
  8
0
 10
48.267199223152147
 20
83.930869222113714
 30
0.0
 40
4.3448986723233833
 50
244.3842474678913
 51
304.38424746800479
  0
LINE
  5
338D
  8
0
 10
45.813460579096272
 20
80.345159928344259
 30
0.0
 11
47.378415155319892
 21
79.441632982492024
 31
0.0
  0
LINE
  5
338E
  8
0
 10
45.813460579096137
 20
86.538106036640116
 30
0.0
 11
47.378415155319779
 21
87.441632982492223
 31
0.0
  0
ARC
  5
338F
  8
0
 10
55.628415155319203
 20
71.056484793727449
 30
0.0
 40
16.24081062146659
 50
72.412046226026817
 51
107.5879537739724
  0
ARC
  5
3390
  8
0
 10
48.267199223152019
 20
82.952396742870718
 30
0.0
 40
4.3448986723233833
 50
55.615752531995177
 51
115.6157525321087
  0
LINE
  5
3391
  8
0
 10
61.12841515531909
 20
58.441632982492351
 30
0.0
 11
61.12841515531909
 21
62.441632982492237
 31
0.0
  0
LINE
  5
3392
  8
0
 10
50.12841515531921
 20
58.441632982492351
 30
0.0
 11
50.12841515531921
 21
62.441632982492237
 31
0.0
  0
LINE
  5
3393
  8
0
 10
55.62841515531909
 20
66.660977743062745
 30
0.0
 11
55.62841515531909
 21
63.222288221921637
 31
0.0
  0
LINE
  5
3394
  8
0
 10
48.62841515531909
 20
67.28619252540193
 30
0.0
 11
48.62841515531909
 21
62.597073439582459
 31
0.0
  0
LINE
  5
3395
  8
0
 10
62.62841515531909
 20
67.28619252540193
 30
0.0
 11
62.62841515531909
 21
62.597073439582459
 31
0.0
  0
LINE
  5
3396
  8
0
 10
62.359184386087243
 20
67.441632982492251
 30
0.0
 11
48.897645924551043
 21
67.441632982492251
 31
0.0
  0
ARC
  5
3397
  8
0
 10
52.128415155319203
 20
57.176951764364503
 30
0.0
 40
10.10924076103746
 50
69.743841999583083
 51
110.2561580004169
  0
LINE
  5
3398
  8
0
 10
48.62841515531909
 20
67.28619252540193
 30
0.0
 11
48.897645924551043
 21
67.441632982492251
 31
0.0
  0
LINE
  5
3399
  8
0
 10
62.62841515531909
 20
67.28619252540193
 30
0.0
 11
62.359184386087243
 21
67.441632982492251
 31
0.0
  0
ARC
  5
339A
  8
0
 10
59.128415155319082
 20
57.176951764364503
 30
0.0
 40
10.10924076103746
 50
69.743841999583083
 51
110.2561580004169
  0
LINE
  5
339B
  8
0
 10
62.359184386087243
 20
62.441632982492237
 30
0.0
 11
48.897645924551043
 21
62.441632982492237
 31
0.0
  0
ARC
  5
339C
  8
0
 10
52.128415155319203
 20
72.706314200619872
 30
0.0
 40
10.10924076103746
 50
249.74384199958311
 51
290.25615800041692
  0
LINE
  5
339D
  8
0
 10
48.62841515531909
 20
62.597073439582459
 30
0.0
 11
48.897645924551043
 21
62.441632982492237
 31
0.0
  0
LINE
  5
339E
  8
0
 10
62.62841515531909
 20
62.597073439582459
 30
0.0
 11
62.359184386087243
 21
62.441632982492237
 31
0.0
  0
ARC
  5
339F
  8
0
 10
59.128415155319082
 20
72.706314200619872
 30
0.0
 40
10.10924076103746
 50
249.74384199958311
 51
290.25615800041692
  0
LINE
  5
33AE
  8
0
 10
85.628415155319303
 20
34.941632982492372
 30
0.0
 11
85.128415155319288
 21
34.441632982492358
 31
0.0
  0
LINE
  5
33AF
  8
0
 10
85.628415155319303
 20
34.941632982492372
 30
0.0
 11
85.628415155319303
 21
43.30925222455415
 31
0.0
  0
LINE
  5
33B0
  8
0
 10
26.12841515531932
 20
34.441632982492358
 30
0.0
 11
85.128415155319061
 21
34.441632982492358
 31
0.0
  0
LINE
  5
33B1
  8
0
 10
26.12841515531932
 20
31.441632982492379
 30
0.0
 11
85.128415155319288
 21
31.441632982492312
 31
0.0
  0
LINE
  5
33B2
  8
0
 10
85.128415155319288
 20
31.441632982492251
 30
0.0
 11
85.128415155319061
 21
34.441632982492358
 31
0.0
  0
LINE
  5
33B4
  8
0
 10
30.62841515531932
 20
47.441632982492358
 30
0.0
 11
80.628415155319303
 21
47.441632982492237
 31
0.0
  0
LINE
  5
33B5
  8
0
 10
35.628415155319317
 20
52.441632982492372
 30
0.0
 11
75.628415155319303
 21
52.441632982492237
 31
0.0
  0
LINE
  5
33B6
  8
0
 10
40.62841515531931
 20
56.441632982492351
 30
0.0
 11
70.628415155319303
 21
56.441632982492351
 31
0.0
  0
LINE
  5
33B7
  8
0
 10
75.628415155319303
 20
52.441632982492237
 30
0.0
 11
75.628415155319303
 21
53.087567059638431
 31
0.0
  0
LINE
  5
33B8
  8
0
 10
80.628415155319303
 20
47.441632982492237
 30
0.0
 11
80.628415155319303
 21
48.309252224554129
 31
0.0
  0
LINE
  5
33B9
  8
0
 10
75.628415155319303
 20
52.441632982492237
 30
0.0
 11
79.657406666174438
 21
50.02423807597927
 31
0.0
  0
LINE
  5
33BA
  8
0
 10
70.628415155319303
 20
56.441632982492251
 30
0.0
 11
74.371196508027424
 21
54.944520441409047
 31
0.0
  0
LINE
  5
33BB
  8
0
 10
42.62841515531931
 20
58.441632982492351
 30
0.0
 11
68.628415155319317
 21
58.441632982492351
 31
0.0
  0
LINE
  5
33BC
  8
0
 10
70.628415155319303
 20
56.441632982492251
 30
0.0
 11
70.628415155319303
 21
56.441632982492351
 31
0.0
  0
LINE
  5
33BD
  8
0
 10
80.628415155319303
 20
47.441632982492237
 30
0.0
 11
84.657406666174438
 21
45.02423807597927
 31
0.0
  0
ARC
  5
33BE
  8
0
 10
68.628415155319317
 20
56.441632982492351
 30
0.0
 40
2.0
 50
0.0000000000008142
 51
89.999999999999943
  0
ARC
  5
33BF
  8
0
 10
73.628415155319303
 20
53.087567059638431
 30
0.0
 40
2.0
 50
359.9999999999992
 51
68.198590513648284
  0
ARC
  5
33C0
  8
0
 10
78.628415155319303
 20
48.309252224554129
 30
0.0
 40
2.0
 50
0.0
 51
59.036243467926177
  0
ARC
  5
33C1
  8
0
 10
83.628415155319317
 20
43.30925222455415
 30
0.0
 40
2.0
 50
359.9999999999996
 51
59.036243467926461
  0
ARC
  5
33C2
  8
0
 10
27.62841515531932
 20
43.30925222455415
 30
0.0
 40
2.0
 50
120.9637565320735
 51
180.0000000000004
  0
ARC
  5
33C3
  8
0
 10
32.628415155319317
 20
48.309252224554129
 30
0.0
 40
2.0
 50
120.9637565320738
 51
180.0
  0
ARC
  5
33C4
  8
0
 10
37.628415155319317
 20
53.087567059638431
 30
0.0
 40
2.0
 50
111.8014094863517
 51
180.0000000000008
  0
ARC
  5
33C5
  8
0
 10
42.62841515531931
 20
56.441632982492351
 30
0.0
 40
2.0
 50
90.000000000000057
 51
179.9999999999992
  0
LINE
  5
33C6
  8
0
 10
30.62841515531932
 20
47.441632982492237
 30
0.0
 11
26.599423644464199
 21
45.02423807597927
 31
0.0
  0
LINE
  5
33C7
  8
0
 10
40.62841515531931
 20
56.441632982492251
 30
0.0
 11
40.62841515531931
 21
56.441632982492351
 31
0.0
  0
LINE
  5
33C8
  8
0
 10
40.62841515531931
 20
56.441632982492251
 30
0.0
 11
36.885633802611103
 21
54.944520441409047
 31
0.0
  0
LINE
  5
33C9
  8
0
 10
35.628415155319203
 20
52.441632982492237
 30
0.0
 11
31.599423644464199
 21
50.02423807597927
 31
0.0
  0
LINE
  5
33CA
  8
0
 10
30.62841515531932
 20
47.441632982492237
 30
0.0
 11
30.62841515531932
 21
48.309252224554129
 31
0.0
  0
LINE
  5
33CB
  8
0
 10
35.628415155319317
 20
52.441632982492237
 30
0.0
 11
35.628415155319317
 21
53.087567059638431
 31
0.0
  0
LINE
  5
33CC
  8
0
 10
26.12841515531932
 20
31.441632982492251
 30
0.0
 11
26.128415155319431
 21
34.441632982492358
 31
0.0
  0
LINE
  5
33CD
  8
0
 10
25.62841515531932
 20
34.941632982492372
 30
0.0
 11
25.62841515531932
 21
43.30925222455415
 31
0.0
  0
LINE
  5
33CE
  8
0
 10
25.62841515531932
 20
34.941632982492372
 30
0.0
 11
26.12841515531932
 21
34.441632982492358
 31
0.0
  0
LINE
  5
33CF
  8
0
 10
115.57265662101879
 20
34.941632982492372
 30
0.0
 11
116.07265662101879
 21
34.441632982492358
 31
0.0
  0
LINE
  5
33D0
  8
0
 10
115.57265662101879
 20
34.941632982492372
 30
0.0
 11
115.57265662101879
 21
43.30925222455415
 31
0.0
  0
LINE
  5
33D1
  8
0
 10
116.07265662101879
 20
31.441632982492251
 30
0.0
 11
116.07265662101879
 21
34.441632982492358
 31
0.0
  0
LINE
  5
33D2
  8
0
 10
125.57265662101879
 20
52.441632982492237
 30
0.0
 11
125.57265662101879
 21
53.087567059638431
 31
0.0
  0
LINE
  5
33D3
  8
0
 10
120.57265662101879
 20
47.441632982492237
 30
0.0
 11
120.57265662101879
 21
48.309252224554129
 31
0.0
  0
LINE
  5
33D4
  8
0
 10
125.57265662101879
 20
52.441632982492237
 30
0.0
 11
121.5436651101638
 21
50.02423807597927
 31
0.0
  0
LINE
  5
33D5
  8
0
 10
130.57265662101881
 20
56.441632982492251
 30
0.0
 11
126.8298752683106
 21
54.944520441409047
 31
0.0
  0
LINE
  5
33D6
  8
0
 10
130.57265662101881
 20
56.441632982492251
 30
0.0
 11
130.57265662101881
 21
56.441632982492351
 31
0.0
  0
LINE
  5
33D7
  8
0
 10
120.57265662101879
 20
47.441632982492237
 30
0.0
 11
116.5436651101638
 21
45.02423807597927
 31
0.0
  0
ARC
  5
33D8
  8
0
 10
132.57265662101881
 20
56.441632982492351
 30
0.0
 40
2.0
 50
90.000000000000057
 51
179.9999999999992
  0
ARC
  5
33D9
  8
0
 10
127.57265662101879
 20
53.087567059638431
 30
0.0
 40
2.0
 50
111.8014094863517
 51
180.0000000000008
  0
ARC
  5
33DA
  8
0
 10
122.57265662101879
 20
48.309252224554129
 30
0.0
 40
2.0
 50
120.9637565320738
 51
180.0
  0
ARC
  5
33DB
  8
0
 10
117.57265662101889
 20
43.30925222455415
 30
0.0
 40
2.0
 50
120.9637565320735
 51
180.0000000000004
  0
ARC
  5
33DC
  8
0
 10
173.57265662101881
 20
43.30925222455415
 30
0.0
 40
2.0
 50
359.9999999999996
 51
59.036243467926461
  0
ARC
  5
33DD
  8
0
 10
168.57265662101881
 20
48.309252224554129
 30
0.0
 40
2.0
 50
0.0
 51
59.036243467926177
  0
ARC
  5
33DE
  8
0
 10
163.57265662101881
 20
53.087567059638431
 30
0.0
 40
2.0
 50
359.9999999999992
 51
68.198590513648284
  0
ARC
  5
33DF
  8
0
 10
158.57265662101881
 20
56.441632982492351
 30
0.0
 40
2.0
 50
0.0000000000008142
 51
89.999999999999943
  0
LINE
  5
33E0
  8
0
 10
170.57265662101881
 20
47.441632982492237
 30
0.0
 11
174.60164813187399
 21
45.02423807597927
 31
0.0
  0
LINE
  5
33E1
  8
0
 10
160.57265662101881
 20
56.441632982492251
 30
0.0
 11
160.57265662101881
 21
56.441632982492351
 31
0.0
  0
LINE
  5
33E2
  8
0
 10
132.57265662101881
 20
58.441632982492351
 30
0.0
 11
158.57265662101881
 21
58.441632982492351
 31
0.0
  0
LINE
  5
33E3
  8
0
 10
160.57265662101881
 20
56.441632982492251
 30
0.0
 11
164.315437973727
 21
54.944520441409047
 31
0.0
  0
LINE
  5
33E4
  8
0
 10
165.57265662101881
 20
52.441632982492237
 30
0.0
 11
169.6016481318741
 21
50.02423807597927
 31
0.0
  0
LINE
  5
33E5
  8
0
 10
170.57265662101881
 20
47.441632982492237
 30
0.0
 11
170.57265662101881
 21
48.309252224554129
 31
0.0
  0
LINE
  5
33E6
  8
0
 10
165.57265662101881
 20
52.441632982492237
 30
0.0
 11
165.57265662101881
 21
53.087567059638431
 31
0.0
  0
LINE
  5
33E7
  8
0
 10
130.57265662101881
 20
56.441632982492351
 30
0.0
 11
160.57265662101881
 21
56.441632982492351
 31
0.0
  0
LINE
  5
33E8
  8
0
 10
125.57265662101879
 20
52.441632982492372
 30
0.0
 11
165.57265662101881
 21
52.441632982492237
 31
0.0
  0
LINE
  5
33E9
  8
0
 10
120.57265662101879
 20
47.441632982492358
 30
0.0
 11
170.57265662101881
 21
47.441632982492237
 31
0.0
  0
LINE
  5
33EA
  8
0
 10
175.07265662101889
 20
31.441632982492251
 30
0.0
 11
175.07265662101861
 21
34.441632982492358
 31
0.0
  0
LINE
  5
33EB
  8
0
 10
116.07265662101879
 20
31.441632982492379
 30
0.0
 11
175.07265662101889
 21
31.441632982492312
 31
0.0
  0
LINE
  5
33EC
  8
0
 10
116.07265662101879
 20
34.441632982492358
 30
0.0
 11
175.07265662101861
 21
34.441632982492358
 31
0.0
  0
LINE
  5
33ED
  8
0
 10
175.57265662101881
 20
34.941632982492372
 30
0.0
 11
175.57265662101881
 21
43.30925222455415
 31
0.0
  0
LINE
  5
33EE
  8
0
 10
175.57265662101881
 20
34.941632982492372
 30
0.0
 11
175.07265662101889
 21
34.441632982492358
 31
0.0
  0
LINE
  5
33EF
  8
1
 10
55.62841515531909
 20
26.441632982492379
 30
0.0
 11
55.628415155319651
 21
170.44163298249231
 31
0.0
  0
CIRCLE
  5
33F1
  8
0
 10
55.628415155319203
 20
222.3976193003962
 30
0.0
 40
30.0
  0
CIRCLE
  5
33F2
  8
0
 10
55.628415155319203
 20
222.3976193003962
 30
0.0
 40
25.0
  0
CIRCLE
  5
33F3
  8
0
 10
55.628415155319203
 20
222.3976193003962
 30
0.0
 40
20.00000000000006
  0
CIRCLE
  5
33F4
  8
0
 10
55.628415155319317
 20
222.3976193003962
 30
0.0
 40
14.99999999999981
  0
LINE
  5
33F5
  8
1
 10
55.628415155319317
 20
257.39761930039617
 30
0.0
 11
55.628415155319317
 21
187.3976193003962
 31
0.0
  0
LINE
  5
33F6
  8
1
 10
90.628415155319445
 20
222.3976193003962
 30
0.0
 11
20.62841515531932
 21
222.3976193003962
 31
0.0
  0
LINE
  5
348C
  8
1
 10
145.57265662101881
 20
170.44163298249231
 30
0.0
 11
145.57265662101881
 21
26.441632982492379
 31
0.0
  0
TEXT
  5
3770
  8
0
 62
     3
 10
0.0
 20
0.0
 30
0.0
 40
10.0
  1
LVER60S10C
  7
STANDARD1
  0
ENDSEC
  0
EOF
