  0
SECTION
  2
HEADER
  9
$ACADVER
  1
AC1009
  9
$INSBASE
 10
0.0
 20
0.0
 30
0.0
  9
$EXTMIN
 10
0.0
 20
-2.960436562073669
 30
0.0
  9
$EXTMAX
 10
162.3964902574786
 20
197.38888458880299
 30
0.0
  9
$LIMMIN
 10
0.0
 20
0.0
  9
$LIMMAX
 10
375.0
 20
270.0
  9
$ORTHOMODE
 70
     1
  9
$REGENMODE
 70
     1
  9
$FILLMODE
 70
     1
  9
$QTEXTMODE
 70
     0
  9
$MIRRTEXT
 70
     0
  9
$DRAGMODE
 70
     2
  9
$LTSCALE
 40
6.0
  9
$OSMODE
 70
    37
  9
$ATTMODE
 70
     1
  9
$TEXTSIZE
 40
0.2
  9
$TRACEWID
 40
0.05
  9
$TEXTSTYLE
  7
STANDARD
  9
$CLAYER
  8
0
  9
$CELTYPE
  6
BYLAYER
  9
$CECOLOR
 62
   256
  9
$DIMSCALE
 40
1.0
  9
$DIMASZ
 40
3.0
  9
$DIMEXO
 40
1.0
  9
$DIMDLI
 40
6.0
  9
$DIMRND
 40
0.0
  9
$DIMDLE
 40
0.0
  9
$DIMEXE
 40
1.0
  9
$DIMTP
 40
495.0
  9
$DIMTM
 40
0.0
  9
$DIMTXT
 40
3.0
  9
$DIMCEN
 40
0.0
  9
$DIMTSZ
 40
0.0
  9
$DIMTOL
 70
     0
  9
$DIMLIM
 70
     0
  9
$DIMTIH
 70
     0
  9
$DIMTOH
 70
     0
  9
$DIMSE1
 70
     0
  9
$DIMSE2
 70
     0
  9
$DIMTAD
 70
     1
  9
$DIMZIN
 70
     0
  9
$DIMBLK
  1

  9
$DIMASO
 70
     0
  9
$DIMSHO
 70
     0
  9
$DIMPOST
  1

  9
$DIMAPOST
  1

  9
$DIMALT
 70
     0
  9
$DIMALTD
 70
     2
  9
$DIMALTF
 40
25.399999999999999
  9
$DIMLFAC
 40
1.0
  9
$DIMTOFL
 70
     1
  9
$DIMTVP
 40
0.0
  9
$DIMTIX
 70
     1
  9
$DIMSOXD
 70
     0
  9
$DIMSAH
 70
     0
  9
$DIMBLK1
  1

  9
$DIMBLK2
  1

  9
$DIMSTYLE
  2
STANDARD
  9
$DIMCLRD
 70
     0
  9
$DIMCLRE
 70
     0
  9
$DIMCLRT
 70
     4
  9
$DIMTFAC
 40
1.0
  9
$DIMGAP
 40
1.0
  9
$LUNITS
 70
     2
  9
$LUPREC
 70
     4
  9
$SKETCHINC
 40
0.1
  9
$FILLETRAD
 40
2.0
  9
$AUNITS
 70
     0
  9
$AUPREC
 70
     0
  9
$MENU
  1
C:\R13\WIN\SUPPORT\ACAD-I
  9
$ELEVATION
 40
0.0
  9
$PELEVATION
 40
0.0
  9
$THICKNESS
 40
0.0
  9
$LIMCHECK
 70
     0
  9
$BLIPMODE
 70
     0
  9
$CHAMFERA
 40
0.0
  9
$CHAMFERB
 40
0.0
  9
$SKPOLY
 70
     0
  9
$TDCREATE
 40
2451962.4078013892
  9
$TDUPDATE
 40
2456598.7222567592
  9
$TDINDWG
 40
0.0776706134
  9
$TDUSRTIMER
 40
2456598.0684661688
  9
$USRTIMER
 70
     1
  9
$ANGBASE
 50
0.0
  9
$ANGDIR
 70
     0
  9
$PDMODE
 70
     0
  9
$PDSIZE
 40
0.0
  9
$PLINEWID
 40
0.0
  9
$COORDS
 70
     1
  9
$SPLFRAME
 70
     0
  9
$SPLINETYPE
 70
     6
  9
$SPLINESEGS
 70
     8
  9
$ATTDIA
 70
     0
  9
$ATTREQ
 70
     1
  9
$HANDLING
 70
     1
  9
$HANDSEED
  5
39AA
  9
$SURFTAB1
 70
     6
  9
$SURFTAB2
 70
     6
  9
$SURFTYPE
 70
     6
  9
$SURFU
 70
     6
  9
$SURFV
 70
     6
  9
$UCSNAME
  2

  9
$UCSORG
 10
0.0
 20
0.0
 30
0.0
  9
$UCSXDIR
 10
1.0
 20
0.0
 30
0.0
  9
$UCSYDIR
 10
0.0
 20
1.0
 30
0.0
  9
$PUCSNAME
  2

  9
$PUCSORG
 10
0.0
 20
0.0
 30
0.0
  9
$PUCSXDIR
 10
1.0
 20
0.0
 30
0.0
  9
$PUCSYDIR
 10
0.0
 20
1.0
 30
0.0
  9
$USERI1
 70
     4
  9
$USERI2
 70
     1
  9
$USERI3
 70
     0
  9
$USERI4
 70
     0
  9
$USERI5
 70
     0
  9
$USERR1
 40
1.0
  9
$USERR2
 40
3.0
  9
$USERR3
 40
3.0
  9
$USERR4
 40
3.0
  9
$USERR5
 40
10.0
  9
$WORLDVIEW
 70
     1
  9
$SHADEDGE
 70
     3
  9
$SHADEDIF
 70
    70
  9
$TILEMODE
 70
     1
  9
$MAXACTVP
 70
    16
  9
$PLIMCHECK
 70
     0
  9
$PEXTMIN
 10
1.0000000000000000E+020
 20
1.0000000000000000E+020
 30
1.0000000000000000E+020
  9
$PEXTMAX
 10
-1.0000000000000000E+020
 20
-1.0000000000000000E+020
 30
-1.0000000000000000E+020
  9
$PLIMMIN
 10
0.0
 20
0.0
  9
$PLIMMAX
 10
12.0
 20
9.0
  9
$UNITMODE
 70
     0
  9
$VISRETAIN
 70
     0
  9
$PLINEGEN
 70
     0
  9
$PSLTSCALE
 70
     0
  0
ENDSEC
  0
SECTION
  2
TABLES
  0
TABLE
  2
VPORT
 70
     1
  0
VPORT
  2
*ACTIVE
 70
     0
 10
0.0
 20
0.0
 11
1.0
 21
1.0
 12
187.49427839065231
 22
177.52205812711131
 13
0.0
 23
0.0
 14
10.0
 24
10.0
 15
10.0
 25
10.0
 16
0.0
 26
0.0
 36
1.0
 17
0.0
 27
0.0
 37
0.0
 40
364.13085016302909
 41
1.755244755244755
 42
50.0
 43
0.0
 44
0.0
 50
0.0
 51
0.0
 71
    16
 72
   100
 73
     1
 74
     0
 75
     0
 76
     0
 77
     0
 78
     0
  0
ENDTAB
  0
TABLE
  2
LTYPE
 70
     3
  0
LTYPE
  2
CONTINUOUS
 70
     0
  3
Solid Line
 72
    65
 73
     0
 40
0.0
  0
LTYPE
  2
PHANTOM2
 70
     0
  3
___ _ _ ___ _ _ ___ _ _ ___ _ _
 72
    65
 73
     6
 40
1.25
 49
0.625
 49
-0.125
 49
0.125
 49
-0.125
 49
0.125
 49
-0.125
  0
LTYPE
  2
CENTER
 70
     0
  3
____ _ ____ _ ____ _ ____ _ ____ _ ____ _ ____
 72
    65
 73
     4
 40
2.0
 49
1.25
 49
-0.25
 49
0.25
 49
-0.25
  0
ENDTAB
  0
TABLE
  2
LAYER
 70
     3
  0
LAYER
  2
0
 70
     0
 62
     7
  6
CONTINUOUS
  0
LAYER
  2
1
 70
     0
 62
     1
  6
CENTER
  0
LAYER
  2
3
 70
     0
 62
     3
  6
CONTINUOUS
  0
ENDTAB
  0
TABLE
  2
STYLE
 70
     3
  0
STYLE
  2
STANDARD
 70
     0
 40
0.0
 41
1.0
 50
0.0
 71
     0
 42
0.2
  3
SIMPLEX
  4
BIGFONT
  0
STYLE
  2
ANNOTATIVE
 70
     0
 40
0.0
 41
1.0
 50
0.0
 71
     0
 42
0.2
  3
txt
  4

  0
STYLE
  2
STANDARD1
 70
     0
 40
0.0
 41
1.0
 50
0.0
 71
     0
 42
3.0
  3
txt
  4

  0
ENDTAB
  0
TABLE
  2
VIEW
 70
     0
  0
ENDTAB
  0
TABLE
  2
UCS
 70
     0
  0
ENDTAB
  0
TABLE
  2
APPID
 70
    29
  0
APPID
  2
ACAD
 70
     0
  0
APPID
  2
ACADANNOTATIVE
 70
     0
  0
APPID
  2
GENIUS_GENOREF_13
 70
     0
  0
APPID
  2
GENIUS_GENOENT_13
 70
     0
  0
APPID
  2
GENIUS_GENBH_13
 70
     0
  0
APPID
  2
GENIUS_GENOBJ_13
 70
     0
  0
APPID
  2
GENIUS_GENODEF_13
 70
     0
  0
APPID
  2
GENIUS_GENOLIS_13
 70
     0
  0
APPID
  2
GENIUS_GENOBJ-NBEHI-BHF_13
 70
     0
  0
APPID
  2
GENIUS_GENOBJ-NBEHI-BHB_13
 70
     0
  0
APPID
  2
GENIUS_GENOBJ-F-PART_13
 70
     0
  0
APPID
  2
GENIUS_GEFSTDP_13
 70
     0
  0
APPID
  2
GENIUS_GENOBJ-N-RSSYM_13
 70
     0
  0
APPID
  2
GENIUS_GENSYMENT_13
 70
     0
  0
APPID
  2
GENIUS_GENOBJ-N-TIT_13
 70
     0
  0
APPID
  2
GENIUS_GENTITLE_13
 70
     0
  0
APPID
  2
GENIUS_GENZVEED_13
 70
     0
  0
APPID
  2
GENIUS_GENOBJ-N-LEADER_13
 70
     0
  0
APPID
  2
GENIUS_GENOBJ-N-FIL_13
 70
     0
  0
APPID
  2
GENIUS_GENOBJ-N-SEC_13
 70
     0
  0
APPID
  2
GENIUS_GENOBJ-N-CRS_13
 70
     0
  0
APPID
  2
GENIUS_GENOBJ-N-ZOO_13
 70
     0
  0
APPID
  2
GENIUS_GENZOO_13
 70
     0
  0
APPID
  2
GENIUS_GENOBJ-F-TOL_13
 70
     0
  0
APPID
  2
GENIUS_GENFIL_13
 70
     0
  0
APPID
  2
GENIUS_GENOBJ-N-CHA_13
 70
     0
  0
APPID
  2
ACAD_EXEMPT_FROM_CAD_STANDARDS
 70
     0
  0
APPID
  2
ACAD_MLEADERVER
 70
     0
  0
APPID
  2
ACAD_NAV_VCDISPLAY
 70
     0
  0
ENDTAB
  0
TABLE
  2
DIMSTYLE
 70
     2
  0
DIMSTYLE
  2
STANDARD
 70
     0
  3

  4

  5

  6

  7

 40
1.0
 41
0.18
 42
0.0625
 43
0.38
 44
0.18
 45
0.0
 46
0.0
 47
0.0
 48
0.0
140
0.18
141
0.09
142
0.0
143
25.399999999999999
144
1.0
145
0.0
146
1.0
147
0.09
 71
     0
 72
     0
 73
     1
 74
     1
 75
     0
 76
     0
 77
     0
 78
     0
170
     0
171
     2
172
     0
173
     0
174
     0
175
     0
176
     0
177
     0
178
     0
  0
DIMSTYLE
  2
ANNOTATIVE
 70
     0
  3

  4

  5

  6

  7

 40
1.0
 41
0.18
 42
0.0625
 43
0.38
 44
0.18
 45
0.0
 46
0.0
 47
0.0
 48
0.0
140
0.18
141
0.09
142
0.0
143
25.399999999999999
144
1.0
145
0.0
146
1.0
147
0.09
 71
     0
 72
     0
 73
     1
 74
     1
 75
     0
 76
     0
 77
     0
 78
     0
170
     0
171
     2
172
     0
173
     0
174
     0
175
     0
176
     0
177
     0
178
     0
  0
ENDTAB
  0
ENDSEC
  0
SECTION
  2
BLOCKS
  0
BLOCK
  8
0
  2
$MODEL_SPACE
 70
     0
 10
0.0
 20
0.0
 30
0.0
  3
$MODEL_SPACE
  1

  0
ENDBLK
  5
3871
  8
0
  0
BLOCK
 67
     1
  8
0
  2
$PAPER_SPACE
 70
     0
 10
0.0
 20
0.0
 30
0.0
  3
$PAPER_SPACE
  1

  0
ENDBLK
  5
386D
 67
     1
  8
0
  0
ENDSEC
  0
SECTION
  2
ENTITIES
  0
ARC
  5
34BE
  8
0
 10
104.3964902574787
 20
38.300517512961051
 30
0.0
 40
2.0
 50
120.9637565320735
 51
180.0000000000004
  0
ARC
  5
34BF
  8
0
 10
109.3964902574788
 20
43.300517512961051
 30
0.0
 40
2.0
 50
120.9637565320738
 51
180.0
  0
ARC
  5
34C0
  8
0
 10
114.3964902574788
 20
48.078832348045353
 30
0.0
 40
2.0
 50
111.8014094863517
 51
180.0000000000008
  0
ARC
  5
34C1
  8
0
 10
119.3964902574787
 20
51.432898270899273
 30
0.0
 40
2.0
 50
90.0
 51
179.9999999999992
  0
LINE
  5
34C2
  8
0
 10
107.3964902574788
 20
42.432898270899159
 30
0.0
 11
103.3674987466236
 21
40.015503364386177
 31
0.0
  0
LINE
  5
34C3
  8
0
 10
117.3964902574787
 20
51.432898270899152
 30
0.0
 11
117.3964902574787
 21
51.432898270899273
 31
0.0
  0
LINE
  5
34C4
  8
0
 10
117.3964902574787
 20
51.432898270899152
 30
0.0
 11
113.6537089047706
 21
49.935785729815962
 31
0.0
  0
LINE
  5
34C5
  8
0
 10
112.3964902574787
 20
47.432898270899159
 30
0.0
 11
108.3674987466237
 21
45.015503364386177
 31
0.0
  0
LINE
  5
34C6
  8
0
 10
107.3964902574788
 20
42.432898270899159
 30
0.0
 11
107.3964902574788
 21
43.300517512961051
 31
0.0
  0
LINE
  5
34C7
  8
0
 10
112.3964902574787
 20
47.432898270899159
 30
0.0
 11
112.3964902574788
 21
48.078832348045353
 31
0.0
  0
LINE
  5
34C8
  8
0
 10
102.8964902574788
 20
26.432898270899159
 30
0.0
 11
102.8964902574789
 21
29.432898270899269
 31
0.0
  0
LINE
  5
34C9
  8
0
 10
102.3964902574788
 20
29.932898270899269
 30
0.0
 11
102.3964902574787
 21
38.300517512961051
 31
0.0
  0
LINE
  5
34CA
  8
0
 10
102.3964902574788
 20
29.932898270899269
 30
0.0
 11
102.8964902574788
 21
29.432898270899269
 31
0.0
  0
LINE
  5
34D8
  8
1
 10
41.268443578920952
 20
21.432898270899269
 30
0.0
 11
41.268443578922238
 21
110.4328982708992
 31
0.0
  0
LINE
  5
34D9
  8
0
 10
35.268443578922188
 20
83.432898270899045
 30
0.0
 11
35.268443578922131
 21
103.4328982708992
 31
0.0
  0
LINE
  5
34DA
  8
3
 10
36.215443578922148
 20
83.432898270899045
 30
0.0
 11
36.215443578922148
 21
104.3798982708993
 31
0.0
  0
LINE
  5
34DB
  8
3
 10
46.321443578922242
 20
83.432898270899045
 30
0.0
 11
46.321443578922207
 21
104.37989827089901
 31
0.0
  0
LINE
  5
34DC
  8
0
 10
47.268443578922167
 20
83.432898270899045
 30
0.0
 11
47.26844357892216
 21
103.4328982708992
 31
0.0
  0
LINE
  5
34DD
  8
0
 10
46.753271136219489
 20
82.295717360273215
 30
0.0
 11
46.753271136223539
 21
74.570079181524648
 31
0.0
  0
LINE
  5
34DE
  8
0
 10
52.238098693525323
 20
82.295717360273215
 30
0.0
 11
52.238098693525266
 21
74.570079181524889
 31
0.0
  0
LINE
  5
34DF
  8
0
 10
35.783616021625107
 20
82.295717360273215
 30
0.0
 11
35.783616021620958
 21
74.570079181524648
 31
0.0
  0
LINE
  5
34E0
  8
0
 10
30.298788464319269
 20
82.295717360273215
 30
0.0
 11
30.29878846431922
 21
74.570079181524889
 31
0.0
  0
LINE
  5
34E1
  8
0
 10
30.29878846431922
 20
74.570079181524974
 30
0.0
 11
32.268443578920881
 21
73.432898270899159
 31
0.0
  0
ARC
  5
34E2
  8
0
 10
33.04120224296986
 20
78.577636627502443
 30
0.0
 40
4.8560632220084567
 50
244.3842474680873
 51
304.3842474680165
  0
ARC
  5
34E3
  8
0
 10
41.268443578922238
 20
91.873067629479465
 30
0.0
 40
18.15149422398537
 50
252.41204622603641
 51
287.5879537739637
  0
ARC
  5
34E4
  8
0
 10
49.49568491487463
 20
78.577636627502443
 30
0.0
 40
4.8560632220084567
 50
235.6157525319833
 51
295.61575253191268
  0
LINE
  5
34E5
  8
0
 10
52.238098693525266
 20
74.570079181524974
 30
0.0
 11
50.268443578923609
 21
73.432898270899159
 31
0.0
  0
LINE
  5
34E6
  8
0
 10
32.268443578920881
 20
73.432898270899159
 30
0.0
 11
50.268443578923609
 21
73.432898270899159
 31
0.0
  0
LINE
  5
34E7
  8
0
 10
32.26844357892093
 20
83.432898270899045
 30
0.0
 11
50.268443578923652
 21
83.432898270899045
 31
0.0
  0
LINE
  5
34E8
  8
0
 10
52.238098693525323
 20
82.295717360273215
 30
0.0
 11
50.268443578923652
 21
83.432898270899045
 31
0.0
  0
ARC
  5
34E9
  8
0
 10
49.49568491487468
 20
78.288159914295761
 30
0.0
 40
4.8560632220084567
 50
64.384247468087224
 51
124.3842474680165
  0
ARC
  5
34EA
  8
0
 10
41.268443578922302
 20
64.992728912318739
 30
0.0
 40
18.15149422398537
 50
72.412046226036352
 51
107.58795377396351
  0
ARC
  5
34EB
  8
0
 10
33.041202242969931
 20
78.288159914295761
 30
0.0
 40
4.8560632220084567
 50
55.615752531983382
 51
115.6157525319127
  0
LINE
  5
34EC
  8
0
 10
30.298788464319269
 20
82.295717360273215
 30
0.0
 11
32.26844357892093
 21
83.432898270899045
 31
0.0
  0
LINE
  5
34ED
  8
0
 10
37.268443578922131
 20
105.4328982708992
 30
0.0
 11
45.268443578922152
 21
105.4328982708992
 31
0.0
  0
LINE
  5
34EE
  8
0
 10
47.268443578922103
 20
62.432898270899152
 30
0.0
 11
47.268443578922103
 21
73.432898270899159
 31
0.0
  0
LINE
  5
34EF
  8
3
 10
46.321443578922143
 20
64.432898270899159
 30
0.0
 11
46.321443578922143
 21
73.432898270899159
 31
0.0
  0
LINE
  5
34F0
  8
3
 10
36.215443578922148
 20
64.432898270899159
 30
0.0
 11
36.215443578922077
 21
73.432898270899159
 31
0.0
  0
LINE
  5
34F1
  8
0
 10
35.268443578922131
 20
62.432898270899152
 30
0.0
 11
35.268443578922131
 21
73.432898270899159
 31
0.0
  0
LINE
  5
34F2
  8
0
 10
37.268443578922131
 20
105.4328982708992
 30
0.0
 11
35.268443578922131
 21
103.4328982708992
 31
0.0
  0
LINE
  5
34F3
  8
0
 10
45.268443578922152
 20
105.4328982708992
 30
0.0
 11
47.26844357892216
 21
103.4328982708992
 31
0.0
  0
LINE
  5
34F4
  8
0
 10
35.268443578922131
 20
103.4328982708992
 30
0.0
 11
47.268443578922209
 21
103.4328982708992
 31
0.0
  0
LINE
  5
34F5
  8
0
 10
47.268443578922103
 20
64.432898270899159
 30
0.0
 11
35.268443578922131
 21
64.432898270899159
 31
0.0
  0
LINE
  5
34F6
  8
3
 10
36.215443578922148
 20
64.432898270899159
 30
0.0
 11
35.268443578922131
 21
62.792646156131461
 31
0.0
  0
LINE
  5
34F7
  8
3
 10
46.3214435789221
 20
64.432898270899159
 30
0.0
 11
47.268443578922103
 21
62.792646156131461
 31
0.0
  0
ARC
  5
34F8
  8
0
 10
44.768443578921747
 20
67.697579489026339
 30
0.0
 40
10.10924076103746
 50
249.7438419995832
 51
290.25615800041669
  0
LINE
  5
34F9
  8
0
 10
48.268443578921882
 20
57.588338727988912
 30
0.0
 11
47.999212809689887
 21
57.432898270898711
 31
0.0
  0
LINE
  5
34FA
  8
0
 10
34.268443578921882
 20
57.588338727988912
 30
0.0
 11
34.537674348153857
 21
57.432898270898711
 31
0.0
  0
ARC
  5
34FB
  8
0
 10
37.768443578921989
 20
67.697579489026339
 30
0.0
 40
10.10924076103746
 50
249.7438419995832
 51
290.25615800041669
  0
LINE
  5
34FC
  8
0
 10
47.999212809689887
 20
57.432898270898711
 30
0.0
 11
34.537674348153857
 21
57.432898270898711
 31
0.0
  0
ARC
  5
34FD
  8
0
 10
44.768443578921747
 20
52.168217052770949
 30
0.0
 40
10.10924076103746
 50
69.743841999583282
 51
110.2561580004167
  0
LINE
  5
34FE
  8
0
 10
48.268443578921882
 20
62.277457813808383
 30
0.0
 11
47.999212809689887
 21
62.432898270898711
 31
0.0
  0
LINE
  5
34FF
  8
0
 10
34.268443578921882
 20
62.277457813808383
 30
0.0
 11
34.537674348153857
 21
62.432898270898711
 31
0.0
  0
ARC
  5
3500
  8
0
 10
37.768443578921989
 20
52.168217052770949
 30
0.0
 40
10.10924076103746
 50
69.743841999583282
 51
110.2561580004167
  0
LINE
  5
3501
  8
0
 10
47.999212809689887
 20
62.432898270898711
 30
0.0
 11
34.537674348153857
 21
62.432898270898711
 31
0.0
  0
LINE
  5
3502
  8
0
 10
48.268443578921882
 20
62.277457813808383
 30
0.0
 11
48.268443578921882
 21
57.588338727988912
 31
0.0
  0
LINE
  5
3503
  8
0
 10
34.268443578921882
 20
62.277457813808383
 30
0.0
 11
34.268443578921882
 21
57.588338727988912
 31
0.0
  0
LINE
  5
3504
  8
0
 10
41.268443578921882
 20
61.652243031469212
 30
0.0
 11
41.268443578921882
 21
58.213553510328097
 31
0.0
  0
LINE
  5
3505
  8
0
 10
35.768443578921989
 20
53.432898270898811
 30
0.0
 11
35.768443578921989
 21
57.432898270898711
 31
0.0
  0
LINE
  5
3506
  8
0
 10
46.768443578921989
 20
53.432898270898811
 30
0.0
 11
46.768443578921989
 21
57.432898270898711
 31
0.0
  0
LINE
  5
3507
  8
0
 10
138.39649025747869
 20
83.432898270899159
 30
0.0
 11
138.39649025747869
 21
103.4328982708992
 31
0.0
  0
LINE
  5
3508
  8
3
 10
137.4494902574788
 20
83.432898270899159
 30
0.0
 11
137.44949025747869
 21
104.37989827089901
 31
0.0
  0
LINE
  5
3509
  8
0
 10
126.3964902574787
 20
83.432898270899273
 30
0.0
 11
126.3964902574787
 21
103.4328982708992
 31
0.0
  0
LINE
  5
350A
  8
3
 10
127.34349025747871
 20
83.432898270899045
 30
0.0
 11
127.34349025747871
 21
104.3798982708993
 31
0.0
  0
LINE
  5
350B
  8
3
 10
127.34349025747861
 20
64.432898270899159
 30
0.0
 11
126.3964902574786
 21
62.792646156131461
 31
0.0
  0
LINE
  5
350C
  8
0
 10
128.39649025747869
 20
105.4328982708992
 30
0.0
 11
126.3964902574787
 21
103.4328982708992
 31
0.0
  0
LINE
  5
350D
  8
3
 10
127.34349025747861
 20
64.432898270899159
 30
0.0
 11
127.34349025747871
 21
73.432898270899273
 31
0.0
  0
LINE
  5
350E
  8
0
 10
126.3964902574786
 20
62.432898270899152
 30
0.0
 11
126.3964902574786
 21
73.432898270899159
 31
0.0
  0
LINE
  5
350F
  8
3
 10
137.4494902574786
 20
64.432898270899159
 30
0.0
 11
138.3964902574786
 21
62.792646156131461
 31
0.0
  0
LINE
  5
3510
  8
0
 10
138.3964902574786
 20
64.432898270899159
 30
0.0
 11
126.3964902574786
 21
64.432898270899159
 31
0.0
  0
LINE
  5
3511
  8
0
 10
126.3964902574787
 20
103.4328982708992
 30
0.0
 11
138.39649025747869
 21
103.4328982708992
 31
0.0
  0
LINE
  5
3512
  8
0
 10
136.39649025747869
 20
105.4328982708992
 30
0.0
 11
138.39649025747869
 21
103.4328982708992
 31
0.0
  0
LINE
  5
3513
  8
3
 10
137.44949025747869
 20
64.432898270899159
 30
0.0
 11
137.44949025747869
 21
73.432898270899273
 31
0.0
  0
LINE
  5
3514
  8
0
 10
138.3964902574786
 20
62.432898270899152
 30
0.0
 11
138.3964902574786
 21
73.432898270899273
 31
0.0
  0
LINE
  5
3515
  8
0
 10
128.39649025747869
 20
105.4328982708992
 30
0.0
 11
136.39649025747869
 21
105.4328982708992
 31
0.0
  0
LINE
  5
3516
  8
0
 10
132.39649025747551
 20
82.295717360273329
 30
0.0
 11
132.3964902574786
 21
74.570079181525102
 31
0.0
  0
LINE
  5
3517
  8
0
 10
141.3964902574786
 20
73.432898270899273
 30
0.0
 11
123.3964902574786
 21
73.432898270899273
 31
0.0
  0
LINE
  5
3518
  8
0
 10
123.3964902574787
 20
83.432898270899159
 30
0.0
 11
141.39649025747869
 21
83.432898270899159
 31
0.0
  0
LINE
  5
3519
  8
0
 10
122.8964902574787
 20
83.144223136304262
 30
0.0
 11
123.3964902574787
 21
83.432898270899159
 31
0.0
  0
ARC
  5
351A
  8
0
 10
127.6464902574787
 20
69.424539246311156
 30
0.0
 40
13.719683889993171
 50
69.743841999613082
 51
110.256158000387
  0
LINE
  5
351B
  8
0
 10
123.3964902574786
 20
73.432898270899273
 30
0.0
 11
122.8964902574786
 21
73.793370175219366
 31
0.0
  0
LINE
  5
351C
  8
0
 10
122.8964902574786
 20
73.793370175219366
 30
0.0
 11
122.8964902574787
 21
83.144223136304262
 31
0.0
  0
ARC
  5
351D
  8
0
 10
127.6464902574786
 20
87.441257295487276
 30
0.0
 40
13.719683889993171
 50
249.7438419996115
 51
290.25615800038702
  0
ARC
  5
351E
  8
0
 10
137.1464902574786
 20
87.441257295487276
 30
0.0
 40
13.719683889993171
 50
249.7438419996115
 51
290.25615800038702
  0
LINE
  5
351F
  8
0
 10
141.8964902574786
 20
73.793370175219366
 30
0.0
 11
141.89649025747869
 21
83.144223136304262
 31
0.0
  0
LINE
  5
3520
  8
0
 10
141.3964902574786
 20
73.432898270899273
 30
0.0
 11
141.8964902574786
 21
73.793370175219366
 31
0.0
  0
ARC
  5
3521
  8
0
 10
137.14649025747869
 20
69.424539246311156
 30
0.0
 40
13.719683889993171
 50
69.743841999613082
 51
110.2561580003869
  0
LINE
  5
3522
  8
0
 10
141.89649025747869
 20
83.144223136304262
 30
0.0
 11
141.39649025747869
 21
83.432898270899159
 31
0.0
  0
LINE
  5
3523
  8
0
 10
137.8964902574788
 20
53.432898270898811
 30
0.0
 11
137.8964902574788
 21
57.432898270898932
 31
0.0
  0
LINE
  5
3524
  8
0
 10
126.8964902574788
 20
53.432898270898811
 30
0.0
 11
126.8964902574788
 21
57.432898270898932
 31
0.0
  0
ARC
  5
3525
  8
0
 10
126.33431243098759
 20
58.69930596601602
 30
0.0
 40
3.5781518477924039
 50
55.615752531961441
 51
115.61575253217271
  0
ARC
  5
3526
  8
0
 10
132.39649025747971
 20
48.90267259615463
 30
0.0
 40
13.374785217653811
 50
72.412046225995169
 51
107.5879537740048
  0
LINE
  5
3527
  8
0
 10
124.3135864888239
 20
61.652243031469212
 30
0.0
 11
125.6657210267107
 21
62.432898270898711
 31
0.0
  0
LINE
  5
3528
  8
0
 10
124.3135864888239
 20
58.213553510328438
 30
0.0
 11
125.6657210267107
 21
57.432898270898932
 31
0.0
  0
ARC
  5
3529
  8
0
 10
126.33431243098759
 20
61.166490575781609
 30
0.0
 40
3.5781518477924039
 50
244.38424746782709
 51
304.3842474680385
  0
ARC
  5
352A
  8
0
 10
132.39649025747971
 20
70.963123945642792
 30
0.0
 40
13.374785217653811
 50
252.4120462259952
 51
287.5879537740048
  0
LINE
  5
352B
  8
0
 10
124.3135864888239
 20
61.652243031469212
 30
0.0
 11
124.3135864888239
 21
58.213553510328438
 31
0.0
  0
LINE
  5
352C
  8
0
 10
128.35503837315301
 20
61.652243031468068
 30
0.0
 11
128.35503837315119
 21
58.21355351033003
 31
0.0
  0
LINE
  5
352D
  8
0
 10
136.43794214180431
 20
61.652243031469652
 30
0.0
 11
136.43794214180599
 21
58.21355351033003
 31
0.0
  0
LINE
  5
352E
  8
0
 10
140.47939402613341
 20
61.652243031469212
 30
0.0
 11
140.47939402613341
 21
58.213553510328438
 31
0.0
  0
ARC
  5
352F
  8
0
 10
138.4586680839696
 20
61.166490575781609
 30
0.0
 40
3.5781518477924039
 50
235.61575253196131
 51
295.61575253217268
  0
LINE
  5
3530
  8
0
 10
140.47939402613341
 20
58.213553510328438
 30
0.0
 11
139.12725948824669
 21
57.432898270898932
 31
0.0
  0
LINE
  5
3531
  8
0
 10
140.47939402613341
 20
61.652243031469212
 30
0.0
 11
139.12725948824669
 21
62.432898270898711
 31
0.0
  0
ARC
  5
3532
  8
0
 10
138.4586680839696
 20
58.69930596601602
 30
0.0
 40
3.5781518477924039
 50
64.384247467827308
 51
124.38424746803869
  0
LINE
  5
3533
  8
0
 10
125.66572102670951
 20
62.432898270898711
 30
0.0
 11
139.12725948824641
 21
62.432898270898711
 31
0.0
  0
LINE
  5
3534
  8
0
 10
139.12725948824669
 20
57.432898270898932
 30
0.0
 11
125.6657210267109
 21
57.432898270898932
 31
0.0
  0
LINE
  5
3535
  8
0
 10
30.298788464319561
 20
162.38888458880319
 30
0.0
 11
35.783616021621071
 21
152.88888458880319
 31
0.0
  0
LINE
  5
3536
  8
0
 10
35.783616021621171
 20
171.88888458880319
 30
0.0
 11
30.298788464319561
 21
162.38888458880319
 31
0.0
  0
LINE
  5
3537
  8
0
 10
46.753271136223972
 20
171.88888458880319
 30
0.0
 11
35.783616021621171
 21
171.88888458880319
 31
0.0
  0
LINE
  5
3538
  8
0
 10
52.238098693525266
 20
162.38888458880319
 30
0.0
 11
46.753271136223972
 21
171.88888458880319
 31
0.0
  0
LINE
  5
3539
  8
0
 10
46.753271136223738
 20
152.88888458880319
 30
0.0
 11
52.238098693525266
 21
162.38888458880319
 31
0.0
  0
CIRCLE
  5
353A
  8
3
 10
41.268443578922458
 20
162.38888458880319
 30
0.0
 40
5.052999999999999
  0
CIRCLE
  5
353B
  8
0
 10
41.268443578922458
 20
162.38888458880319
 30
0.0
 40
6.0
  0
CIRCLE
  5
353C
  8
0
 10
41.268443578922458
 20
162.38888458880319
 30
0.0
 40
9.0
  0
LINE
  5
353D
  8
0
 10
35.783616021621071
 20
152.88888458880319
 30
0.0
 11
46.753271136223738
 21
152.88888458880319
 31
0.0
  0
LINE
  5
353E
  8
1
 10
76.268443578922444
 20
162.38888458880311
 30
0.0
 11
6.2684435789224722
 21
162.38888458880311
 31
0.0
  0
LINE
  5
353F
  8
1
 10
41.268443578922458
 20
197.38888458880299
 30
0.0
 11
41.268443578922458
 21
127.38888458880299
 31
0.0
  0
CIRCLE
  5
3540
  8
0
 10
41.268443578922593
 20
162.38888458880311
 30
0.0
 40
14.99999999999981
  0
CIRCLE
  5
3541
  8
0
 10
41.268443578922458
 20
162.38888458880311
 30
0.0
 40
20.00000000000006
  0
CIRCLE
  5
3542
  8
0
 10
41.268443578922458
 20
162.38888458880311
 30
0.0
 40
25.0
  0
CIRCLE
  5
3543
  8
0
 10
41.268443578922458
 20
162.38888458880311
 30
0.0
 40
30.0
  0
LINE
  5
3545
  8
0
 10
162.3964902574784
 20
29.932898270899269
 30
0.0
 11
161.8964902574786
 21
29.432898270899269
 31
0.0
  0
LINE
  5
3546
  8
0
 10
162.3964902574784
 20
29.932898270899269
 30
0.0
 11
162.3964902574786
 21
38.300517512961051
 31
0.0
  0
LINE
  5
3547
  8
0
 10
102.8964902574787
 20
29.432898270899269
 30
0.0
 11
161.8964902574784
 21
29.432898270899269
 31
0.0
  0
LINE
  5
3548
  8
0
 10
102.8964902574787
 20
26.432898270899258
 30
0.0
 11
161.8964902574786
 21
26.432898270899159
 31
0.0
  0
LINE
  5
3549
  8
0
 10
161.8964902574786
 20
26.432898270899159
 30
0.0
 11
161.8964902574784
 21
29.432898270899269
 31
0.0
  0
LINE
  5
354A
  8
0
 10
107.3964902574788
 20
42.432898270899159
 30
0.0
 11
157.3964902574784
 21
42.432898270899159
 31
0.0
  0
LINE
  5
354B
  8
0
 10
112.3964902574787
 20
47.432898270899273
 30
0.0
 11
152.39649025747869
 21
47.432898270899159
 31
0.0
  0
LINE
  5
354C
  8
0
 10
117.3964902574787
 20
51.432898270899273
 30
0.0
 11
147.3964902574786
 21
51.432898270899273
 31
0.0
  0
LINE
  5
354D
  8
0
 10
152.39649025747869
 20
47.432898270899159
 30
0.0
 11
152.3964902574786
 21
48.078832348045353
 31
0.0
  0
LINE
  5
354E
  8
0
 10
157.3964902574784
 20
42.432898270899159
 30
0.0
 11
157.3964902574784
 21
43.300517512961051
 31
0.0
  0
LINE
  5
354F
  8
0
 10
152.39649025747869
 20
47.432898270899159
 30
0.0
 11
156.4254817683337
 21
45.015503364386177
 31
0.0
  0
LINE
  5
3550
  8
0
 10
147.39649025747869
 20
51.432898270899152
 30
0.0
 11
151.1392716101868
 21
49.935785729815962
 31
0.0
  0
LINE
  5
3551
  8
0
 10
119.3964902574787
 20
53.43289827089928
 30
0.0
 11
145.39649025747869
 21
53.43289827089928
 31
0.0
  0
LINE
  5
3552
  8
0
 10
147.39649025747869
 20
51.432898270899152
 30
0.0
 11
147.39649025747869
 21
51.432898270899273
 31
0.0
  0
LINE
  5
3553
  8
0
 10
157.3964902574784
 20
42.432898270899159
 30
0.0
 11
161.4254817683337
 21
40.015503364386177
 31
0.0
  0
ARC
  5
3554
  8
0
 10
145.39649025747869
 20
51.432898270899273
 30
0.0
 40
2.0
 50
0.0000000000008142
 51
90.0
  0
ARC
  5
3555
  8
0
 10
150.3964902574786
 20
48.078832348045353
 30
0.0
 40
2.0
 50
359.9999999999992
 51
68.198590513648639
  0
ARC
  5
3556
  8
0
 10
155.3964902574784
 20
43.300517512961051
 30
0.0
 40
2.0
 50
0.0
 51
59.036243467926127
  0
ARC
  5
3557
  8
0
 10
160.3964902574786
 20
38.300517512961051
 30
0.0
 40
2.0
 50
359.9999999999996
 51
59.036243467926127
  0
LINE
  5
3604
  8
1
 10
132.39649025747869
 20
110.4328982708992
 30
0.0
 11
132.39649025747869
 21
21.432898270899269
 31
0.0
  0
ARC
  5
361C
  8
0
 10
69.268443578921278
 20
38.300517512962358
 30
0.0
 40
2.0
 50
359.9999999999996
 51
59.036243467926582
  0
ARC
  5
361D
  8
0
 10
64.268443578921222
 20
43.300517512962351
 30
0.0
 40
2.0
 50
0.0
 51
59.036243467926127
  0
ARC
  5
361E
  8
0
 10
59.268443578921222
 20
48.078832348046653
 30
0.0
 40
2.0
 50
359.9999999999992
 51
68.198590513648185
  0
ARC
  5
361F
  8
0
 10
54.268443578921321
 20
51.432898270900573
 30
0.0
 40
2.0
 50
0.0000000000008142
 51
90.0
  0
LINE
  5
3620
  8
0
 10
66.268443578921222
 20
42.432898270900473
 30
0.0
 11
70.297435089776343
 21
40.015503364387477
 31
0.0
  0
LINE
  5
3621
  8
0
 10
56.268443578921321
 20
51.432898270900452
 30
0.0
 11
56.268443578921321
 21
51.432898270900573
 31
0.0
  0
LINE
  5
3622
  8
0
 10
28.268443578921339
 20
53.432898270900573
 30
0.0
 11
54.268443578921321
 21
53.432898270900573
 31
0.0
  0
LINE
  5
3623
  8
0
 10
56.268443578921321
 20
51.432898270900452
 30
0.0
 11
60.011224931629428
 21
49.935785729817269
 31
0.0
  0
LINE
  5
3624
  8
0
 10
61.268443578921321
 20
47.432898270900459
 30
0.0
 11
65.297435089776343
 21
45.015503364387492
 31
0.0
  0
LINE
  5
3625
  8
0
 10
66.268443578921222
 20
42.432898270900473
 30
0.0
 11
66.268443578921222
 21
43.300517512962351
 31
0.0
  0
LINE
  5
3626
  8
0
 10
61.268443578921321
 20
47.432898270900459
 30
0.0
 11
61.268443578921222
 21
48.078832348046653
 31
0.0
  0
LINE
  5
3627
  8
0
 10
26.268443578921339
 20
51.432898270900573
 30
0.0
 11
56.268443578921222
 21
51.432898270900573
 31
0.0
  0
LINE
  5
3628
  8
0
 10
21.268443578921332
 20
47.43289827090058
 30
0.0
 11
61.268443578921321
 21
47.432898270900459
 31
0.0
  0
LINE
  5
3629
  8
0
 10
16.268443578921438
 20
42.432898270900473
 30
0.0
 11
66.268443578921222
 21
42.432898270900473
 31
0.0
  0
LINE
  5
362A
  8
0
 10
70.768443578921222
 20
26.432898270900459
 30
0.0
 11
70.768443578921094
 21
29.43289827090058
 31
0.0
  0
LINE
  5
362B
  8
0
 10
11.76844357892133
 20
26.43289827090058
 30
0.0
 11
70.768443578921222
 21
26.432898270900459
 31
0.0
  0
LINE
  5
362C
  8
0
 10
11.76844357892133
 20
29.43289827090058
 30
0.0
 11
70.768443578921094
 21
29.43289827090058
 31
0.0
  0
LINE
  5
362D
  8
0
 10
71.268443578921222
 20
29.93289827090058
 30
0.0
 11
71.268443578921278
 21
38.300517512962358
 31
0.0
  0
LINE
  5
362E
  8
0
 10
71.268443578921222
 20
29.93289827090058
 30
0.0
 11
70.768443578921222
 21
29.43289827090058
 31
0.0
  0
LINE
  5
362F
  8
0
 10
11.268443578921451
 20
29.93289827090058
 30
0.0
 11
11.768443578921451
 21
29.43289827090058
 31
0.0
  0
LINE
  5
3630
  8
0
 10
11.268443578921451
 20
29.93289827090058
 30
0.0
 11
11.26844357892139
 21
38.300517512962358
 31
0.0
  0
LINE
  5
3631
  8
0
 10
11.768443578921451
 20
26.432898270900459
 30
0.0
 11
11.768443578921559
 21
29.43289827090058
 31
0.0
  0
LINE
  5
3632
  8
0
 10
21.268443578921332
 20
47.432898270900459
 30
0.0
 11
21.268443578921449
 21
48.078832348046653
 31
0.0
  0
LINE
  5
3633
  8
0
 10
16.268443578921438
 20
42.432898270900473
 30
0.0
 11
16.268443578921438
 21
43.300517512962351
 31
0.0
  0
LINE
  5
3634
  8
0
 10
21.268443578921332
 20
47.432898270900459
 30
0.0
 11
17.239452068066321
 21
45.015503364387492
 31
0.0
  0
LINE
  5
3635
  8
0
 10
26.268443578921339
 20
51.432898270900452
 30
0.0
 11
22.525662226213232
 21
49.935785729817269
 31
0.0
  0
LINE
  5
3636
  8
0
 10
26.268443578921339
 20
51.432898270900452
 30
0.0
 11
26.268443578921339
 21
51.432898270900573
 31
0.0
  0
LINE
  5
3637
  8
0
 10
16.268443578921438
 20
42.432898270900473
 30
0.0
 11
12.239452068066321
 21
40.015503364387477
 31
0.0
  0
ARC
  5
3638
  8
0
 10
28.268443578921339
 20
51.432898270900573
 30
0.0
 40
2.0
 50
90.0
 51
179.9999999999992
  0
ARC
  5
3639
  8
0
 10
23.268443578921449
 20
48.078832348046653
 30
0.0
 40
2.0
 50
111.8014094863516
 51
180.0000000000008
  0
ARC
  5
363A
  8
0
 10
18.268443578921449
 20
43.300517512962351
 30
0.0
 40
2.0
 50
120.9637565320738
 51
180.0
  0
ARC
  5
363B
  8
0
 10
13.26844357892139
 20
38.300517512962358
 30
0.0
 40
2.0
 50
120.9637565320734
 51
180.0000000000004
  0
TEXT
  5
38F1
  8
0
 62
     3
 10
0.0
 20
0.0
 30
0.0
 40
10.0
  1
LVER60S12A-SUS
  7
STANDARD1
  0
ENDSEC
  0
EOF
