  0
SECTION
  2
HEADER
  9
$ACADVER
  1
AC1009
  9
$INSBASE
 10
0.0
 20
0.0
 30
0.0
  9
$EXTMIN
 10
0.0
 20
-2.960436562073669
 30
0.0
  9
$EXTMAX
 10
192.14344956168631
 20
270.23180360726502
 30
0.0
  9
$LIMMIN
 10
0.0
 20
0.0
  9
$LIMMAX
 10
375.0
 20
270.0
  9
$ORTHOMODE
 70
     1
  9
$REGENMODE
 70
     1
  9
$FILLMODE
 70
     1
  9
$QTEXTMODE
 70
     0
  9
$MIRRTEXT
 70
     0
  9
$DRAGMODE
 70
     2
  9
$LTSCALE
 40
6.0
  9
$OSMODE
 70
    37
  9
$ATTMODE
 70
     1
  9
$TEXTSIZE
 40
0.2
  9
$TRACEWID
 40
0.05
  9
$TEXTSTYLE
  7
STANDARD
  9
$CLAYER
  8
0
  9
$CELTYPE
  6
BYLAYER
  9
$CECOLOR
 62
   256
  9
$DIMSCALE
 40
1.0
  9
$DIMASZ
 40
3.0
  9
$DIMEXO
 40
1.0
  9
$DIMDLI
 40
6.0
  9
$DIMRND
 40
0.0
  9
$DIMDLE
 40
0.0
  9
$DIMEXE
 40
1.0
  9
$DIMTP
 40
495.0
  9
$DIMTM
 40
0.0
  9
$DIMTXT
 40
3.0
  9
$DIMCEN
 40
0.0
  9
$DIMTSZ
 40
0.0
  9
$DIMTOL
 70
     0
  9
$DIMLIM
 70
     0
  9
$DIMTIH
 70
     0
  9
$DIMTOH
 70
     0
  9
$DIMSE1
 70
     0
  9
$DIMSE2
 70
     0
  9
$DIMTAD
 70
     1
  9
$DIMZIN
 70
     0
  9
$DIMBLK
  1

  9
$DIMASO
 70
     0
  9
$DIMSHO
 70
     0
  9
$DIMPOST
  1

  9
$DIMAPOST
  1

  9
$DIMALT
 70
     0
  9
$DIMALTD
 70
     2
  9
$DIMALTF
 40
25.399999999999999
  9
$DIMLFAC
 40
1.0
  9
$DIMTOFL
 70
     1
  9
$DIMTVP
 40
0.0
  9
$DIMTIX
 70
     1
  9
$DIMSOXD
 70
     0
  9
$DIMSAH
 70
     0
  9
$DIMBLK1
  1

  9
$DIMBLK2
  1

  9
$DIMSTYLE
  2
STANDARD
  9
$DIMCLRD
 70
     0
  9
$DIMCLRE
 70
     0
  9
$DIMCLRT
 70
     4
  9
$DIMTFAC
 40
1.0
  9
$DIMGAP
 40
1.0
  9
$LUNITS
 70
     2
  9
$LUPREC
 70
     4
  9
$SKETCHINC
 40
0.1
  9
$FILLETRAD
 40
2.0
  9
$AUNITS
 70
     0
  9
$AUPREC
 70
     0
  9
$MENU
  1
C:\R13\WIN\SUPPORT\ACAD-I
  9
$ELEVATION
 40
0.0
  9
$PELEVATION
 40
0.0
  9
$THICKNESS
 40
0.0
  9
$LIMCHECK
 70
     0
  9
$BLIPMODE
 70
     0
  9
$CHAMFERA
 40
0.0
  9
$CHAMFERB
 40
0.0
  9
$SKPOLY
 70
     0
  9
$TDCREATE
 40
2451962.432527801
  9
$TDUPDATE
 40
2456598.7228000462
  9
$TDINDWG
 40
0.070221169
  9
$TDUSRTIMER
 40
2456598.072904537
  9
$USRTIMER
 70
     1
  9
$ANGBASE
 50
0.0
  9
$ANGDIR
 70
     0
  9
$PDMODE
 70
     0
  9
$PDSIZE
 40
0.0
  9
$PLINEWID
 40
0.0
  9
$COORDS
 70
     1
  9
$SPLFRAME
 70
     0
  9
$SPLINETYPE
 70
     6
  9
$SPLINESEGS
 70
     8
  9
$ATTDIA
 70
     0
  9
$ATTREQ
 70
     1
  9
$HANDLING
 70
     1
  9
$HANDSEED
  5
5572
  9
$SURFTAB1
 70
     6
  9
$SURFTAB2
 70
     6
  9
$SURFTYPE
 70
     6
  9
$SURFU
 70
     6
  9
$SURFV
 70
     6
  9
$UCSNAME
  2

  9
$UCSORG
 10
0.0
 20
0.0
 30
0.0
  9
$UCSXDIR
 10
1.0
 20
0.0
 30
0.0
  9
$UCSYDIR
 10
0.0
 20
1.0
 30
0.0
  9
$PUCSNAME
  2

  9
$PUCSORG
 10
0.0
 20
0.0
 30
0.0
  9
$PUCSXDIR
 10
1.0
 20
0.0
 30
0.0
  9
$PUCSYDIR
 10
0.0
 20
1.0
 30
0.0
  9
$USERI1
 70
     4
  9
$USERI2
 70
     1
  9
$USERI3
 70
     0
  9
$USERI4
 70
     0
  9
$USERI5
 70
     0
  9
$USERR1
 40
1.0
  9
$USERR2
 40
3.0
  9
$USERR3
 40
3.0
  9
$USERR4
 40
3.0
  9
$USERR5
 40
10.0
  9
$WORLDVIEW
 70
     1
  9
$SHADEDGE
 70
     3
  9
$SHADEDIF
 70
    70
  9
$TILEMODE
 70
     1
  9
$MAXACTVP
 70
    16
  9
$PLIMCHECK
 70
     0
  9
$PEXTMIN
 10
1.0000000000000000E+020
 20
1.0000000000000000E+020
 30
1.0000000000000000E+020
  9
$PEXTMAX
 10
-1.0000000000000000E+020
 20
-1.0000000000000000E+020
 30
-1.0000000000000000E+020
  9
$PLIMMIN
 10
0.0
 20
0.0
  9
$PLIMMAX
 10
12.0
 20
9.0
  9
$UNITMODE
 70
     0
  9
$VISRETAIN
 70
     0
  9
$PLINEGEN
 70
     0
  9
$PSLTSCALE
 70
     0
  0
ENDSEC
  0
SECTION
  2
TABLES
  0
TABLE
  2
VPORT
 70
     1
  0
VPORT
  2
*ACTIVE
 70
     0
 10
0.0
 20
0.0
 11
1.0
 21
1.0
 12
187.49427839065231
 22
177.52205812711131
 13
0.0
 23
0.0
 14
10.0
 24
10.0
 15
10.0
 25
10.0
 16
0.0
 26
0.0
 36
1.0
 17
0.0
 27
0.0
 37
0.0
 40
364.13085016302909
 41
1.755244755244755
 42
50.0
 43
0.0
 44
0.0
 50
0.0
 51
0.0
 71
    16
 72
   100
 73
     1
 74
     0
 75
     0
 76
     0
 77
     0
 78
     0
  0
ENDTAB
  0
TABLE
  2
LTYPE
 70
     3
  0
LTYPE
  2
CONTINUOUS
 70
     0
  3
Solid Line
 72
    65
 73
     0
 40
0.0
  0
LTYPE
  2
PHANTOM2
 70
     0
  3
___ _ _ ___ _ _ ___ _ _ ___ _ _
 72
    65
 73
     6
 40
1.25
 49
0.625
 49
-0.125
 49
0.125
 49
-0.125
 49
0.125
 49
-0.125
  0
LTYPE
  2
CENTER
 70
     0
  3
____ _ ____ _ ____ _ ____ _ ____ _ ____ _ ____
 72
    65
 73
     4
 40
2.0
 49
1.25
 49
-0.25
 49
0.25
 49
-0.25
  0
ENDTAB
  0
TABLE
  2
LAYER
 70
     3
  0
LAYER
  2
0
 70
     0
 62
     7
  6
CONTINUOUS
  0
LAYER
  2
1
 70
     0
 62
     1
  6
CENTER
  0
LAYER
  2
3
 70
     0
 62
     3
  6
CONTINUOUS
  0
ENDTAB
  0
TABLE
  2
STYLE
 70
     3
  0
STYLE
  2
STANDARD
 70
     0
 40
0.0
 41
1.0
 50
0.0
 71
     0
 42
0.2
  3
SIMPLEX
  4
BIGFONT
  0
STYLE
  2
ANNOTATIVE
 70
     0
 40
0.0
 41
1.0
 50
0.0
 71
     0
 42
0.2
  3
txt
  4

  0
STYLE
  2
STANDARD1
 70
     0
 40
0.0
 41
1.0
 50
0.0
 71
     0
 42
3.0
  3
txt
  4

  0
ENDTAB
  0
TABLE
  2
VIEW
 70
     0
  0
ENDTAB
  0
TABLE
  2
UCS
 70
     0
  0
ENDTAB
  0
TABLE
  2
APPID
 70
    29
  0
APPID
  2
ACAD
 70
     0
  0
APPID
  2
ACADANNOTATIVE
 70
     0
  0
APPID
  2
GENIUS_GENOREF_13
 70
     0
  0
APPID
  2
GENIUS_GENOENT_13
 70
     0
  0
APPID
  2
GENIUS_GENBH_13
 70
     0
  0
APPID
  2
GENIUS_GENOBJ_13
 70
     0
  0
APPID
  2
GENIUS_GENODEF_13
 70
     0
  0
APPID
  2
GENIUS_GENOLIS_13
 70
     0
  0
APPID
  2
GENIUS_GENOBJ-NBEHI-BHF_13
 70
     0
  0
APPID
  2
GENIUS_GENOBJ-NBEHI-BHB_13
 70
     0
  0
APPID
  2
GENIUS_GENOBJ-F-PART_13
 70
     0
  0
APPID
  2
GENIUS_GEFSTDP_13
 70
     0
  0
APPID
  2
GENIUS_GENOBJ-N-RSSYM_13
 70
     0
  0
APPID
  2
GENIUS_GENSYMENT_13
 70
     0
  0
APPID
  2
GENIUS_GENOBJ-N-TIT_13
 70
     0
  0
APPID
  2
GENIUS_GENTITLE_13
 70
     0
  0
APPID
  2
GENIUS_GENZVEED_13
 70
     0
  0
APPID
  2
GENIUS_GENOBJ-N-LEADER_13
 70
     0
  0
APPID
  2
GENIUS_GENOBJ-N-FIL_13
 70
     0
  0
APPID
  2
GENIUS_GENOBJ-N-SEC_13
 70
     0
  0
APPID
  2
GENIUS_GENOBJ-N-CRS_13
 70
     0
  0
APPID
  2
GENIUS_GENOBJ-N-ZOO_13
 70
     0
  0
APPID
  2
GENIUS_GENZOO_13
 70
     0
  0
APPID
  2
GENIUS_GENOBJ-F-TOL_13
 70
     0
  0
APPID
  2
GENIUS_GENFIL_13
 70
     0
  0
APPID
  2
GENIUS_GENOBJ-N-CHA_13
 70
     0
  0
APPID
  2
ACAD_EXEMPT_FROM_CAD_STANDARDS
 70
     0
  0
APPID
  2
ACAD_MLEADERVER
 70
     0
  0
APPID
  2
ACAD_NAV_VCDISPLAY
 70
     0
  0
ENDTAB
  0
TABLE
  2
DIMSTYLE
 70
     2
  0
DIMSTYLE
  2
STANDARD
 70
     0
  3

  4

  5

  6

  7

 40
1.0
 41
0.18
 42
0.0625
 43
0.38
 44
0.18
 45
0.0
 46
0.0
 47
0.0
 48
0.0
140
0.18
141
0.09
142
0.0
143
25.399999999999999
144
1.0
145
0.0
146
1.0
147
0.09
 71
     0
 72
     0
 73
     1
 74
     1
 75
     0
 76
     0
 77
     0
 78
     0
170
     0
171
     2
172
     0
173
     0
174
     0
175
     0
176
     0
177
     0
178
     0
  0
DIMSTYLE
  2
ANNOTATIVE
 70
     0
  3

  4

  5

  6

  7

 40
1.0
 41
0.18
 42
0.0625
 43
0.38
 44
0.18
 45
0.0
 46
0.0
 47
0.0
 48
0.0
140
0.18
141
0.09
142
0.0
143
25.399999999999999
144
1.0
145
0.0
146
1.0
147
0.09
 71
     0
 72
     0
 73
     1
 74
     1
 75
     0
 76
     0
 77
     0
 78
     0
170
     0
171
     2
172
     0
173
     0
174
     0
175
     0
176
     0
177
     0
178
     0
  0
ENDTAB
  0
ENDSEC
  0
SECTION
  2
BLOCKS
  0
BLOCK
  8
0
  2
$MODEL_SPACE
 70
     0
 10
0.0
 20
0.0
 30
0.0
  3
$MODEL_SPACE
  1

  0
ENDBLK
  5
5439
  8
0
  0
BLOCK
 67
     1
  8
0
  2
$PAPER_SPACE
 70
     0
 10
0.0
 20
0.0
 30
0.0
  3
$PAPER_SPACE
  1

  0
ENDBLK
  5
5435
 67
     1
  8
0
  0
ENDSEC
  0
SECTION
  2
ENTITIES
  0
LINE
  5
504E
  8
0
 10
39.173761688372011
 20
230.23180360726499
 30
0.0
 11
44.658589245673717
 21
220.73180360726491
 31
0.0
  0
LINE
  5
504F
  8
0
 10
44.658589245673717
 20
239.73180360726499
 30
0.0
 11
39.173761688372011
 21
230.23180360726499
 31
0.0
  0
LINE
  5
5050
  8
0
 10
55.628244360276533
 20
239.73180360726499
 30
0.0
 11
44.658589245673717
 21
239.73180360726499
 31
0.0
  0
LINE
  5
5051
  8
0
 10
61.113071917577827
 20
230.23180360726499
 30
0.0
 11
55.628244360276533
 21
239.73180360726499
 31
0.0
  0
LINE
  5
5052
  8
0
 10
55.628244360276298
 20
220.73180360726491
 30
0.0
 11
61.113071917577827
 21
230.23180360726499
 31
0.0
  0
CIRCLE
  5
5053
  8
3
 10
50.143416802975018
 20
230.23180360726499
 30
0.0
 40
5.052999999999999
  0
CIRCLE
  5
5054
  8
0
 10
50.143416802975018
 20
230.23180360726499
 30
0.0
 40
6.0
  0
CIRCLE
  5
5055
  8
0
 10
50.143416802975018
 20
230.23180360726499
 30
0.0
 40
9.0
  0
LINE
  5
5056
  8
0
 10
44.658589245673717
 20
220.73180360726491
 30
0.0
 11
55.628244360276298
 21
220.73180360726491
 31
0.0
  0
LINE
  5
5057
  8
0
 10
163.14344956168631
 20
86.959733886365825
 30
0.0
 11
163.14344956168631
 21
161.95973388636571
 31
0.0
  0
LINE
  5
5058
  8
3
 10
162.19644956168639
 20
86.959733886365825
 30
0.0
 11
162.19644956168639
 21
162.9067338863656
 31
0.0
  0
LINE
  5
5059
  8
0
 10
151.14344956168631
 20
86.959733886365825
 30
0.0
 11
151.14344956168631
 21
161.95973388636591
 31
0.0
  0
LINE
  5
505A
  8
3
 10
152.0904495616864
 20
86.959733886365825
 30
0.0
 11
152.0904495616864
 21
162.9067338863656
 31
0.0
  0
LINE
  5
505B
  8
3
 10
152.0904495616862
 20
67.959733886365697
 30
0.0
 11
151.14344956168631
 21
66.319481771598007
 31
0.0
  0
LINE
  5
505C
  8
0
 10
153.14344956168631
 20
163.95973388636591
 30
0.0
 11
151.14344956168631
 21
161.95973388636591
 31
0.0
  0
LINE
  5
505D
  8
3
 10
152.0904495616862
 20
67.959733886365697
 30
0.0
 11
152.0904495616864
 21
76.959733886365825
 31
0.0
  0
LINE
  5
505E
  8
0
 10
151.14344956168631
 20
65.959733886365711
 30
0.0
 11
151.14344956168631
 21
76.959733886365825
 31
0.0
  0
LINE
  5
505F
  8
3
 10
162.19644956168619
 20
67.959733886365697
 30
0.0
 11
163.14344956168631
 21
66.319481771598007
 31
0.0
  0
LINE
  5
5060
  8
0
 10
163.14344956168631
 20
67.959733886365697
 30
0.0
 11
151.14344956168631
 21
67.959733886365697
 31
0.0
  0
LINE
  5
5061
  8
0
 10
151.14344956168631
 20
161.95973388636591
 30
0.0
 11
163.14344956168631
 21
161.95973388636571
 31
0.0
  0
LINE
  5
5062
  8
0
 10
161.14344956168631
 20
163.95973388636571
 30
0.0
 11
163.14344956168631
 21
161.95973388636571
 31
0.0
  0
LINE
  5
5063
  8
3
 10
162.19644956168619
 20
67.959733886365697
 30
0.0
 11
162.19644956168619
 21
76.959733886365825
 31
0.0
  0
LINE
  5
5064
  8
0
 10
163.14344956168631
 20
65.959733886365711
 30
0.0
 11
163.14344956168631
 21
76.959733886365825
 31
0.0
  0
LINE
  5
5065
  8
0
 10
153.14344956168631
 20
163.95973388636591
 30
0.0
 11
161.14344956168631
 21
163.95973388636571
 31
0.0
  0
LINE
  5
5066
  8
0
 10
157.1434495616831
 20
85.822552975739995
 30
0.0
 11
157.14344956168631
 21
78.096914796991641
 31
0.0
  0
LINE
  5
5067
  8
0
 10
166.14344956168631
 20
76.959733886365825
 30
0.0
 11
148.14344956168631
 21
76.959733886365825
 31
0.0
  0
LINE
  5
5068
  8
0
 10
148.14344956168631
 20
86.959733886365825
 30
0.0
 11
166.14344956168631
 21
86.959733886365825
 31
0.0
  0
LINE
  5
5069
  8
0
 10
147.64344956168631
 20
86.671058751770914
 30
0.0
 11
148.14344956168631
 21
86.959733886365825
 31
0.0
  0
ARC
  5
506A
  8
0
 10
152.39344956168631
 20
72.951374861777822
 30
0.0
 40
13.719683889993171
 50
69.743841999613082
 51
110.2561580003869
  0
LINE
  5
506B
  8
0
 10
148.14344956168631
 20
76.959733886365825
 30
0.0
 11
147.64344956168631
 21
77.320205790685918
 31
0.0
  0
LINE
  5
506C
  8
0
 10
147.64344956168631
 20
77.320205790685918
 30
0.0
 11
147.64344956168631
 21
86.671058751770914
 31
0.0
  0
ARC
  5
506D
  8
0
 10
152.39344956168631
 20
90.968092910953814
 30
0.0
 40
13.719683889993171
 50
249.7438419996115
 51
290.25615800038702
  0
ARC
  5
506E
  8
0
 10
161.89344956168631
 20
90.968092910953814
 30
0.0
 40
13.719683889993171
 50
249.7438419996115
 51
290.25615800038702
  0
LINE
  5
506F
  8
0
 10
166.64344956168631
 20
77.320205790685918
 30
0.0
 11
166.64344956168631
 21
86.671058751770914
 31
0.0
  0
LINE
  5
5070
  8
0
 10
166.14344956168631
 20
76.959733886365825
 30
0.0
 11
166.64344956168631
 21
77.320205790685918
 31
0.0
  0
ARC
  5
5071
  8
0
 10
161.89344956168631
 20
72.951374861777822
 30
0.0
 40
13.719683889993171
 50
69.743841999613082
 51
110.2561580003869
  0
LINE
  5
5072
  8
0
 10
166.64344956168631
 20
86.671058751770914
 30
0.0
 11
166.14344956168631
 21
86.959733886365825
 31
0.0
  0
LINE
  5
5073
  8
0
 10
162.64344956168631
 20
56.959733886365363
 30
0.0
 11
162.64344956168631
 21
60.95973388636537
 31
0.0
  0
LINE
  5
5074
  8
0
 10
151.64344956168631
 20
56.959733886365363
 30
0.0
 11
151.64344956168631
 21
60.95973388636537
 31
0.0
  0
ARC
  5
5075
  8
0
 10
151.08127173519529
 20
62.226141581482679
 30
0.0
 40
3.5781518477924039
 50
55.615752531961242
 51
115.61575253217261
  0
ARC
  5
5076
  8
0
 10
157.14344956168719
 20
52.429508211621282
 30
0.0
 40
13.374785217653811
 50
72.412046225995169
 51
107.5879537740048
  0
LINE
  5
5077
  8
0
 10
149.06054579303139
 20
65.17907864693575
 30
0.0
 11
150.41268033091839
 21
65.95973388636537
 31
0.0
  0
LINE
  5
5078
  8
0
 10
149.06054579303139
 20
61.74038912579487
 30
0.0
 11
150.41268033091839
 21
60.95973388636537
 31
0.0
  0
ARC
  5
5079
  8
0
 10
151.08127173519529
 20
64.693326191248048
 30
0.0
 40
3.5781518477924039
 50
244.38424746782729
 51
304.38424746803872
  0
ARC
  5
507A
  8
0
 10
157.14344956168719
 20
74.489959561109458
 30
0.0
 40
13.374785217653811
 50
252.4120462259952
 51
287.5879537740048
  0
LINE
  5
507B
  8
0
 10
149.06054579303139
 20
65.17907864693575
 30
0.0
 11
149.06054579303139
 21
61.74038912579487
 31
0.0
  0
LINE
  5
507C
  8
0
 10
153.10199767736071
 20
65.179078646934499
 30
0.0
 11
153.1019976773589
 21
61.740389125796682
 31
0.0
  0
LINE
  5
507D
  8
0
 10
161.18490144601191
 20
65.179078646936318
 30
0.0
 11
161.18490144601381
 21
61.740389125796682
 31
0.0
  0
LINE
  5
507E
  8
0
 10
165.226353330341
 20
65.179078646935864
 30
0.0
 11
165.226353330341
 21
61.74038912579487
 31
0.0
  0
ARC
  5
507F
  8
0
 10
163.20562738817711
 20
64.693326191248048
 30
0.0
 40
3.5781518477924039
 50
235.61575253196131
 51
295.61575253217268
  0
LINE
  5
5080
  8
0
 10
165.226353330341
 20
61.74038912579487
 30
0.0
 11
163.8742187924542
 21
60.95973388636537
 31
0.0
  0
LINE
  5
5081
  8
0
 10
165.226353330341
 20
65.17907864693575
 30
0.0
 11
163.8742187924542
 21
65.95973388636537
 31
0.0
  0
ARC
  5
5082
  8
0
 10
163.20562738817711
 20
62.226141581482679
 30
0.0
 40
3.5781518477924039
 50
64.384247467827365
 51
124.38424746803869
  0
LINE
  5
5083
  8
0
 10
150.412680330917
 20
65.95973388636537
 30
0.0
 11
163.874218792454
 21
65.95973388636537
 31
0.0
  0
LINE
  5
5084
  8
0
 10
163.8742187924542
 20
60.95973388636537
 30
0.0
 11
150.41268033091859
 21
60.95973388636537
 31
0.0
  0
LINE
  5
5085
  8
0
 10
44.143416802975032
 20
86.959733886365825
 30
0.0
 11
44.143416802975032
 21
161.95973388636591
 31
0.0
  0
LINE
  5
5086
  8
3
 10
45.0904168029749
 20
86.959733886365825
 30
0.0
 11
45.090416802975142
 21
162.906733886366
 31
0.0
  0
LINE
  5
5087
  8
3
 10
55.196416802974902
 20
86.959733886365825
 30
0.0
 11
55.196416802975143
 21
162.9067338863656
 31
0.0
  0
LINE
  5
5088
  8
0
 10
56.143416802975032
 20
86.959733886365825
 30
0.0
 11
56.143416802975032
 21
161.95973388636591
 31
0.0
  0
LINE
  5
5089
  8
0
 10
55.62824436027222
 20
85.822552975739995
 30
0.0
 11
55.628244360276298
 21
78.0969147969913
 31
0.0
  0
LINE
  5
508A
  8
0
 10
61.113071917578061
 20
85.822552975739995
 30
0.0
 11
61.113071917578061
 21
78.096914796991541
 31
0.0
  0
LINE
  5
508B
  8
0
 10
44.658589245677817
 20
85.822552975739995
 30
0.0
 11
44.658589245673717
 21
78.0969147969913
 31
0.0
  0
LINE
  5
508C
  8
0
 10
39.173761688372011
 20
85.822552975739995
 30
0.0
 11
39.173761688372011
 21
78.096914796991541
 31
0.0
  0
LINE
  5
508D
  8
0
 10
39.173761688372011
 20
78.096914796991641
 30
0.0
 11
41.143416802973668
 21
76.959733886365825
 31
0.0
  0
ARC
  5
508E
  8
0
 10
41.916175467022633
 20
82.104472242969109
 30
0.0
 40
4.8560632220084567
 50
244.3842474680873
 51
304.3842474680165
  0
ARC
  5
508F
  8
0
 10
50.143416802975018
 20
95.399903244946131
 30
0.0
 40
18.15149422398537
 50
252.41204622603641
 51
287.5879537739637
  0
ARC
  5
5090
  8
0
 10
58.370658138927404
 20
82.104472242969109
 30
0.0
 40
4.8560632220084567
 50
235.6157525319833
 51
295.61575253191347
  0
LINE
  5
5091
  8
0
 10
61.113071917578061
 20
78.096914796991641
 30
0.0
 11
59.143416802976382
 21
76.959733886365825
 31
0.0
  0
LINE
  5
5092
  8
0
 10
41.143416802973668
 20
76.959733886365825
 30
0.0
 11
59.143416802976382
 21
76.959733886365825
 31
0.0
  0
LINE
  5
5093
  8
0
 10
41.143416802973668
 20
86.959733886365825
 30
0.0
 11
59.143416802976382
 21
86.959733886365825
 31
0.0
  0
LINE
  5
5094
  8
0
 10
61.113071917578061
 20
85.822552975739995
 30
0.0
 11
59.143416802976382
 21
86.959733886365825
 31
0.0
  0
ARC
  5
5095
  8
0
 10
58.370658138927404
 20
81.814995529762527
 30
0.0
 40
4.8560632220084567
 50
64.384247468086471
 51
124.3842474680165
  0
ARC
  5
5096
  8
0
 10
50.143416802975018
 20
68.519564527785505
 30
0.0
 40
18.15149422398537
 50
72.412046226036338
 51
107.5879537739636
  0
ARC
  5
5097
  8
0
 10
41.916175467022633
 20
81.814995529762527
 30
0.0
 40
4.8560632220084567
 50
55.615752531983382
 51
115.6157525319127
  0
LINE
  5
5098
  8
0
 10
39.173761688372011
 20
85.822552975739995
 30
0.0
 11
41.143416802973668
 21
86.959733886365825
 31
0.0
  0
LINE
  5
5099
  8
0
 10
46.143416802975018
 20
163.95973388636591
 30
0.0
 11
54.143416802975032
 21
163.95973388636591
 31
0.0
  0
LINE
  5
509A
  8
0
 10
56.143416802975032
 20
65.959733886365825
 30
0.0
 11
56.143416802975032
 21
76.959733886365825
 31
0.0
  0
LINE
  5
509B
  8
3
 10
55.196416802974902
 20
67.959733886365825
 30
0.0
 11
55.196416802974902
 21
76.959733886365825
 31
0.0
  0
LINE
  5
509C
  8
3
 10
45.090416802975142
 20
67.959733886365825
 30
0.0
 11
45.0904168029749
 21
76.959733886365825
 31
0.0
  0
LINE
  5
509D
  8
0
 10
44.143416802975032
 20
65.959733886365825
 30
0.0
 11
44.143416802975032
 21
76.959733886365825
 31
0.0
  0
LINE
  5
509E
  8
0
 10
46.143416802975018
 20
163.95973388636591
 30
0.0
 11
44.143416802975032
 21
161.95973388636591
 31
0.0
  0
LINE
  5
509F
  8
0
 10
54.143416802975032
 20
163.95973388636591
 30
0.0
 11
56.143416802975032
 21
161.95973388636591
 31
0.0
  0
LINE
  5
50A0
  8
0
 10
44.143416802975032
 20
161.95973388636591
 30
0.0
 11
56.143416802975032
 21
161.95973388636591
 31
0.0
  0
LINE
  5
50A1
  8
0
 10
56.143416802975032
 20
67.959733886365825
 30
0.0
 11
44.143416802975032
 21
67.959733886365825
 31
0.0
  0
LINE
  5
50A2
  8
3
 10
45.090416802975142
 20
67.959733886365825
 30
0.0
 11
44.143416802975032
 21
66.319481771598134
 31
0.0
  0
LINE
  5
50A3
  8
3
 10
55.196416802974902
 20
67.959733886365825
 30
0.0
 11
56.143416802975032
 21
66.319481771598134
 31
0.0
  0
ARC
  5
50A4
  8
0
 10
53.643416802974571
 20
71.224415104493005
 30
0.0
 40
10.10924076103746
 50
249.74384199958331
 51
290.25615800041601
  0
LINE
  5
50A5
  8
0
 10
57.143416802974777
 20
61.115174343455571
 30
0.0
 11
56.874186033742717
 21
60.95973388636537
 31
0.0
  0
LINE
  5
50A6
  8
0
 10
43.143416802974798
 20
61.115174343455571
 30
0.0
 11
43.412647572206652
 21
60.95973388636537
 31
0.0
  0
ARC
  5
50A7
  8
0
 10
46.643416802974777
 20
71.224415104493005
 30
0.0
 40
10.10924076103746
 50
249.74384199958331
 51
290.25615800041601
  0
LINE
  5
50A8
  8
0
 10
56.874186033742717
 20
60.95973388636537
 30
0.0
 11
43.412647572206652
 21
60.95973388636537
 31
0.0
  0
ARC
  5
50A9
  8
0
 10
53.643416802974571
 20
55.695052668237643
 30
0.0
 40
10.10924076103746
 50
69.743841999582557
 51
110.2561580004167
  0
LINE
  5
50AA
  8
0
 10
57.143416802974777
 20
65.804293429275035
 30
0.0
 11
56.874186033742717
 21
65.95973388636537
 31
0.0
  0
LINE
  5
50AB
  8
0
 10
43.143416802974798
 20
65.804293429275035
 30
0.0
 11
43.412647572206652
 21
65.95973388636537
 31
0.0
  0
ARC
  5
50AC
  8
0
 10
46.643416802974777
 20
55.695052668237643
 30
0.0
 40
10.10924076103746
 50
69.743841999582557
 51
110.2561580004167
  0
LINE
  5
50AD
  8
0
 10
56.874186033742717
 20
65.95973388636537
 30
0.0
 11
43.412647572206652
 21
65.95973388636537
 31
0.0
  0
LINE
  5
50AE
  8
0
 10
57.143416802974777
 20
65.804293429275035
 30
0.0
 11
57.143416802974777
 21
61.115174343455571
 31
0.0
  0
LINE
  5
50AF
  8
0
 10
43.143416802974798
 20
65.804293429275035
 30
0.0
 11
43.143416802974798
 21
61.115174343455571
 31
0.0
  0
LINE
  5
50B0
  8
0
 10
50.143416802974798
 20
65.179078646935864
 30
0.0
 11
50.143416802974798
 21
61.740389125794763
 31
0.0
  0
LINE
  5
50B1
  8
0
 10
44.643416802974777
 20
56.959733886365491
 30
0.0
 11
44.643416802974777
 21
60.95973388636537
 31
0.0
  0
LINE
  5
50B2
  8
0
 10
55.643416802974798
 20
56.959733886365491
 30
0.0
 11
55.643416802974798
 21
60.95973388636537
 31
0.0
  0
LINE
  5
50B3
  8
0
 10
167.60465470352869
 20
56.252627105179272
 30
0.0
 11
168.618859397752
 21
55.238422410955877
 31
0.0
  0
LINE
  5
50BB
  8
0
 10
192.14344956168631
 20
43.763012574890361
 30
0.0
 11
192.14344956168631
 21
44.166522907605888
 31
0.0
  0
LINE
  5
50C2
  8
0
 10
192.14344956168631
 20
38.459733886365832
 30
0.0
 11
192.14344956168631
 21
43.763012574890361
 31
0.0
  0
LINE
  5
50C3
  8
0
 10
187.55328562726021
 20
37.959733886365818
 30
0.0
 11
187.55328562726021
 21
34.959733886365832
 31
0.0
  0
LINE
  5
50C4
  8
0
 10
191.64344956168631
 20
37.959733886365818
 30
0.0
 11
192.14344956168631
 21
38.459733886365832
 31
0.0
  0
LINE
  5
50C5
  8
0
 10
186.40574464365361
 20
46.63186503390682
 30
0.0
 11
191.43079744725259
 21
45.124349192827033
 31
0.0
  0
LINE
  5
50C6
  8
0
 10
186.39270171393051
 20
46.63186503390682
 30
0.0
 11
186.39270171393051
 21
47.035862268131027
 31
0.0
  0
LINE
  5
50C7
  8
0
 10
180.6680397256209
 20
49.500717492923172
 30
0.0
 11
185.68065005964669
 21
47.993508210115472
 31
0.0
  0
LINE
  5
50C8
  8
0
 10
174.35656431578471
 20
52.369569951939532
 30
0.0
 11
174.35656431578471
 21
52.773080284655073
 31
0.0
  0
LINE
  5
50C9
  8
0
 10
180.6680397256209
 20
49.500717492923052
 30
0.0
 11
180.6680397256209
 21
49.884462635530433
 31
0.0
  0
LINE
  5
50CA
  8
0
 10
174.35656431578471
 20
52.369569951939532
 30
0.0
 11
179.93115713141279
 21
50.849226456768179
 31
0.0
  0
LINE
  5
50CB
  8
0
 10
168.618859397752
 20
55.238422410955877
 30
0.0
 11
173.64391220135121
 21
53.730906569876197
 31
0.0
  0
ARC
  5
50CC
  8
0
 10
191.14344956168631
 20
44.166522907605888
 30
0.0
 40
1.0
 50
0.0
 51
73.30075576600548
  0
ARC
  5
50CD
  8
0
 10
185.39270171393039
 20
47.035862268131027
 30
0.0
 40
1.0
 50
0.0
 51
73.264833729934722
  0
ARC
  5
50CE
  8
0
 10
179.6680397256209
 20
49.884462635530433
 30
0.0
 40
1.0
 50
0.0
 51
74.744881296941941
  0
ARC
  5
50CF
  8
0
 10
173.35656431578471
 20
52.773080284655073
 30
0.0
 40
1.0
 50
0.0
 51
73.30075576600548
  0
LINE
  5
50D0
  8
0
 10
167.60465470352869
 20
56.252627105179272
 30
0.0
 11
165.8975479223422
 21
56.959733886365818
 31
0.0
  0
LINE
  5
50D2
  8
0
 10
126.7336134961124
 20
34.959733886365832
 30
0.0
 11
187.55328562726021
 21
34.959733886365832
 31
0.0
  0
LINE
  5
50D3
  8
0
 10
146.68224441984401
 20
56.252627105179272
 30
0.0
 11
148.38935120103039
 21
56.959733886365818
 31
0.0
  0
ARC
  5
50D4
  8
0
 10
140.930334807588
 20
52.773080284655073
 30
0.0
 40
1.0
 50
106.69924423399451
 51
180.0
  0
ARC
  5
50D5
  8
0
 10
134.61885939775169
 20
49.884462635530433
 30
0.0
 40
1.0
 50
105.255118703058
 51
180.0
  0
ARC
  5
50D6
  8
0
 10
128.89419740944211
 20
47.035862268131027
 30
0.0
 40
1.0
 50
106.73516627006521
 51
180.0
  0
ARC
  5
50D7
  8
0
 10
123.1434495616863
 20
44.166522907605888
 30
0.0
 40
1.0
 50
106.6992442339937
 51
180.0
  0
LINE
  5
50D8
  8
0
 10
145.6680397256207
 20
55.238422410955877
 30
0.0
 11
140.64298692202141
 21
53.730906569876197
 31
0.0
  0
LINE
  5
50D9
  8
0
 10
139.930334807588
 20
52.369569951939532
 30
0.0
 11
134.3557419919598
 21
50.849226456768179
 31
0.0
  0
LINE
  5
50DA
  8
0
 10
133.61885939775169
 20
49.500717492923052
 30
0.0
 11
133.61885939775169
 21
49.884462635530433
 31
0.0
  0
LINE
  5
50DB
  8
0
 10
139.930334807588
 20
52.369569951939532
 30
0.0
 11
139.930334807588
 21
52.773080284655073
 31
0.0
  0
LINE
  5
50DC
  8
0
 10
133.61885939775169
 20
49.500717492923172
 30
0.0
 11
128.6062490637259
 21
47.993508210115472
 31
0.0
  0
LINE
  5
50DD
  8
0
 10
127.8941974094421
 20
46.63186503390682
 30
0.0
 11
127.8941974094421
 21
47.035862268131027
 31
0.0
  0
LINE
  5
50DE
  8
0
 10
127.881154479719
 20
46.63186503390682
 30
0.0
 11
122.85610167612001
 21
45.124349192827033
 31
0.0
  0
LINE
  5
50DF
  8
0
 10
122.6434495616863
 20
37.959733886365818
 30
0.0
 11
122.1434495616863
 21
38.459733886365832
 31
0.0
  0
LINE
  5
50E0
  8
0
 10
126.7336134961124
 20
37.959733886365818
 30
0.0
 11
126.7336134961124
 21
34.959733886365832
 31
0.0
  0
LINE
  5
50E1
  8
0
 10
122.1434495616863
 20
38.459733886365832
 30
0.0
 11
122.1434495616863
 21
43.763012574890361
 31
0.0
  0
LINE
  5
50E8
  8
0
 10
122.1434495616863
 20
43.763012574890361
 30
0.0
 11
122.1434495616863
 21
44.166522907605888
 31
0.0
  0
LINE
  5
50E9
  8
0
 10
148.38935120103039
 20
56.959733886365818
 30
0.0
 11
165.89754792234231
 21
56.959733886365818
 31
0.0
  0
LINE
  5
50EA
  8
0
 10
145.6680397256207
 20
55.238422410955877
 30
0.0
 11
168.61885939775189
 21
55.238422410955877
 31
0.0
  0
LINE
  5
50EB
  8
0
 10
139.930334807588
 20
52.369569951939532
 30
0.0
 11
174.3565643157846
 21
52.369569951939532
 31
0.0
  0
LINE
  5
50EC
  8
0
 10
133.61885939775169
 20
49.500717492923172
 30
0.0
 11
180.6680397256209
 21
49.500717492923172
 31
0.0
  0
LINE
  5
50ED
  8
0
 10
127.881154479719
 20
46.63186503390682
 30
0.0
 11
186.40574464365361
 21
46.63186503390682
 31
0.0
  0
LINE
  5
50EE
  8
0
 10
122.6434495616863
 20
37.959733886365818
 30
0.0
 11
191.64344956168631
 21
37.959733886365818
 31
0.0
  0
LINE
  5
50EF
  8
0
 10
122.1434495616863
 20
43.763012574890361
 30
0.0
 11
192.14344956168631
 21
43.763012574890361
 31
0.0
  0
LINE
  5
50F0
  8
0
 10
146.68224441984401
 20
56.252627105179272
 30
0.0
 11
145.6680397256207
 21
55.238422410955877
 31
0.0
  0
LINE
  5
50F1
  8
1
 10
157.14344956168631
 20
29.959733886365829
 30
0.0
 11
157.14344956168631
 21
168.95973388636591
 31
0.0
  0
LINE
  5
50F2
  8
1
 10
50.143416802975018
 20
29.959733886365829
 30
0.0
 11
50.143416802975018
 21
168.95973388636591
 31
0.0
  0
LINE
  5
50F3
  8
1
 10
90.143416802975011
 20
230.23180360726499
 30
0.0
 11
10.14341680297502
 21
230.23180360726499
 31
0.0
  0
LINE
  5
50F4
  8
1
 10
50.143416802975018
 20
270.23180360726502
 30
0.0
 11
50.143416802975018
 21
190.23180360726471
 31
0.0
  0
CIRCLE
  5
50F6
  8
0
 10
50.143416802975018
 20
230.23180360726499
 30
0.0
 40
11.47540983606563
  0
CIRCLE
  5
50F7
  8
0
 10
50.143416802975018
 20
230.23180360726499
 30
0.0
 40
17.213114754098338
  0
CIRCLE
  5
50F8
  8
0
 10
50.143416802975018
 20
230.23180360726499
 30
0.0
 40
23.52459016393459
  0
CIRCLE
  5
50F9
  8
0
 10
50.143416802975018
 20
230.23180360726499
 30
0.0
 40
29.249252152244249
  0
CIRCLE
  5
50FA
  8
0
 10
50.143416802975018
 20
230.23180360726499
 30
0.0
 40
35.00000000000005
  0
LINE
  5
50FB
  8
0
 10
39.682211661132662
 20
56.252627105179272
 30
0.0
 11
38.668006966909388
 21
55.238422410955877
 31
0.0
  0
LINE
  5
50FC
  8
0
 10
15.14341680297502
 20
43.763012574890361
 30
0.0
 11
85.143416802975011
 21
43.763012574890361
 31
0.0
  0
LINE
  5
50FD
  8
0
 10
15.64341680297502
 20
37.959733886365818
 30
0.0
 11
84.643416802975011
 21
37.959733886365818
 31
0.0
  0
LINE
  5
50FE
  8
0
 10
20.88112172100773
 20
46.63186503390682
 30
0.0
 11
79.405711884942306
 21
46.63186503390682
 31
0.0
  0
LINE
  5
50FF
  8
0
 10
26.618826639040439
 20
49.500717492923172
 30
0.0
 11
73.66800696690963
 21
49.500717492923172
 31
0.0
  0
LINE
  5
5100
  8
0
 10
32.930302048876683
 20
52.369569951939532
 30
0.0
 11
67.356531557073396
 21
52.369569951939532
 31
0.0
  0
LINE
  5
5101
  8
0
 10
38.668006966909388
 20
55.238422410955877
 30
0.0
 11
61.61882663904067
 21
55.23842241095587
 31
0.0
  0
LINE
  5
5102
  8
0
 10
41.389318442319109
 20
56.959733886365818
 30
0.0
 11
58.897515163630942
 21
56.959733886365818
 31
0.0
  0
LINE
  5
5103
  8
0
 10
15.14341680297502
 20
43.763012574890361
 30
0.0
 11
15.14341680297502
 21
44.166522907605888
 31
0.0
  0
LINE
  5
510A
  8
0
 10
15.14341680297502
 20
38.459733886365832
 30
0.0
 11
15.14341680297502
 21
43.763012574890361
 31
0.0
  0
LINE
  5
510B
  8
0
 10
19.733580737401091
 20
37.959733886365818
 30
0.0
 11
19.733580737401091
 21
34.959733886365832
 31
0.0
  0
LINE
  5
510C
  8
0
 10
15.64341680297502
 20
37.959733886365818
 30
0.0
 11
15.14341680297502
 21
38.459733886365832
 31
0.0
  0
LINE
  5
510D
  8
0
 10
20.88112172100773
 20
46.63186503390682
 30
0.0
 11
15.85606891740872
 21
45.124349192827033
 31
0.0
  0
LINE
  5
510E
  8
0
 10
20.894164650730762
 20
46.63186503390682
 30
0.0
 11
20.894164650730762
 21
47.035862268131027
 31
0.0
  0
LINE
  5
510F
  8
0
 10
26.618826639040439
 20
49.500717492923172
 30
0.0
 11
21.606216305014641
 21
47.993508210115472
 31
0.0
  0
LINE
  5
5110
  8
0
 10
32.930302048876683
 20
52.369569951939532
 30
0.0
 11
32.930302048876683
 21
52.773080284655073
 31
0.0
  0
LINE
  5
5111
  8
0
 10
26.618826639040439
 20
49.500717492923052
 30
0.0
 11
26.618826639040439
 21
49.884462635530433
 31
0.0
  0
LINE
  5
5112
  8
0
 10
32.930302048876683
 20
52.369569951939532
 30
0.0
 11
27.35570923324849
 21
50.849226456768179
 31
0.0
  0
LINE
  5
5113
  8
0
 10
38.668006966909388
 20
55.238422410955877
 30
0.0
 11
33.642954163310137
 21
53.730906569876197
 31
0.0
  0
ARC
  5
5114
  8
0
 10
16.143416802975018
 20
44.166522907605888
 30
0.0
 40
1.0
 50
106.6992442339936
 51
180.0
  0
ARC
  5
5115
  8
0
 10
21.894164650730769
 20
47.035862268131027
 30
0.0
 40
1.0
 50
106.7351662700647
 51
180.0
  0
ARC
  5
5116
  8
0
 10
27.618826639040449
 20
49.884462635530433
 30
0.0
 40
1.0
 50
105.2551187030577
 51
180.0
  0
ARC
  5
5117
  8
0
 10
33.93030204887669
 20
52.773080284655073
 30
0.0
 40
1.0
 50
106.69924423399409
 51
180.0
  0
LINE
  5
5118
  8
0
 10
39.682211661132662
 20
56.252627105179272
 30
0.0
 11
41.389318442319109
 21
56.959733886365818
 31
0.0
  0
LINE
  5
5119
  8
0
 10
19.733580737401091
 20
34.959733886365832
 30
0.0
 11
80.553252868548924
 21
34.959733886365832
 31
0.0
  0
LINE
  5
511B
  8
0
 10
60.604621944817382
 20
56.252627105179272
 30
0.0
 11
58.897515163630942
 21
56.959733886365818
 31
0.0
  0
ARC
  5
511C
  8
0
 10
66.356531557073367
 20
52.773080284655073
 30
0.0
 40
1.0
 50
0.0
 51
73.300755766006262
  0
ARC
  5
511D
  8
0
 10
72.66800696690963
 20
49.884462635530433
 30
0.0
 40
1.0
 50
0.0
 51
74.744881296941941
  0
ARC
  5
511E
  8
0
 10
78.392668955219264
 20
47.035862268131027
 30
0.0
 40
1.0
 50
0.0
 51
73.264833729935503
  0
ARC
  5
511F
  8
0
 10
84.143416802975025
 20
44.166522907605888
 30
0.0
 40
1.0
 50
0.0
 51
73.300755766006262
  0
LINE
  5
5120
  8
0
 10
61.618826639040662
 20
55.238422410955877
 30
0.0
 11
66.6438794426399
 21
53.730906569876197
 31
0.0
  0
LINE
  5
5121
  8
0
 10
67.356531557073353
 20
52.369569951939532
 30
0.0
 11
72.931124372701561
 21
50.849226456768179
 31
0.0
  0
LINE
  5
5122
  8
0
 10
73.66800696690963
 20
49.500717492923052
 30
0.0
 11
73.66800696690963
 21
49.884462635530433
 31
0.0
  0
LINE
  5
5123
  8
0
 10
67.356531557073353
 20
52.369569951939532
 30
0.0
 11
67.356531557073353
 21
52.773080284655073
 31
0.0
  0
LINE
  5
5124
  8
0
 10
73.66800696690963
 20
49.500717492923172
 30
0.0
 11
78.680617300935396
 21
47.993508210115472
 31
0.0
  0
LINE
  5
5125
  8
0
 10
79.392668955219264
 20
46.63186503390682
 30
0.0
 11
79.392668955219264
 21
47.035862268131027
 31
0.0
  0
LINE
  5
5126
  8
0
 10
79.405711884942306
 20
46.63186503390682
 30
0.0
 11
84.430764688541331
 21
45.124349192827033
 31
0.0
  0
LINE
  5
5127
  8
0
 10
84.643416802975011
 20
37.959733886365818
 30
0.0
 11
85.143416802975011
 21
38.459733886365832
 31
0.0
  0
LINE
  5
5128
  8
0
 10
80.553252868548924
 20
37.959733886365818
 30
0.0
 11
80.553252868548924
 21
34.959733886365832
 31
0.0
  0
LINE
  5
5129
  8
0
 10
85.143416802975011
 20
38.459733886365832
 30
0.0
 11
85.143416802975011
 21
43.763012574890361
 31
0.0
  0
LINE
  5
5130
  8
0
 10
85.143416802975011
 20
43.763012574890361
 30
0.0
 11
85.143416802975011
 21
44.166522907605888
 31
0.0
  0
LINE
  5
5138
  8
0
 10
60.604621944817382
 20
56.252627105179272
 30
0.0
 11
61.618826639040662
 21
55.238422410955877
 31
0.0
  0
TEXT
  5
54B9
  8
0
 62
     3
 10
0.0
 20
0.0
 30
0.0
 40
10.0
  1
LVER70S12C-SUS
  7
STANDARD1
  0
ENDSEC
  0
EOF
