  0
SECTION
  2
HEADER
  9
$ACADVER
  1
AC1009
  9
$INSBASE
 10
0.0
 20
0.0
 30
0.0
  9
$EXTMIN
 10
0.0
 20
-2.960436562073669
 30
0.0
  9
$EXTMAX
 10
201.26264016307479
 20
222.23193626144669
 30
0.0
  9
$LIMMIN
 10
0.0
 20
0.0
  9
$LIMMAX
 10
375.0
 20
270.0
  9
$ORTHOMODE
 70
     1
  9
$REGENMODE
 70
     1
  9
$FILLMODE
 70
     1
  9
$QTEXTMODE
 70
     0
  9
$MIRRTEXT
 70
     0
  9
$DRAGMODE
 70
     2
  9
$LTSCALE
 40
6.0
  9
$OSMODE
 70
  3071
  9
$ATTMODE
 70
     1
  9
$TEXTSIZE
 40
0.2
  9
$TRACEWID
 40
0.05
  9
$TEXTSTYLE
  7
STANDARD
  9
$CLAYER
  8
0
  9
$CELTYPE
  6
BYLAYER
  9
$CECOLOR
 62
   256
  9
$DIMSCALE
 40
1.0
  9
$DIMASZ
 40
3.0
  9
$DIMEXO
 40
1.0
  9
$DIMDLI
 40
6.0
  9
$DIMRND
 40
0.0
  9
$DIMDLE
 40
0.0
  9
$DIMEXE
 40
1.0
  9
$DIMTP
 40
495.0
  9
$DIMTM
 40
0.0
  9
$DIMTXT
 40
3.0
  9
$DIMCEN
 40
0.0
  9
$DIMTSZ
 40
0.0
  9
$DIMTOL
 70
     0
  9
$DIMLIM
 70
     0
  9
$DIMTIH
 70
     0
  9
$DIMTOH
 70
     0
  9
$DIMSE1
 70
     0
  9
$DIMSE2
 70
     0
  9
$DIMTAD
 70
     1
  9
$DIMZIN
 70
     0
  9
$DIMBLK
  1

  9
$DIMASO
 70
     0
  9
$DIMSHO
 70
     0
  9
$DIMPOST
  1

  9
$DIMAPOST
  1

  9
$DIMALT
 70
     0
  9
$DIMALTD
 70
     2
  9
$DIMALTF
 40
25.399999999999999
  9
$DIMLFAC
 40
1.0
  9
$DIMTOFL
 70
     1
  9
$DIMTVP
 40
0.0
  9
$DIMTIX
 70
     1
  9
$DIMSOXD
 70
     0
  9
$DIMSAH
 70
     0
  9
$DIMBLK1
  1

  9
$DIMBLK2
  1

  9
$DIMSTYLE
  2
STANDARD
  9
$DIMCLRD
 70
     0
  9
$DIMCLRE
 70
     0
  9
$DIMCLRT
 70
     4
  9
$DIMTFAC
 40
1.0
  9
$DIMGAP
 40
1.0
  9
$LUNITS
 70
     2
  9
$LUPREC
 70
     4
  9
$SKETCHINC
 40
0.1
  9
$FILLETRAD
 40
2.0
  9
$AUNITS
 70
     0
  9
$AUPREC
 70
     0
  9
$MENU
  1
C:\R13\WIN\SUPPORT\ACAD-I
  9
$ELEVATION
 40
0.0
  9
$PELEVATION
 40
0.0
  9
$THICKNESS
 40
0.0
  9
$LIMCHECK
 70
     0
  9
$BLIPMODE
 70
     0
  9
$CHAMFERA
 40
0.0
  9
$CHAMFERB
 40
0.0
  9
$SKPOLY
 70
     0
  9
$TDCREATE
 40
2451962.4332892019
  9
$TDUPDATE
 40
2456597.6167301619
  9
$TDINDWG
 40
0.0816704167
  9
$TDUSRTIMER
 40
2456555.3015637961
  9
$USRTIMER
 70
     1
  9
$ANGBASE
 50
0.0
  9
$ANGDIR
 70
     0
  9
$PDMODE
 70
     0
  9
$PDSIZE
 40
0.0
  9
$PLINEWID
 40
0.0
  9
$COORDS
 70
     1
  9
$SPLFRAME
 70
     0
  9
$SPLINETYPE
 70
     6
  9
$SPLINESEGS
 70
     8
  9
$ATTDIA
 70
     0
  9
$ATTREQ
 70
     1
  9
$HANDLING
 70
     1
  9
$HANDSEED
  5
5752
  9
$SURFTAB1
 70
     6
  9
$SURFTAB2
 70
     6
  9
$SURFTYPE
 70
     6
  9
$SURFU
 70
     6
  9
$SURFV
 70
     6
  9
$UCSNAME
  2

  9
$UCSORG
 10
0.0
 20
0.0
 30
0.0
  9
$UCSXDIR
 10
1.0
 20
0.0
 30
0.0
  9
$UCSYDIR
 10
0.0
 20
1.0
 30
0.0
  9
$PUCSNAME
  2

  9
$PUCSORG
 10
0.0
 20
0.0
 30
0.0
  9
$PUCSXDIR
 10
1.0
 20
0.0
 30
0.0
  9
$PUCSYDIR
 10
0.0
 20
1.0
 30
0.0
  9
$USERI1
 70
     4
  9
$USERI2
 70
     1
  9
$USERI3
 70
     0
  9
$USERI4
 70
     0
  9
$USERI5
 70
     0
  9
$USERR1
 40
1.0
  9
$USERR2
 40
3.0
  9
$USERR3
 40
3.0
  9
$USERR4
 40
3.0
  9
$USERR5
 40
10.0
  9
$WORLDVIEW
 70
     1
  9
$SHADEDGE
 70
     3
  9
$SHADEDIF
 70
    70
  9
$TILEMODE
 70
     1
  9
$MAXACTVP
 70
    16
  9
$PLIMCHECK
 70
     0
  9
$PEXTMIN
 10
1.0000000000000000E+020
 20
1.0000000000000000E+020
 30
1.0000000000000000E+020
  9
$PEXTMAX
 10
-1.0000000000000000E+020
 20
-1.0000000000000000E+020
 30
-1.0000000000000000E+020
  9
$PLIMMIN
 10
0.0
 20
0.0
  9
$PLIMMAX
 10
12.0
 20
9.0
  9
$UNITMODE
 70
     0
  9
$VISRETAIN
 70
     0
  9
$PLINEGEN
 70
     0
  9
$PSLTSCALE
 70
     0
  0
ENDSEC
  0
SECTION
  2
TABLES
  0
TABLE
  2
VPORT
 70
     1
  0
VPORT
  2
*ACTIVE
 70
     0
 10
0.0
 20
0.0
 11
1.0
 21
1.0
 12
187.49427839065231
 22
134.10366293909439
 13
0.0
 23
0.0
 14
10.0
 24
10.0
 15
10.0
 25
10.0
 16
0.0
 26
0.0
 36
1.0
 17
0.0
 27
0.0
 37
0.0
 40
277.29405978699532
 41
2.304913294797688
 42
50.0
 43
0.0
 44
0.0
 50
0.0
 51
0.0
 71
    16
 72
   100
 73
     1
 74
     0
 75
     0
 76
     0
 77
     0
 78
     0
  0
ENDTAB
  0
TABLE
  2
LTYPE
 70
     3
  0
LTYPE
  2
CONTINUOUS
 70
     0
  3
Solid Line
 72
    65
 73
     0
 40
0.0
  0
LTYPE
  2
PHANTOM2
 70
     0
  3
___ _ _ ___ _ _ ___ _ _ ___ _ _
 72
    65
 73
     6
 40
1.25
 49
0.625
 49
-0.125
 49
0.125
 49
-0.125
 49
0.125
 49
-0.125
  0
LTYPE
  2
CENTER
 70
     0
  3
____ _ ____ _ ____ _ ____ _ ____ _ ____ _ ____
 72
    65
 73
     4
 40
2.0
 49
1.25
 49
-0.25
 49
0.25
 49
-0.25
  0
ENDTAB
  0
TABLE
  2
LAYER
 70
     3
  0
LAYER
  2
0
 70
     0
 62
     7
  6
CONTINUOUS
  0
LAYER
  2
1
 70
     0
 62
     1
  6
CENTER
  0
LAYER
  2
3
 70
     0
 62
     3
  6
CONTINUOUS
  0
ENDTAB
  0
TABLE
  2
STYLE
 70
     3
  0
STYLE
  2
STANDARD
 70
     0
 40
0.0
 41
1.0
 50
0.0
 71
     0
 42
0.2
  3
SIMPLEX
  4
BIGFONT
  0
STYLE
  2
ANNOTATIVE
 70
     0
 40
0.0
 41
1.0
 50
0.0
 71
     0
 42
0.2
  3
txt
  4

  0
STYLE
  2
STANDARD1
 70
     0
 40
0.0
 41
1.0
 50
0.0
 71
     0
 42
3.0
  3
txt
  4

  0
ENDTAB
  0
TABLE
  2
VIEW
 70
     0
  0
ENDTAB
  0
TABLE
  2
UCS
 70
     0
  0
ENDTAB
  0
TABLE
  2
APPID
 70
    29
  0
APPID
  2
ACAD
 70
     0
  0
APPID
  2
ACADANNOTATIVE
 70
     0
  0
APPID
  2
GENIUS_GENOREF_13
 70
     0
  0
APPID
  2
GENIUS_GENOENT_13
 70
     0
  0
APPID
  2
GENIUS_GENBH_13
 70
     0
  0
APPID
  2
GENIUS_GENOBJ_13
 70
     0
  0
APPID
  2
GENIUS_GENODEF_13
 70
     0
  0
APPID
  2
GENIUS_GENOLIS_13
 70
     0
  0
APPID
  2
GENIUS_GENOBJ-NBEHI-BHF_13
 70
     0
  0
APPID
  2
GENIUS_GENOBJ-NBEHI-BHB_13
 70
     0
  0
APPID
  2
GENIUS_GENOBJ-F-PART_13
 70
     0
  0
APPID
  2
GENIUS_GEFSTDP_13
 70
     0
  0
APPID
  2
GENIUS_GENOBJ-N-RSSYM_13
 70
     0
  0
APPID
  2
GENIUS_GENSYMENT_13
 70
     0
  0
APPID
  2
GENIUS_GENOBJ-N-TIT_13
 70
     0
  0
APPID
  2
GENIUS_GENTITLE_13
 70
     0
  0
APPID
  2
GENIUS_GENZVEED_13
 70
     0
  0
APPID
  2
GENIUS_GENOBJ-N-LEADER_13
 70
     0
  0
APPID
  2
GENIUS_GENOBJ-N-FIL_13
 70
     0
  0
APPID
  2
GENIUS_GENOBJ-N-SEC_13
 70
     0
  0
APPID
  2
GENIUS_GENOBJ-N-CRS_13
 70
     0
  0
APPID
  2
GENIUS_GENOBJ-N-ZOO_13
 70
     0
  0
APPID
  2
GENIUS_GENZOO_13
 70
     0
  0
APPID
  2
GENIUS_GENOBJ-F-TOL_13
 70
     0
  0
APPID
  2
GENIUS_GENFIL_13
 70
     0
  0
APPID
  2
GENIUS_GENOBJ-N-CHA_13
 70
     0
  0
APPID
  2
ACAD_EXEMPT_FROM_CAD_STANDARDS
 70
     0
  0
APPID
  2
ACAD_MLEADERVER
 70
     0
  0
APPID
  2
ACAD_NAV_VCDISPLAY
 70
     0
  0
ENDTAB
  0
TABLE
  2
DIMSTYLE
 70
     2
  0
DIMSTYLE
  2
STANDARD
 70
     0
  3

  4

  5

  6

  7

 40
1.0
 41
0.18
 42
0.0625
 43
0.38
 44
0.18
 45
0.0
 46
0.0
 47
0.0
 48
0.0
140
0.18
141
0.09
142
0.0
143
25.399999999999999
144
1.0
145
0.0
146
1.0
147
0.09
 71
     0
 72
     0
 73
     1
 74
     1
 75
     0
 76
     0
 77
     0
 78
     0
170
     0
171
     2
172
     0
173
     0
174
     0
175
     0
176
     0
177
     0
178
     0
  0
DIMSTYLE
  2
ANNOTATIVE
 70
     0
  3

  4

  5

  6

  7

 40
1.0
 41
0.18
 42
0.0625
 43
0.38
 44
0.18
 45
0.0
 46
0.0
 47
0.0
 48
0.0
140
0.18
141
0.09
142
0.0
143
25.399999999999999
144
1.0
145
0.0
146
1.0
147
0.09
 71
     0
 72
     0
 73
     1
 74
     1
 75
     0
 76
     0
 77
     0
 78
     0
170
     0
171
     2
172
     0
173
     0
174
     0
175
     0
176
     0
177
     0
178
     0
  0
ENDTAB
  0
ENDSEC
  0
SECTION
  2
BLOCKS
  0
BLOCK
  8
0
  2
$MODEL_SPACE
 70
     0
 10
0.0
 20
0.0
 30
0.0
  3
$MODEL_SPACE
  1

  0
ENDBLK
  5
5675
  8
0
  0
BLOCK
 67
     1
  8
0
  2
$PAPER_SPACE
 70
     0
 10
0.0
 20
0.0
 30
0.0
  3
$PAPER_SPACE
  1

  0
ENDBLK
  5
5671
 67
     1
  8
0
  0
ENDSEC
  0
SECTION
  2
ENTITIES
  0
LINE
  5
524C
  8
1
 10
166.26264016307451
 20
22.95163096468195
 30
0.0
 11
166.2626401630755
 21
131.9516309646817
 31
0.0
  0
LINE
  5
524D
  8
3
 10
173.1801401630747
 20
98.740306099245132
 30
0.0
 11
173.1801401630747
 21
126.03413096468149
 31
0.0
  0
LINE
  5
524E
  8
0
 10
174.26264016307459
 20
98.740306099246965
 30
0.0
 11
174.26264016307459
 21
124.9516309646815
 31
0.0
  0
LINE
  5
524F
  8
0
 10
158.26264016307471
 20
98.740306099220092
 30
0.0
 11
158.26264016307459
 21
124.9516309646819
 31
0.0
  0
LINE
  5
5250
  8
3
 10
159.34514016307449
 20
98.740306099221925
 30
0.0
 11
159.34514016307449
 21
126.03413096468169
 31
0.0
  0
LINE
  5
5251
  8
3
 10
159.34514016307449
 20
60.951630964681733
 30
0.0
 11
158.26264016307459
 21
59.076685965488423
 31
0.0
  0
LINE
  5
5252
  8
0
 10
158.26264016307459
 20
124.9516309646819
 30
0.0
 11
160.26264016307459
 21
126.9516309646817
 31
0.0
  0
LINE
  5
5253
  8
0
 10
158.26264016307459
 20
58.81578384251906
 30
0.0
 11
158.26264016307471
 21
85.740306099260209
 31
0.0
  0
LINE
  5
5254
  8
3
 10
159.34514016307449
 20
60.951630964681733
 30
0.0
 11
159.34514016307449
 21
85.740306099258405
 31
0.0
  0
LINE
  5
5255
  8
3
 10
173.1801401630747
 20
60.951630964681733
 30
0.0
 11
174.26264016307459
 21
59.076685965488423
 31
0.0
  0
LINE
  5
5256
  8
0
 10
158.26264016307459
 20
60.951630964681733
 30
0.0
 11
174.26264016307459
 21
60.951630964681733
 31
0.0
  0
LINE
  5
5257
  8
0
 10
174.26264016307459
 20
124.9516309646815
 30
0.0
 11
158.26264016307459
 21
124.9516309646817
 31
0.0
  0
LINE
  5
5258
  8
0
 10
172.26264016307459
 20
126.9516309646815
 30
0.0
 11
174.26264016307459
 21
124.9516309646815
 31
0.0
  0
LINE
  5
5259
  8
3
 10
173.1801401630747
 20
60.951630964681733
 30
0.0
 11
173.1801401630747
 21
85.740306099235454
 31
0.0
  0
LINE
  5
525A
  8
0
 10
174.26264016307471
 20
58.815783842518599
 30
0.0
 11
174.26264016307459
 21
85.740306099233379
 31
0.0
  0
LINE
  5
525B
  8
0
 10
160.26264016307459
 20
126.9516309646817
 30
0.0
 11
172.26264016307459
 21
126.9516309646815
 31
0.0
  0
LINE
  5
525C
  8
0
 10
174.02734604542781
 20
52.951630964681733
 30
0.0
 11
158.49793428072149
 21
52.951630964681733
 31
0.0
  0
LINE
  5
525D
  8
0
 10
158.49793428072169
 20
58.951630964681961
 30
0.0
 11
174.02734604542781
 21
58.951630964681499
 31
0.0
  0
ARC
  5
525E
  8
0
 10
173.19084339335021
 20
54.726467445037997
 30
0.0
 40
4.0893163974808306
 50
64.384247467887008
 51
124.3842474680048
  0
LINE
  5
525F
  8
0
 10
175.50024447010861
 20
58.101252662703253
 30
0.0
 11
174.02734604542749
 21
58.951630964681961
 31
0.0
  0
LINE
  5
5260
  8
0
 10
175.50024447010861
 20
53.802009266660207
 30
0.0
 11
174.02734604542749
 21
52.951630964681513
 31
0.0
  0
ARC
  5
5261
  8
0
 10
173.19084339335021
 20
57.176794484325448
 30
0.0
 40
4.0893163974808306
 50
235.61575253199521
 51
295.61575253211288
  0
LINE
  5
5262
  8
0
 10
175.50024447010861
 20
58.101252662703253
 30
0.0
 11
175.50024447010861
 21
53.802009266660207
 31
0.0
  0
LINE
  5
5263
  8
0
 10
170.88144231659271
 20
58.101252662703253
 30
0.0
 11
170.881442316592
 21
53.802009266659759
 31
0.0
  0
LINE
  5
5264
  8
0
 10
161.6438380095567
 20
58.101252662703253
 30
0.0
 11
161.6438380095573
 21
53.802009266659759
 31
0.0
  0
LINE
  5
5265
  8
0
 10
157.02503585604069
 20
58.101252662703253
 30
0.0
 11
157.02503585604069
 21
53.802009266660207
 31
0.0
  0
ARC
  5
5266
  8
0
 10
166.2626401630742
 20
68.372946907048345
 30
0.0
 40
15.28546882020385
 50
252.4120462260301
 51
287.58795377396979
  0
ARC
  5
5267
  8
0
 10
159.33443693279921
 20
57.176794484325448
 30
0.0
 40
4.0893163974808306
 50
244.38424746788701
 51
304.38424746800479
  0
LINE
  5
5268
  8
0
 10
157.02503585604069
 20
53.802009266660207
 30
0.0
 11
158.49793428072169
 21
52.951630964681513
 31
0.0
  0
LINE
  5
5269
  8
0
 10
157.02503585604069
 20
58.101252662703253
 30
0.0
 11
158.49793428072169
 21
58.951630964681961
 31
0.0
  0
ARC
  5
526A
  8
0
 10
166.2626401630742
 20
43.53031502231488
 30
0.0
 40
15.28546882020385
 50
72.412046226030142
 51
107.5879537739699
  0
ARC
  5
526B
  8
0
 10
159.33443693279921
 20
54.726467445037997
 30
0.0
 40
4.0893163974808306
 50
55.615752531995177
 51
115.61575253211301
  0
LINE
  5
526C
  8
0
 10
177.76264016307519
 20
85.740306099227695
 30
0.0
 11
154.7626401630088
 21
85.740306099266135
 31
0.0
  0
LINE
  5
526D
  8
0
 10
154.7626401630088
 20
98.740306099214209
 30
0.0
 11
177.76264016307519
 21
98.740306099252649
 31
0.0
  0
ARC
  5
526E
  8
0
 10
160.26264016307519
 20
81.121503947315873
 30
0.0
 40
17.330127017333279
 50
69.74384199764296
 51
110.256158002357
  0
LINE
  5
526F
  8
0
 10
154.26264016306021
 20
98.451630964649226
 30
0.0
 11
154.76264016307519
 21
98.740306099252649
 31
0.0
  0
LINE
  5
5270
  8
0
 10
154.26264016306021
 20
86.028981233831132
 30
0.0
 11
154.76264016307519
 21
85.740306099227695
 31
0.0
  0
ARC
  5
5271
  8
0
 10
160.26264016307519
 20
103.3591082511644
 30
0.0
 40
17.330127017333279
 50
249.7438419976429
 51
290.25615800235693
  0
LINE
  5
5272
  8
0
 10
154.26264016306021
 20
98.451630964649226
 30
0.0
 11
154.26264016307519
 21
86.028981233822492
 31
0.0
  0
LINE
  5
5273
  8
0
 10
166.26264016307519
 20
87.100778003660338
 30
0.0
 11
166.26264016307519
 21
97.379834194820006
 31
0.0
  0
LINE
  5
5274
  8
0
 10
178.26264016309011
 20
98.451630964649226
 30
0.0
 11
178.26264016307519
 21
86.028981233822492
 31
0.0
  0
ARC
  5
5275
  8
0
 10
172.26264016307519
 20
103.3591082511644
 30
0.0
 40
17.330127017333279
 50
249.7438419976429
 51
290.25615800235693
  0
LINE
  5
5276
  8
0
 10
178.26264016309011
 20
86.028981233831132
 30
0.0
 11
177.76264016307519
 21
85.740306099227695
 31
0.0
  0
LINE
  5
5277
  8
0
 10
178.26264016309011
 20
98.451630964649226
 30
0.0
 11
177.76264016307519
 21
98.740306099252649
 31
0.0
  0
ARC
  5
5278
  8
0
 10
172.26264016307519
 20
81.121503947315873
 30
0.0
 40
17.330127017333279
 50
69.74384199764296
 51
110.256158002357
  0
LINE
  5
5279
  8
0
 10
160.76264016307471
 20
49.951630964681712
 30
0.0
 11
160.76264016307471
 21
52.951630964681499
 31
0.0
  0
LINE
  5
527A
  8
0
 10
171.76264016307471
 20
49.951630964681712
 30
0.0
 11
171.76264016307471
 21
52.951630964681499
 31
0.0
  0
LINE
  5
527B
  8
1
 10
59.26260740436328
 20
22.95163096468195
 30
0.0
 11
59.26260740436328
 21
131.9516309646819
 31
0.0
  0
LINE
  5
527C
  8
0
 10
51.26260740436328
 20
98.740306099194996
 30
0.0
 11
51.26260740436328
 21
124.9516309646819
 31
0.0
  0
LINE
  5
527D
  8
3
 10
52.345107404363262
 20
98.740306099194996
 30
0.0
 11
52.345107404363262
 21
126.03413096468191
 31
0.0
  0
LINE
  5
527E
  8
0
 10
67.26260740436328
 20
98.740306099194996
 30
0.0
 11
67.26260740436328
 21
124.9516309646819
 31
0.0
  0
LINE
  5
527F
  8
3
 10
66.180107404363284
 20
98.740306099194996
 30
0.0
 11
66.180107404363284
 21
126.03413096468191
 31
0.0
  0
LINE
  5
5280
  8
0
 10
51.497901522009784
 20
52.951630964681719
 30
0.0
 11
67.02731328671571
 21
52.951630964681719
 31
0.0
  0
LINE
  5
5281
  8
0
 10
67.027313286714673
 20
58.95163096468174
 30
0.0
 11
51.497901522010743
 21
58.95163096468174
 31
0.0
  0
ARC
  5
5282
  8
0
 10
55.262607404362782
 20
47.262365829891692
 30
0.0
 40
11.55341801262729
 50
69.743841999608421
 51
110.25615800039159
  0
LINE
  5
5283
  8
0
 10
51.262607404362697
 20
58.81578384251906
 30
0.0
 11
51.497901522010743
 21
58.95163096468174
 31
0.0
  0
ARC
  5
5284
  8
0
 10
55.262607404362782
 20
64.64089609947132
 30
0.0
 40
11.55341801262729
 50
249.74384199960841
 51
290.25615800039151
  0
LINE
  5
5285
  8
0
 10
51.262607404362697
 20
53.08747808684393
 30
0.0
 11
51.497901522010743
 21
52.951630964681051
 31
0.0
  0
LINE
  5
5286
  8
0
 10
51.262607404362697
 20
58.81578384251906
 30
0.0
 11
51.262607404362761
 21
53.08747808684393
 31
0.0
  0
LINE
  5
5287
  8
0
 10
59.262607404362747
 20
58.101252662703018
 30
0.0
 11
59.262607404362747
 21
53.802009266659738
 31
0.0
  0
LINE
  5
5288
  8
0
 10
67.262607404362825
 20
58.81578384251906
 30
0.0
 11
67.262607404362768
 21
53.08747808684393
 31
0.0
  0
ARC
  5
5289
  8
0
 10
63.262607404362782
 20
64.64089609947132
 30
0.0
 40
11.55341801262729
 50
249.74384199960841
 51
290.25615800039151
  0
LINE
  5
528A
  8
0
 10
67.262607404362825
 20
53.08747808684393
 30
0.0
 11
67.02731328671473
 21
52.951630964681051
 31
0.0
  0
LINE
  5
528B
  8
0
 10
67.262607404362825
 20
58.81578384251906
 30
0.0
 11
67.02731328671473
 21
58.95163096468174
 31
0.0
  0
ARC
  5
528C
  8
0
 10
63.262607404362782
 20
47.262365829891692
 30
0.0
 40
11.55341801262729
 50
69.743841999608421
 51
110.25615800039159
  0
LINE
  5
528D
  8
0
 10
53.26260740436328
 20
126.9516309646819
 30
0.0
 11
65.262607404363266
 21
126.9516309646819
 31
0.0
  0
LINE
  5
528E
  8
0
 10
67.262607404363294
 20
58.815783842518599
 30
0.0
 11
67.262607404363294
 21
85.740306099246723
 31
0.0
  0
LINE
  5
528F
  8
3
 10
66.180107404363284
 20
60.951630964681939
 30
0.0
 11
66.180107404363284
 21
85.740306099246723
 31
0.0
  0
LINE
  5
5290
  8
3
 10
52.345107404363262
 20
60.951630964681939
 30
0.0
 11
52.345107404363262
 21
85.740306099246723
 31
0.0
  0
LINE
  5
5291
  8
0
 10
51.26260740436328
 20
58.815783842519302
 30
0.0
 11
51.26260740436328
 21
85.740306099246936
 31
0.0
  0
LINE
  5
5292
  8
0
 10
51.26260740436328
 20
124.9516309646819
 30
0.0
 11
53.26260740436328
 21
126.9516309646819
 31
0.0
  0
LINE
  5
5293
  8
0
 10
65.262607404363266
 20
126.9516309646819
 30
0.0
 11
67.26260740436328
 21
124.9516309646819
 31
0.0
  0
LINE
  5
5294
  8
0
 10
67.26260740436328
 20
124.9516309646819
 30
0.0
 11
51.26260740436328
 21
124.9516309646819
 31
0.0
  0
LINE
  5
5295
  8
0
 10
51.26260740436328
 20
60.951630964681939
 30
0.0
 11
67.26260740436328
 21
60.951630964681939
 31
0.0
  0
LINE
  5
5296
  8
3
 10
52.345107404363262
 20
60.951630964681939
 30
0.0
 11
51.26260740436328
 21
59.07668596548865
 31
0.0
  0
LINE
  5
5297
  8
3
 10
66.180107404363284
 20
60.951630964681939
 30
0.0
 11
67.26260740436328
 21
59.07668596548865
 31
0.0
  0
LINE
  5
5298
  8
0
 10
70.76260740425522
 20
85.740306099246936
 30
0.0
 11
47.762607404470771
 21
85.740306099246936
 31
0.0
  0
LINE
  5
5299
  8
0
 10
47.762607404362967
 20
98.740306099194996
 30
0.0
 11
70.76260740425522
 21
98.740306099194996
 31
0.0
  0
ARC
  5
529A
  8
0
 10
69.654912249776501
 20
92.31765636890907
 30
0.0
 40
6.1339745957208196
 50
64.384247469854884
 51
124.3842474712113
  0
LINE
  5
529B
  8
0
 10
73.11901386493598
 20
97.379834194800765
 30
0.0
 11
70.76260740425522
 21
98.740306099194996
 31
0.0
  0
LINE
  5
529C
  8
0
 10
73.11901386493598
 20
87.100778003641153
 30
0.0
 11
70.76260740425522
 21
85.740306099246936
 31
0.0
  0
ARC
  5
529D
  8
0
 10
69.654912249776501
 20
92.162955829532635
 30
0.0
 40
6.1339745957208196
 50
235.6157525287887
 51
295.61575253014507
  0
LINE
  5
529E
  8
0
 10
73.119013864914166
 20
97.379834194800765
 30
0.0
 11
73.119013864914166
 21
87.10077800362842
 31
0.0
  0
LINE
  5
529F
  8
0
 10
66.190810634638353
 20
97.379834194800765
 30
0.0
 11
66.190810634638353
 21
87.100778003641153
 31
0.0
  0
LINE
  5
52A0
  8
0
 10
52.334404174087638
 20
97.379834194800765
 30
0.0
 11
52.334404174087638
 21
87.100778003641153
 31
0.0
  0
LINE
  5
52A1
  8
0
 10
45.406200943811811
 20
97.379834194800765
 30
0.0
 11
45.406200943811811
 21
87.10077800362842
 31
0.0
  0
ARC
  5
52A2
  8
0
 10
59.262607404362981
 20
108.9571844619513
 30
0.0
 40
22.928203228139491
 50
252.41204622431411
 51
287.58795377568589
  0
ARC
  5
52A3
  8
0
 10
48.87030255894949
 20
92.162955829532635
 30
0.0
 40
6.1339745957208196
 50
244.3842474698549
 51
304.38424747121132
  0
LINE
  5
52A4
  8
0
 10
45.406200943789997
 20
87.100778003641153
 30
0.0
 11
47.762607404470771
 21
85.740306099246936
 31
0.0
  0
LINE
  5
52A5
  8
0
 10
45.406200943789997
 20
97.379834194800765
 30
0.0
 11
47.762607404470771
 21
98.740306099194996
 31
0.0
  0
ARC
  5
52A6
  8
0
 10
48.87030255894949
 20
92.31765636890907
 30
0.0
 40
6.1339745957208196
 50
55.61575252878869
 51
115.6157525301451
  0
ARC
  5
52A7
  8
0
 10
59.262607404362981
 20
75.523427736490376
 30
0.0
 40
22.928203228139491
 50
72.412046224314139
 51
107.5879537756858
  0
LINE
  5
52A8
  8
0
 10
64.762607404362655
 20
49.951630964681939
 30
0.0
 11
64.762607404362655
 21
52.951630964681719
 31
0.0
  0
LINE
  5
52A9
  8
0
 10
53.762607404362647
 20
49.951630964681939
 30
0.0
 11
53.762607404362647
 21
52.951630964681719
 31
0.0
  0
CIRCLE
  5
52AA
  8
3
 10
59.26260740436328
 20
182.23193626144661
 30
0.0
 40
6.9175000000000004
  0
CIRCLE
  5
52AB
  8
0
 10
59.26260740436328
 20
182.23193626144661
 30
0.0
 40
8.0
  0
CIRCLE
  5
52AC
  8
0
 10
59.26260740436328
 20
182.23193626144661
 30
0.0
 40
11.5
  0
LINE
  5
52AD
  8
0
 10
73.119013864914265
 20
182.23193626144661
 30
0.0
 11
66.190810634638694
 21
194.23193626144661
 31
0.0
  0
LINE
  5
52AE
  8
0
 10
66.190810634638694
 20
170.23193626144649
 30
0.0
 11
73.119013864914265
 21
182.23193626144661
 31
0.0
  0
LINE
  5
52AF
  8
0
 10
52.334404174087751
 20
170.23193626144649
 30
0.0
 11
66.190810634638694
 21
170.23193626144649
 31
0.0
  0
LINE
  5
52B0
  8
0
 10
45.406200943812173
 20
182.23193626144661
 30
0.0
 11
52.334404174087751
 21
170.23193626144649
 31
0.0
  0
LINE
  5
52B1
  8
0
 10
52.334404174087751
 20
194.23193626144661
 30
0.0
 11
45.406200943812173
 21
182.23193626144661
 31
0.0
  0
LINE
  5
52B2
  8
0
 10
66.190810634638694
 20
194.23193626144661
 30
0.0
 11
52.334404174087751
 21
194.23193626144661
 31
0.0
  0
LINE
  5
52C2
  8
0
 10
69.72381254620565
 20
49.244524183495272
 30
0.0
 11
70.738017240428931
 21
48.230319489272013
 31
0.0
  0
LINE
  5
52CA
  8
0
 10
94.262607404363294
 20
36.75490965320661
 30
0.0
 11
94.262607404363294
 21
37.15841998592213
 31
0.0
  0
LINE
  5
52D1
  8
0
 10
94.262607404363294
 20
31.45163096468195
 30
0.0
 11
94.262607404363294
 21
36.75490965320661
 31
0.0
  0
LINE
  5
52D2
  8
0
 10
89.672443469937207
 20
30.95163096468195
 30
0.0
 11
89.672443469937207
 21
27.951630964681961
 31
0.0
  0
LINE
  5
52D3
  8
0
 10
93.762607404363266
 20
30.95163096468195
 30
0.0
 11
94.262607404363294
 21
31.45163096468195
 31
0.0
  0
LINE
  5
52D4
  8
0
 10
88.524902486330575
 20
39.623762112222948
 30
0.0
 11
93.549955289929699
 21
38.116246271143162
 31
0.0
  0
LINE
  5
52D5
  8
0
 10
88.511859556607547
 20
39.623762112222948
 30
0.0
 11
88.511859556607547
 21
40.027759346447048
 31
0.0
  0
LINE
  5
52D6
  8
0
 10
82.787197568297742
 20
42.492614571239287
 30
0.0
 11
87.799807902323565
 21
40.985405288431593
 31
0.0
  0
LINE
  5
52D7
  8
0
 10
76.475722158461622
 20
45.361467030255653
 30
0.0
 11
76.475722158461622
 21
45.764977362971187
 31
0.0
  0
LINE
  5
52D8
  8
0
 10
82.787197568297742
 20
42.492614571239287
 30
0.0
 11
82.78719756829787
 21
42.876359713846568
 31
0.0
  0
LINE
  5
52D9
  8
0
 10
76.475722158461622
 20
45.361467030255653
 30
0.0
 11
82.050314974089929
 21
43.841123535084293
 31
0.0
  0
LINE
  5
52DA
  8
0
 10
70.738017240428931
 20
48.230319489272013
 30
0.0
 11
75.763070044028041
 21
46.722803648192432
 31
0.0
  0
ARC
  5
52DB
  8
0
 10
93.262607404363294
 20
37.15841998592213
 30
0.0
 40
1.0
 50
0.0
 51
73.300755766006219
  0
ARC
  5
52DC
  8
0
 10
87.511859556607547
 20
40.027759346447048
 30
0.0
 40
1.0
 50
0.0
 51
73.264833729935233
  0
ARC
  5
52DD
  8
0
 10
81.78719756829787
 20
42.876359713846568
 30
0.0
 40
1.0
 50
0.0
 51
74.74488129694214
  0
ARC
  5
52DE
  8
0
 10
75.475722158461622
 20
45.764977362971187
 30
0.0
 40
1.0
 50
0.0
 51
73.300755766005906
  0
LINE
  5
52DF
  8
0
 10
69.72381254620565
 20
49.244524183495272
 30
0.0
 11
68.016705765019211
 21
49.951630964681939
 31
0.0
  0
LINE
  5
52E1
  8
0
 10
28.852771338789349
 20
27.951630964681961
 30
0.0
 11
89.672443469937207
 21
27.95163096468195
 31
0.0
  0
LINE
  5
52E2
  8
0
 10
48.801402262520917
 20
49.244524183495272
 30
0.0
 11
50.50850904370737
 21
49.951630964681939
 31
0.0
  0
ARC
  5
52E3
  8
0
 10
43.049492650264916
 20
45.764977362971187
 30
0.0
 40
1.0
 50
106.69924423399409
 51
180.0
  0
ARC
  5
52E4
  8
0
 10
36.73801724042869
 20
42.876359713846568
 30
0.0
 40
1.0
 50
105.2551187030578
 51
180.0
  0
ARC
  5
52E5
  8
0
 10
31.01335525211903
 20
40.027759346447048
 30
0.0
 40
1.0
 50
106.7351662700647
 51
180.0
  0
ARC
  5
52E6
  8
0
 10
25.26260740436328
 20
37.15841998592213
 30
0.0
 40
1.0
 50
106.6992442339937
 51
180.0
  0
LINE
  5
52E7
  8
0
 10
47.787197568297643
 20
48.230319489272013
 30
0.0
 11
42.762144764698519
 21
46.722803648192432
 31
0.0
  0
LINE
  5
52E8
  8
0
 10
42.049492650264938
 20
45.361467030255653
 30
0.0
 11
36.474899834636631
 21
43.841123535084293
 31
0.0
  0
LINE
  5
52E9
  8
0
 10
35.738017240428803
 20
42.492614571239287
 30
0.0
 11
35.73801724042869
 21
42.876359713846568
 31
0.0
  0
LINE
  5
52EA
  8
0
 10
42.049492650264938
 20
45.361467030255653
 30
0.0
 11
42.049492650264938
 21
45.764977362971187
 31
0.0
  0
LINE
  5
52EB
  8
0
 10
35.738017240428803
 20
42.492614571239287
 30
0.0
 11
30.725406906403009
 21
40.985405288431593
 31
0.0
  0
LINE
  5
52EC
  8
0
 10
30.01335525211903
 20
39.623762112222948
 30
0.0
 11
30.01335525211903
 21
40.027759346447048
 31
0.0
  0
LINE
  5
52ED
  8
0
 10
30.000312322395981
 20
39.623762112222948
 30
0.0
 11
24.975259518796861
 21
38.116246271143162
 31
0.0
  0
LINE
  5
52EE
  8
0
 10
24.76260740436328
 20
30.95163096468195
 30
0.0
 11
24.26260740436328
 21
31.45163096468195
 31
0.0
  0
LINE
  5
52EF
  8
0
 10
28.852771338789349
 20
30.95163096468195
 30
0.0
 11
28.852771338789349
 21
27.951630964681961
 31
0.0
  0
LINE
  5
52F0
  8
0
 10
24.26260740436328
 20
31.45163096468195
 30
0.0
 11
24.26260740436328
 21
36.75490965320661
 31
0.0
  0
LINE
  5
52F7
  8
0
 10
24.26260740436328
 20
36.75490965320661
 30
0.0
 11
24.26260740436328
 21
37.15841998592213
 31
0.0
  0
LINE
  5
52F8
  8
0
 10
50.50850904370737
 20
49.951630964681939
 30
0.0
 11
68.01670576501914
 21
49.951630964681939
 31
0.0
  0
LINE
  5
52F9
  8
0
 10
47.787197568297643
 20
48.230319489272013
 30
0.0
 11
70.738017240428931
 21
48.230319489272013
 31
0.0
  0
LINE
  5
52FA
  8
0
 10
42.049492650264938
 20
45.361467030255653
 30
0.0
 11
76.475722158461622
 21
45.361467030255653
 31
0.0
  0
LINE
  5
52FB
  8
0
 10
35.738017240428803
 20
42.492614571239287
 30
0.0
 11
82.787197568297714
 21
42.492614571239287
 31
0.0
  0
LINE
  5
52FC
  8
0
 10
30.000312322395981
 20
39.623762112222948
 30
0.0
 11
88.524902486330575
 21
39.623762112222948
 31
0.0
  0
LINE
  5
52FD
  8
0
 10
24.76260740436328
 20
30.95163096468195
 30
0.0
 11
93.762607404363294
 21
30.95163096468195
 31
0.0
  0
LINE
  5
52FE
  8
0
 10
24.26260740436328
 20
36.75490965320661
 30
0.0
 11
94.262607404363294
 21
36.75490965320661
 31
0.0
  0
LINE
  5
52FF
  8
0
 10
48.801402262520917
 20
49.244524183495272
 30
0.0
 11
47.787197568297643
 21
48.230319489272013
 31
0.0
  0
CIRCLE
  5
5300
  8
0
 10
59.26260740436328
 20
182.23193626144661
 30
0.0
 40
35.00000000000005
  0
CIRCLE
  5
5301
  8
0
 10
59.26260740436328
 20
182.23193626144641
 30
0.0
 40
29.249252152244249
  0
CIRCLE
  5
5302
  8
0
 10
59.26260740436328
 20
182.23193626144641
 30
0.0
 40
23.52459016393453
  0
CIRCLE
  5
5303
  8
0
 10
59.26260740436328
 20
182.23193626144661
 30
0.0
 40
17.213114754098338
  0
LINE
  5
5304
  8
1
 10
59.26260740436328
 20
222.23193626144669
 30
0.0
 11
59.26260740436328
 21
142.23193626144641
 31
0.0
  0
LINE
  5
5305
  8
1
 10
99.262607404363294
 20
182.23193626144661
 30
0.0
 11
19.26260740436328
 21
182.23193626144661
 31
0.0
  0
LINE
  5
5306
  8
0
 10
155.80143502123241
 20
49.244524183495272
 30
0.0
 11
154.7872303270091
 21
48.230319489272013
 31
0.0
  0
LINE
  5
5307
  8
0
 10
131.26264016307471
 20
36.75490965320661
 30
0.0
 11
201.26264016307479
 21
36.75490965320661
 31
0.0
  0
LINE
  5
5308
  8
0
 10
131.76264016307471
 20
30.95163096468195
 30
0.0
 11
200.76264016307479
 21
30.95163096468195
 31
0.0
  0
LINE
  5
5309
  8
0
 10
137.00034508110741
 20
39.623762112222948
 30
0.0
 11
195.524935245042
 21
39.623762112222948
 31
0.0
  0
LINE
  5
530A
  8
0
 10
142.73804999914009
 20
42.492614571239287
 30
0.0
 11
189.78723032700921
 21
42.492614571239308
 31
0.0
  0
LINE
  5
530B
  8
0
 10
149.04952540897639
 20
45.361467030255653
 30
0.0
 11
183.47575491717291
 21
45.36146703025566
 31
0.0
  0
LINE
  5
530C
  8
0
 10
154.7872303270091
 20
48.230319489272013
 30
0.0
 11
177.73804999914029
 21
48.230319489272013
 31
0.0
  0
LINE
  5
530D
  8
0
 10
157.5085418024189
 20
49.951630964681939
 30
0.0
 11
175.01673852373051
 21
49.951630964681939
 31
0.0
  0
LINE
  5
530E
  8
0
 10
131.26264016307471
 20
36.75490965320661
 30
0.0
 11
131.26264016307471
 21
37.15841998592213
 31
0.0
  0
LINE
  5
5315
  8
0
 10
131.26264016307471
 20
31.45163096468195
 30
0.0
 11
131.26264016307471
 21
36.75490965320661
 31
0.0
  0
LINE
  5
5316
  8
0
 10
135.85280409750081
 20
30.95163096468195
 30
0.0
 11
135.85280409750081
 21
27.951630964681961
 31
0.0
  0
LINE
  5
5317
  8
0
 10
131.76264016307471
 20
30.95163096468195
 30
0.0
 11
131.26264016307471
 21
31.45163096468195
 31
0.0
  0
LINE
  5
5318
  8
0
 10
137.00034508110741
 20
39.623762112222948
 30
0.0
 11
131.97529227750829
 21
38.116246271143162
 31
0.0
  0
LINE
  5
5319
  8
0
 10
137.01338801083051
 20
39.623762112222948
 30
0.0
 11
137.01338801083051
 21
40.027759346447048
 31
0.0
  0
LINE
  5
531A
  8
0
 10
142.73804999914009
 20
42.492614571239287
 30
0.0
 11
137.72543966511441
 21
40.985405288431593
 31
0.0
  0
LINE
  5
531B
  8
0
 10
149.04952540897639
 20
45.361467030255653
 30
0.0
 11
149.04952540897631
 21
45.764977362971187
 31
0.0
  0
LINE
  5
531C
  8
0
 10
142.73804999914009
 20
42.492614571239287
 30
0.0
 11
142.73804999914009
 21
42.876359713846568
 31
0.0
  0
LINE
  5
531D
  8
0
 10
149.04952540897639
 20
45.361467030255653
 30
0.0
 11
143.47493259334809
 21
43.841123535084293
 31
0.0
  0
LINE
  5
531E
  8
0
 10
154.7872303270091
 20
48.230319489272013
 30
0.0
 11
149.76217752340989
 21
46.722803648192432
 31
0.0
  0
ARC
  5
531F
  8
0
 10
132.26264016307471
 20
37.15841998592213
 30
0.0
 40
1.0
 50
106.6992442339937
 51
180.0
  0
ARC
  5
5320
  8
0
 10
138.01338801083051
 20
40.027759346447048
 30
0.0
 40
1.0
 50
106.7351662700647
 51
180.0
  0
ARC
  5
5321
  8
0
 10
143.73804999914009
 20
42.876359713846568
 30
0.0
 40
1.0
 50
105.2551187030578
 51
180.0
  0
ARC
  5
5322
  8
0
 10
150.04952540897631
 20
45.764977362971187
 30
0.0
 40
1.0
 50
106.69924423399409
 51
180.0
  0
LINE
  5
5323
  8
0
 10
155.80143502123241
 20
49.244524183495272
 30
0.0
 11
157.5085418024189
 21
49.951630964681939
 31
0.0
  0
LINE
  5
5324
  8
0
 10
135.85280409750081
 20
27.951630964681961
 30
0.0
 11
196.67247622864861
 21
27.95163096468195
 31
0.0
  0
LINE
  5
5326
  8
0
 10
176.72384530491709
 20
49.244524183495272
 30
0.0
 11
175.0167385237306
 21
49.951630964681939
 31
0.0
  0
ARC
  5
5327
  8
0
 10
182.47575491717311
 20
45.764977362971187
 30
0.0
 40
1.0
 50
0.0
 51
73.300755766005906
  0
ARC
  5
5328
  8
0
 10
188.7872303270093
 20
42.876359713846568
 30
0.0
 40
1.0
 50
0.0
 51
74.74488129694214
  0
ARC
  5
5329
  8
0
 10
194.5118923153189
 20
40.027759346447048
 30
0.0
 40
1.0
 50
0.0
 51
73.264833729935233
  0
ARC
  5
532A
  8
0
 10
200.26264016307479
 20
37.15841998592213
 30
0.0
 40
1.0
 50
0.0
 51
73.300755766006219
  0
LINE
  5
532B
  8
0
 10
177.73804999914029
 20
48.230319489272013
 30
0.0
 11
182.7631028027395
 21
46.722803648192432
 31
0.0
  0
LINE
  5
532C
  8
0
 10
183.47575491717291
 20
45.361467030255653
 30
0.0
 11
189.05034773280141
 21
43.841123535084293
 31
0.0
  0
LINE
  5
532D
  8
0
 10
189.78723032700921
 20
42.492614571239287
 30
0.0
 11
189.7872303270093
 21
42.876359713846568
 31
0.0
  0
LINE
  5
532E
  8
0
 10
183.47575491717291
 20
45.361467030255653
 30
0.0
 11
183.47575491717311
 21
45.764977362971187
 31
0.0
  0
LINE
  5
532F
  8
0
 10
189.78723032700921
 20
42.492614571239287
 30
0.0
 11
194.79984066103501
 21
40.985405288431593
 31
0.0
  0
LINE
  5
5330
  8
0
 10
195.5118923153189
 20
39.623762112222948
 30
0.0
 11
195.5118923153189
 21
40.027759346447048
 31
0.0
  0
LINE
  5
5331
  8
0
 10
195.524935245042
 20
39.623762112222948
 30
0.0
 11
200.54998804864121
 21
38.116246271143162
 31
0.0
  0
LINE
  5
5332
  8
0
 10
200.76264016307479
 20
30.95163096468195
 30
0.0
 11
201.26264016307479
 21
31.45163096468195
 31
0.0
  0
LINE
  5
5333
  8
0
 10
196.67247622864861
 20
30.95163096468195
 30
0.0
 11
196.67247622864869
 21
27.951630964681961
 31
0.0
  0
LINE
  5
5334
  8
0
 10
201.26264016307479
 20
31.45163096468195
 30
0.0
 11
201.26264016307479
 21
36.75490965320661
 31
0.0
  0
LINE
  5
5338
  8
0
 10
201.26264016307479
 20
36.75490965320661
 30
0.0
 11
201.26264016307479
 21
37.15841998592213
 31
0.0
  0
LINE
  5
533F
  8
0
 10
176.72384530491709
 20
49.244524183495272
 30
0.0
 11
177.73804999914029
 21
48.230319489272013
 31
0.0
  0
TEXT
  5
56F5
  8
0
 62
     3
 10
0.0
 20
0.0
 30
0.0
 40
10.0
  1
LVER70S16A
  7
STANDARD1
  0
ENDSEC
  0
EOF
