  0
SECTION
  2
HEADER
  9
$ACADVER
  1
AC1009
  9
$INSBASE
 10
0.0
 20
0.0
 30
0.0
  9
$EXTMIN
 10
0.0
 20
-2.960436562073669
 30
0.0
  9
$EXTMAX
 10
210.2094720524575
 20
224.61773380760431
 30
0.0
  9
$LIMMIN
 10
0.0
 20
0.0
  9
$LIMMAX
 10
375.0
 20
270.0
  9
$ORTHOMODE
 70
     1
  9
$REGENMODE
 70
     1
  9
$FILLMODE
 70
     1
  9
$QTEXTMODE
 70
     0
  9
$MIRRTEXT
 70
     0
  9
$DRAGMODE
 70
     2
  9
$LTSCALE
 40
6.0
  9
$OSMODE
 70
    37
  9
$ATTMODE
 70
     1
  9
$TEXTSIZE
 40
0.2
  9
$TRACEWID
 40
0.05
  9
$TEXTSTYLE
  7
STANDARD
  9
$CLAYER
  8
0
  9
$CELTYPE
  6
BYLAYER
  9
$CECOLOR
 62
   256
  9
$DIMSCALE
 40
1.0
  9
$DIMASZ
 40
3.0
  9
$DIMEXO
 40
1.0
  9
$DIMDLI
 40
6.0
  9
$DIMRND
 40
0.0
  9
$DIMDLE
 40
0.0
  9
$DIMEXE
 40
1.0
  9
$DIMTP
 40
495.0
  9
$DIMTM
 40
0.0
  9
$DIMTXT
 40
3.0
  9
$DIMCEN
 40
0.0
  9
$DIMTSZ
 40
0.0
  9
$DIMTOL
 70
     0
  9
$DIMLIM
 70
     0
  9
$DIMTIH
 70
     0
  9
$DIMTOH
 70
     0
  9
$DIMSE1
 70
     0
  9
$DIMSE2
 70
     0
  9
$DIMTAD
 70
     1
  9
$DIMZIN
 70
     0
  9
$DIMBLK
  1

  9
$DIMASO
 70
     0
  9
$DIMSHO
 70
     0
  9
$DIMPOST
  1

  9
$DIMAPOST
  1

  9
$DIMALT
 70
     0
  9
$DIMALTD
 70
     2
  9
$DIMALTF
 40
25.399999999999999
  9
$DIMLFAC
 40
1.0
  9
$DIMTOFL
 70
     1
  9
$DIMTVP
 40
0.0
  9
$DIMTIX
 70
     1
  9
$DIMSOXD
 70
     0
  9
$DIMSAH
 70
     0
  9
$DIMBLK1
  1

  9
$DIMBLK2
  1

  9
$DIMSTYLE
  2
STANDARD
  9
$DIMCLRD
 70
     0
  9
$DIMCLRE
 70
     0
  9
$DIMCLRT
 70
     4
  9
$DIMTFAC
 40
1.0
  9
$DIMGAP
 40
1.0
  9
$LUNITS
 70
     2
  9
$LUPREC
 70
     4
  9
$SKETCHINC
 40
0.1
  9
$FILLETRAD
 40
2.0
  9
$AUNITS
 70
     0
  9
$AUPREC
 70
     0
  9
$MENU
  1
C:\R13\WIN\SUPPORT\ACAD-I
  9
$ELEVATION
 40
0.0
  9
$PELEVATION
 40
0.0
  9
$THICKNESS
 40
0.0
  9
$LIMCHECK
 70
     0
  9
$BLIPMODE
 70
     0
  9
$CHAMFERA
 40
0.0
  9
$CHAMFERB
 40
0.0
  9
$SKPOLY
 70
     0
  9
$TDCREATE
 40
2451962.452385752
  9
$TDUPDATE
 40
2456598.7231602548
  9
$TDINDWG
 40
0.0275076157
  9
$TDUSRTIMER
 40
2456598.0756575
  9
$USRTIMER
 70
     1
  9
$ANGBASE
 50
0.0
  9
$ANGDIR
 70
     0
  9
$PDMODE
 70
     0
  9
$PDSIZE
 40
0.0
  9
$PLINEWID
 40
0.0
  9
$COORDS
 70
     1
  9
$SPLFRAME
 70
     0
  9
$SPLINETYPE
 70
     6
  9
$SPLINESEGS
 70
     8
  9
$ATTDIA
 70
     0
  9
$ATTREQ
 70
     1
  9
$HANDLING
 70
     1
  9
$HANDSEED
  5
4CB5
  9
$SURFTAB1
 70
     6
  9
$SURFTAB2
 70
     6
  9
$SURFTYPE
 70
     6
  9
$SURFU
 70
     6
  9
$SURFV
 70
     6
  9
$UCSNAME
  2

  9
$UCSORG
 10
0.0
 20
0.0
 30
0.0
  9
$UCSXDIR
 10
1.0
 20
0.0
 30
0.0
  9
$UCSYDIR
 10
0.0
 20
1.0
 30
0.0
  9
$PUCSNAME
  2

  9
$PUCSORG
 10
0.0
 20
0.0
 30
0.0
  9
$PUCSXDIR
 10
1.0
 20
0.0
 30
0.0
  9
$PUCSYDIR
 10
0.0
 20
1.0
 30
0.0
  9
$USERI1
 70
     4
  9
$USERI2
 70
     1
  9
$USERI3
 70
     0
  9
$USERI4
 70
     0
  9
$USERI5
 70
     0
  9
$USERR1
 40
1.0
  9
$USERR2
 40
3.0
  9
$USERR3
 40
3.0
  9
$USERR4
 40
3.0
  9
$USERR5
 40
10.0
  9
$WORLDVIEW
 70
     1
  9
$SHADEDGE
 70
     3
  9
$SHADEDIF
 70
    70
  9
$TILEMODE
 70
     1
  9
$MAXACTVP
 70
    16
  9
$PLIMCHECK
 70
     0
  9
$PEXTMIN
 10
1.0000000000000000E+020
 20
1.0000000000000000E+020
 30
1.0000000000000000E+020
  9
$PEXTMAX
 10
-1.0000000000000000E+020
 20
-1.0000000000000000E+020
 30
-1.0000000000000000E+020
  9
$PLIMMIN
 10
0.0
 20
0.0
  9
$PLIMMAX
 10
12.0
 20
9.0
  9
$UNITMODE
 70
     0
  9
$VISRETAIN
 70
     0
  9
$PLINEGEN
 70
     0
  9
$PSLTSCALE
 70
     0
  0
ENDSEC
  0
SECTION
  2
TABLES
  0
TABLE
  2
VPORT
 70
     1
  0
VPORT
  2
*ACTIVE
 70
     0
 10
0.0
 20
0.0
 11
1.0
 21
1.0
 12
187.49427839065231
 22
177.52205812711131
 13
0.0
 23
0.0
 14
10.0
 24
10.0
 15
10.0
 25
10.0
 16
0.0
 26
0.0
 36
1.0
 17
0.0
 27
0.0
 37
0.0
 40
364.13085016302909
 41
1.755244755244755
 42
50.0
 43
0.0
 44
0.0
 50
0.0
 51
0.0
 71
    16
 72
   100
 73
     1
 74
     0
 75
     0
 76
     0
 77
     0
 78
     0
  0
ENDTAB
  0
TABLE
  2
LTYPE
 70
     3
  0
LTYPE
  2
CONTINUOUS
 70
     0
  3
Solid Line
 72
    65
 73
     0
 40
0.0
  0
LTYPE
  2
PHANTOM2
 70
     0
  3
___ _ _ ___ _ _ ___ _ _ ___ _ _
 72
    65
 73
     6
 40
1.25
 49
0.625
 49
-0.125
 49
0.125
 49
-0.125
 49
0.125
 49
-0.125
  0
LTYPE
  2
CENTER
 70
     0
  3
____ _ ____ _ ____ _ ____ _ ____ _ ____ _ ____
 72
    65
 73
     4
 40
2.0
 49
1.25
 49
-0.25
 49
0.25
 49
-0.25
  0
ENDTAB
  0
TABLE
  2
LAYER
 70
     3
  0
LAYER
  2
0
 70
     0
 62
     7
  6
CONTINUOUS
  0
LAYER
  2
1
 70
     0
 62
     1
  6
CENTER
  0
LAYER
  2
3
 70
     0
 62
     3
  6
CONTINUOUS
  0
ENDTAB
  0
TABLE
  2
STYLE
 70
     3
  0
STYLE
  2
STANDARD
 70
     0
 40
0.0
 41
1.0
 50
0.0
 71
     0
 42
0.2
  3
SIMPLEX
  4
BIGFONT
  0
STYLE
  2
ANNOTATIVE
 70
     0
 40
0.0
 41
1.0
 50
0.0
 71
     0
 42
0.2
  3
txt
  4

  0
STYLE
  2
STANDARD1
 70
     0
 40
0.0
 41
1.0
 50
0.0
 71
     0
 42
3.0
  3
txt
  4

  0
ENDTAB
  0
TABLE
  2
VIEW
 70
     0
  0
ENDTAB
  0
TABLE
  2
UCS
 70
     0
  0
ENDTAB
  0
TABLE
  2
APPID
 70
    29
  0
APPID
  2
ACAD
 70
     0
  0
APPID
  2
ACADANNOTATIVE
 70
     0
  0
APPID
  2
GENIUS_GENOREF_13
 70
     0
  0
APPID
  2
GENIUS_GENOENT_13
 70
     0
  0
APPID
  2
GENIUS_GENBH_13
 70
     0
  0
APPID
  2
GENIUS_GENOBJ_13
 70
     0
  0
APPID
  2
GENIUS_GENODEF_13
 70
     0
  0
APPID
  2
GENIUS_GENOLIS_13
 70
     0
  0
APPID
  2
GENIUS_GENOBJ-NBEHI-BHF_13
 70
     0
  0
APPID
  2
GENIUS_GENOBJ-NBEHI-BHB_13
 70
     0
  0
APPID
  2
GENIUS_GENOBJ-F-PART_13
 70
     0
  0
APPID
  2
GENIUS_GEFSTDP_13
 70
     0
  0
APPID
  2
GENIUS_GENOBJ-N-RSSYM_13
 70
     0
  0
APPID
  2
GENIUS_GENSYMENT_13
 70
     0
  0
APPID
  2
GENIUS_GENOBJ-N-TIT_13
 70
     0
  0
APPID
  2
GENIUS_GENTITLE_13
 70
     0
  0
APPID
  2
GENIUS_GENZVEED_13
 70
     0
  0
APPID
  2
GENIUS_GENOBJ-N-LEADER_13
 70
     0
  0
APPID
  2
GENIUS_GENOBJ-N-FIL_13
 70
     0
  0
APPID
  2
GENIUS_GENOBJ-N-SEC_13
 70
     0
  0
APPID
  2
GENIUS_GENOBJ-N-CRS_13
 70
     0
  0
APPID
  2
GENIUS_GENOBJ-N-ZOO_13
 70
     0
  0
APPID
  2
GENIUS_GENZOO_13
 70
     0
  0
APPID
  2
GENIUS_GENOBJ-F-TOL_13
 70
     0
  0
APPID
  2
GENIUS_GENFIL_13
 70
     0
  0
APPID
  2
GENIUS_GENOBJ-N-CHA_13
 70
     0
  0
APPID
  2
ACAD_EXEMPT_FROM_CAD_STANDARDS
 70
     0
  0
APPID
  2
ACAD_MLEADERVER
 70
     0
  0
APPID
  2
ACAD_NAV_VCDISPLAY
 70
     0
  0
ENDTAB
  0
TABLE
  2
DIMSTYLE
 70
     2
  0
DIMSTYLE
  2
STANDARD
 70
     0
  3

  4

  5

  6

  7

 40
1.0
 41
0.18
 42
0.0625
 43
0.38
 44
0.18
 45
0.0
 46
0.0
 47
0.0
 48
0.0
140
0.18
141
0.09
142
0.0
143
25.399999999999999
144
1.0
145
0.0
146
1.0
147
0.09
 71
     0
 72
     0
 73
     1
 74
     1
 75
     0
 76
     0
 77
     0
 78
     0
170
     0
171
     2
172
     0
173
     0
174
     0
175
     0
176
     0
177
     0
178
     0
  0
DIMSTYLE
  2
ANNOTATIVE
 70
     0
  3

  4

  5

  6

  7

 40
1.0
 41
0.18
 42
0.0625
 43
0.38
 44
0.18
 45
0.0
 46
0.0
 47
0.0
 48
0.0
140
0.18
141
0.09
142
0.0
143
25.399999999999999
144
1.0
145
0.0
146
1.0
147
0.09
 71
     0
 72
     0
 73
     1
 74
     1
 75
     0
 76
     0
 77
     0
 78
     0
170
     0
171
     2
172
     0
173
     0
174
     0
175
     0
176
     0
177
     0
178
     0
  0
ENDTAB
  0
ENDSEC
  0
SECTION
  2
BLOCKS
  0
BLOCK
  8
0
  2
$MODEL_SPACE
 70
     0
 10
0.0
 20
0.0
 30
0.0
  3
$MODEL_SPACE
  1

  0
ENDBLK
  5
4B7C
  8
0
  0
BLOCK
 67
     1
  8
0
  2
$PAPER_SPACE
 70
     0
 10
0.0
 20
0.0
 30
0.0
  3
$PAPER_SPACE
  1

  0
ENDBLK
  5
4B78
 67
     1
  8
0
  0
ENDSEC
  0
SECTION
  2
ENTITIES
  0
LINE
  5
479B
  8
0
 10
175.7094720524575
 20
54.7976007278682
 30
0.0
 11
175.7094720524575
 21
58.797600727867753
 31
0.0
  0
LINE
  5
479C
  8
0
 10
164.7094720524575
 20
54.7976007278682
 30
0.0
 11
164.7094720524575
 21
58.797600727867753
 31
0.0
  0
ARC
  5
479D
  8
0
 10
164.1472942259665
 20
60.064008422984962
 30
0.0
 40
3.5781518477924039
 50
55.615752531961242
 51
115.6157525321741
  0
ARC
  5
479E
  8
0
 10
170.20947205245841
 20
50.267375053123537
 30
0.0
 40
13.374785217653811
 50
72.412046225995169
 51
107.5879537740048
  0
LINE
  5
479F
  8
0
 10
162.1265682838027
 20
63.016945488438083
 30
0.0
 11
163.4787028216895
 21
63.797600727867632
 31
0.0
  0
LINE
  5
47A0
  8
0
 10
162.1265682838027
 20
59.578255967297238
 30
0.0
 11
163.4787028216895
 21
58.797600727867753
 31
0.0
  0
ARC
  5
47A1
  8
0
 10
164.1472942259665
 20
62.531193032750423
 30
0.0
 40
3.5781518477924039
 50
244.38424746782579
 51
304.38424746803872
  0
ARC
  5
47A2
  8
0
 10
170.20947205245841
 20
72.32782640261172
 30
0.0
 40
13.374785217653811
 50
252.4120462259952
 51
287.5879537740048
  0
LINE
  5
47A3
  8
0
 10
162.1265682838027
 20
63.016945488438083
 30
0.0
 11
162.1265682838027
 21
59.578255967297238
 31
0.0
  0
LINE
  5
47A4
  8
0
 10
166.16802016813179
 20
63.016945488436868
 30
0.0
 11
166.16802016813
 21
59.578255967298958
 31
0.0
  0
LINE
  5
47A5
  8
0
 10
174.25092393678301
 20
63.016945488438559
 30
0.0
 11
174.2509239367848
 21
59.578255967298958
 31
0.0
  0
LINE
  5
47A6
  8
0
 10
178.29237582111219
 20
63.016945488438118
 30
0.0
 11
178.29237582111219
 21
59.578255967297238
 31
0.0
  0
ARC
  5
47A7
  8
0
 10
176.27164987894841
 20
62.531193032750423
 30
0.0
 40
3.5781518477924039
 50
235.61575253196131
 51
295.61575253217421
  0
LINE
  5
47A8
  8
0
 10
178.29237582111219
 20
59.578255967297238
 30
0.0
 11
176.94024128322539
 21
58.797600727867753
 31
0.0
  0
LINE
  5
47A9
  8
0
 10
178.29237582111219
 20
63.016945488438083
 30
0.0
 11
176.94024128322539
 21
63.797600727867632
 31
0.0
  0
ARC
  5
47AA
  8
0
 10
176.27164987894841
 20
60.064008422984962
 30
0.0
 40
3.5781518477924039
 50
64.38424746782583
 51
124.38424746803869
  0
LINE
  5
47AB
  8
0
 10
163.4787028216883
 20
63.797600727867632
 30
0.0
 11
176.94024128322511
 21
63.797600727867632
 31
0.0
  0
LINE
  5
47AC
  8
0
 10
176.94024128322539
 20
58.797600727867753
 30
0.0
 11
163.47870282168969
 21
58.797600727867753
 31
0.0
  0
ARC
  5
47AD
  8
0
 10
174.45947205245739
 20
71.377756522153391
 30
0.0
 40
12.275506638416489
 50
69.743841999604243
 51
110.2561580003957
  0
LINE
  5
47AE
  8
0
 10
178.7094720524575
 20
83.653263160569907
 30
0.0
 11
178.45947205245639
 21
83.797600727867916
 31
0.0
  0
LINE
  5
47AF
  8
0
 10
178.7094720524575
 20
75.941938295165514
 30
0.0
 11
178.45947205245639
 21
75.797600727867518
 31
0.0
  0
ARC
  5
47B0
  8
0
 10
174.45947205245739
 20
88.217444933581987
 30
0.0
 40
12.275506638416489
 50
249.7438419996042
 51
290.25615800039589
  0
LINE
  5
47B1
  8
0
 10
178.7094720524575
 20
83.653263160569907
 30
0.0
 11
178.70947205245739
 21
75.941938295165514
 31
0.0
  0
LINE
  5
47B2
  8
0
 10
170.20947205245739
 20
82.894073782015539
 30
0.0
 11
170.20947205245739
 21
76.701127673719611
 31
0.0
  0
LINE
  5
47B3
  8
0
 10
161.70947205245739
 20
83.653263160569907
 30
0.0
 11
161.70947205245739
 21
75.941938295165514
 31
0.0
  0
LINE
  5
47B4
  8
0
 10
161.70947205245739
 20
75.941938295165514
 30
0.0
 11
161.95947205245841
 21
75.797600727867518
 31
0.0
  0
ARC
  5
47B5
  8
0
 10
165.95947205245739
 20
88.217444933581987
 30
0.0
 40
12.275506638416489
 50
249.7438419996042
 51
290.25615800039589
  0
LINE
  5
47B6
  8
0
 10
161.70947205245739
 20
83.653263160569907
 30
0.0
 11
161.95947205245841
 21
83.797600727867916
 31
0.0
  0
ARC
  5
47B7
  8
0
 10
165.95947205245739
 20
71.377756522153391
 30
0.0
 40
12.275506638416489
 50
69.743841999604243
 51
110.2561580003956
  0
LINE
  5
47B8
  8
0
 10
178.45947205245639
 20
83.797600727867916
 30
0.0
 11
161.95947205245841
 21
83.797600727867916
 31
0.0
  0
LINE
  5
47B9
  8
0
 10
161.95947205245739
 20
75.797600727868144
 30
0.0
 11
178.45947205245739
 21
75.797600727868144
 31
0.0
  0
LINE
  5
47BA
  8
0
 10
165.20947205245739
 20
105.2976007278682
 30
0.0
 11
175.20947205245739
 21
105.2976007278681
 31
0.0
  0
LINE
  5
47BB
  8
3
 10
174.3974720524574
 20
65.797600727867803
 30
0.0
 11
175.2094720524573
 21
64.391175472122029
 31
0.0
  0
LINE
  5
47BC
  8
3
 10
166.02147205245731
 20
65.797600727867803
 30
0.0
 11
165.2094720524573
 21
64.391175472122029
 31
0.0
  0
LINE
  5
47BD
  8
0
 10
165.20947205245739
 20
65.797600727867803
 30
0.0
 11
175.20947205245739
 21
65.797600727867675
 31
0.0
  0
LINE
  5
47BE
  8
0
 10
173.70947205245739
 20
106.7976007278681
 30
0.0
 11
175.20947205245739
 21
105.2976007278681
 31
0.0
  0
LINE
  5
47BF
  8
0
 10
165.20947205245739
 20
105.2976007278682
 30
0.0
 11
166.70947205245739
 21
106.7976007278682
 31
0.0
  0
LINE
  5
47C0
  8
3
 10
166.02147205245731
 20
65.797600727867746
 30
0.0
 11
166.0214720524574
 21
75.797600727868144
 31
0.0
  0
LINE
  5
47C1
  8
3
 10
174.39747205245749
 20
65.797600727867632
 30
0.0
 11
174.39747205245749
 21
75.797600727868144
 31
0.0
  0
LINE
  5
47C2
  8
0
 10
166.70947205245739
 20
106.7976007278682
 30
0.0
 11
173.70947205245739
 21
106.7976007278681
 31
0.0
  0
LINE
  5
47C3
  8
0
 10
165.20947205245739
 20
63.797600727867632
 30
0.0
 11
165.20947205245739
 21
75.797600727868144
 31
0.0
  0
LINE
  5
47C4
  8
0
 10
175.20947205245739
 20
63.797600727867632
 30
0.0
 11
175.20947205245739
 21
75.797600727868144
 31
0.0
  0
LINE
  5
47C5
  8
3
 10
174.39747205245749
 20
83.797600727867916
 30
0.0
 11
174.3974720524574
 21
106.1096007278681
 31
0.0
  0
LINE
  5
47C6
  8
0
 10
175.20947205245739
 20
83.797600727867916
 30
0.0
 11
175.20947205245739
 21
105.2976007278681
 31
0.0
  0
LINE
  5
47C7
  8
0
 10
165.20947205245739
 20
83.797600727867916
 30
0.0
 11
165.20947205245739
 21
105.2976007278682
 31
0.0
  0
LINE
  5
47C8
  8
3
 10
166.02147205245731
 20
83.797600727867916
 30
0.0
 11
166.02147205245731
 21
106.1096007278681
 31
0.0
  0
LINE
  5
47C9
  8
0
 10
42.931685149271757
 20
83.797600727868087
 30
0.0
 11
42.9316851492718
 21
105.2976007278682
 31
0.0
  0
LINE
  5
47CA
  8
3
 10
43.74368514927167
 20
83.797600727868087
 30
0.0
 11
43.743685149271677
 21
106.1096007278681
 31
0.0
  0
LINE
  5
47CB
  8
0
 10
52.931685149271772
 20
83.797600727867973
 30
0.0
 11
52.931685149271793
 21
105.2976007278681
 31
0.0
  0
LINE
  5
47CC
  8
3
 10
52.119685149271852
 20
83.797600727867973
 30
0.0
 11
52.119685149271852
 21
106.1096007278681
 31
0.0
  0
LINE
  5
47CD
  8
0
 10
42.931685149271743
 20
105.2976007278682
 30
0.0
 11
52.931685149271743
 21
105.2976007278681
 31
0.0
  0
LINE
  5
47CE
  8
3
 10
52.119685149271852
 20
65.797600727868371
 30
0.0
 11
52.931685149271743
 21
64.391175472122654
 31
0.0
  0
LINE
  5
47CF
  8
3
 10
43.743685149271641
 20
65.797600727868371
 30
0.0
 11
42.931685149271743
 21
64.391175472122654
 31
0.0
  0
LINE
  5
47D0
  8
0
 10
42.931685149271743
 20
65.797600727868371
 30
0.0
 11
52.931685149271743
 21
65.797600727868243
 31
0.0
  0
LINE
  5
47D1
  8
0
 10
51.431685149271793
 20
106.7976007278681
 30
0.0
 11
52.931685149271793
 21
105.2976007278681
 31
0.0
  0
LINE
  5
47D2
  8
0
 10
42.9316851492718
 20
105.2976007278682
 30
0.0
 11
44.431685149271793
 21
106.7976007278682
 31
0.0
  0
LINE
  5
47D3
  8
0
 10
42.931685149271743
 20
63.79760072786803
 30
0.0
 11
42.931685149271757
 21
75.797600727868144
 31
0.0
  0
LINE
  5
47D4
  8
3
 10
43.74368514927167
 20
65.797600727868428
 30
0.0
 11
43.74368514927167
 21
75.797600727868144
 31
0.0
  0
LINE
  5
47D5
  8
3
 10
52.119685149271852
 20
65.797600727868243
 30
0.0
 11
52.119685149271888
 21
75.797600727868144
 31
0.0
  0
LINE
  5
47D6
  8
0
 10
52.931685149271743
 20
63.79760072786803
 30
0.0
 11
52.931685149271743
 21
75.797600727868144
 31
0.0
  0
LINE
  5
47D7
  8
0
 10
44.431685149271793
 20
106.7976007278682
 30
0.0
 11
51.431685149271793
 21
106.7976007278681
 31
0.0
  0
LINE
  5
47D8
  8
0
 10
56.181685149272653
 20
75.797600727868144
 30
0.0
 11
39.681685149271971
 21
75.797600727868144
 31
0.0
  0
LINE
  5
47D9
  8
0
 10
39.681685149272312
 20
83.797600727868144
 30
0.0
 11
56.181685149272568
 21
83.797600727867916
 31
0.0
  0
ARC
  5
47DA
  8
0
 10
55.29290108144005
 20
79.308364488246525
 30
0.0
 40
4.3448986723233833
 50
64.38424746789137
 51
124.3842474680048
  0
LINE
  5
47DB
  8
0
 10
57.746639725495861
 20
82.894073782015937
 30
0.0
 11
56.181685149272312
 21
83.797600727868144
 31
0.0
  0
LINE
  5
47DC
  8
0
 10
57.746639725495861
 20
76.701127673720123
 30
0.0
 11
56.181685149272312
 21
75.797600727867916
 31
0.0
  0
ARC
  5
47DD
  8
0
 10
55.29290108144005
 20
80.286836967489535
 30
0.0
 40
4.3448986723233833
 50
235.61575253199521
 51
295.61575253210867
  0
LINE
  5
47DE
  8
0
 10
57.746639725495861
 20
82.89407378201588
 30
0.0
 11
57.746639725495861
 21
76.701127673720165
 31
0.0
  0
LINE
  5
47DF
  8
0
 10
52.839162437385141
 20
82.894073782015937
 30
0.0
 11
52.839162437384523
 21
76.701127673719952
 31
0.0
  0
LINE
  5
47E0
  8
0
 10
43.024207861159482
 20
82.894073782015937
 30
0.0
 11
43.0242078611601
 21
76.701127673719952
 31
0.0
  0
LINE
  5
47E1
  8
0
 10
38.116730573048763
 20
82.89407378201588
 30
0.0
 11
38.116730573048763
 21
76.701127673720165
 31
0.0
  0
ARC
  5
47E2
  8
0
 10
47.931685149271793
 20
92.182748916632747
 30
0.0
 40
16.24081062146659
 50
252.4120462260268
 51
287.5879537739724
  0
ARC
  5
47E3
  8
0
 10
40.570469217104574
 20
80.286836967489535
 30
0.0
 40
4.3448986723233833
 50
244.3842474678913
 51
304.38424746800467
  0
LINE
  5
47E4
  8
0
 10
38.116730573048763
 20
76.701127673720123
 30
0.0
 11
39.681685149272312
 21
75.797600727867916
 31
0.0
  0
LINE
  5
47E5
  8
0
 10
38.116730573048763
 20
82.894073782015937
 30
0.0
 11
39.681685149272312
 21
83.797600727868144
 31
0.0
  0
ARC
  5
47E6
  8
0
 10
47.931685149271793
 20
67.412452539103299
 30
0.0
 40
16.24081062146659
 50
72.412046226026803
 51
107.5879537739724
  0
ARC
  5
47E7
  8
0
 10
40.570469217104574
 20
79.308364488246525
 30
0.0
 40
4.3448986723233833
 50
55.615752531995092
 51
115.6157525321086
  0
LINE
  5
47E8
  8
0
 10
53.43168514927163
 20
54.7976007278682
 30
0.0
 11
53.43168514927163
 21
58.79760072786803
 31
0.0
  0
LINE
  5
47E9
  8
0
 10
42.431685149271622
 20
54.7976007278682
 30
0.0
 11
42.431685149271622
 21
58.79760072786803
 31
0.0
  0
LINE
  5
47EA
  8
0
 10
47.931685149271523
 20
63.016945488438559
 30
0.0
 11
47.931685149271523
 21
59.57825596729743
 31
0.0
  0
LINE
  5
47EB
  8
0
 10
40.931685149271509
 20
63.642160270777758
 30
0.0
 11
40.931685149271509
 21
58.953041184958252
 31
0.0
  0
LINE
  5
47EC
  8
0
 10
54.931685149271523
 20
63.642160270777758
 30
0.0
 11
54.931685149271523
 21
58.953041184958252
 31
0.0
  0
LINE
  5
47ED
  8
0
 10
54.662454380039541
 20
63.79760072786803
 30
0.0
 11
41.200915918503469
 21
63.79760072786803
 31
0.0
  0
ARC
  5
47EE
  8
0
 10
44.43168514927163
 20
53.532919509740388
 30
0.0
 40
10.10924076103746
 50
69.743841999583083
 51
110.2561580004169
  0
LINE
  5
47EF
  8
0
 10
40.931685149271509
 20
63.642160270777758
 30
0.0
 11
41.200915918503469
 21
63.79760072786803
 31
0.0
  0
LINE
  5
47F0
  8
0
 10
54.931685149271523
 20
63.642160270777758
 30
0.0
 11
54.662454380039541
 21
63.79760072786803
 31
0.0
  0
ARC
  5
47F1
  8
0
 10
51.431685149271402
 20
53.532919509740388
 30
0.0
 40
10.10924076103746
 50
69.743841999583083
 51
110.2561580004169
  0
LINE
  5
47F2
  8
0
 10
54.662454380039541
 20
58.79760072786803
 30
0.0
 11
41.200915918503469
 21
58.79760072786803
 31
0.0
  0
ARC
  5
47F3
  8
0
 10
44.43168514927163
 20
69.062281945995665
 30
0.0
 40
10.10924076103746
 50
249.74384199958311
 51
290.25615800041692
  0
LINE
  5
47F4
  8
0
 10
40.931685149271509
 20
58.953041184958252
 30
0.0
 11
41.200915918503469
 21
58.79760072786803
 31
0.0
  0
LINE
  5
47F5
  8
0
 10
54.931685149271523
 20
58.953041184958252
 30
0.0
 11
54.662454380039541
 21
58.79760072786803
 31
0.0
  0
ARC
  5
47F6
  8
0
 10
51.431685149271402
 20
69.062281945995665
 30
0.0
 40
10.10924076103746
 50
249.74384199958311
 51
290.25615800041692
  0
CIRCLE
  5
47F7
  8
0
 10
47.931685149271743
 20
178.9034480933185
 30
0.0
 40
8.25
  0
LINE
  5
47F8
  8
0
 10
38.116730573048187
 20
178.9034480933185
 30
0.0
 11
43.024207861159873
 21
170.4034480933185
 31
0.0
  0
LINE
  5
47F9
  8
0
 10
43.024207861159987
 20
187.4034480933185
 30
0.0
 11
38.116730573048187
 21
178.9034480933185
 31
0.0
  0
LINE
  5
47FA
  8
0
 10
52.8391624373836
 20
187.4034480933185
 30
0.0
 11
43.024207861159987
 21
187.4034480933185
 31
0.0
  0
LINE
  5
47FB
  8
0
 10
57.746639725495399
 20
178.9034480933185
 30
0.0
 11
52.8391624373836
 21
187.4034480933185
 31
0.0
  0
LINE
  5
47FC
  8
0
 10
52.8391624373836
 20
170.4034480933185
 30
0.0
 11
57.746639725495399
 21
178.9034480933185
 31
0.0
  0
LINE
  5
47FD
  8
0
 10
43.024207861159873
 20
170.4034480933185
 30
0.0
 11
52.8391624373836
 21
170.4034480933185
 31
0.0
  0
CIRCLE
  5
47FE
  8
3
 10
47.931685149271743
 20
178.9034480933185
 30
0.0
 40
4.1879999999999979
  0
CIRCLE
  5
47FF
  8
0
 10
47.931685149271743
 20
178.9034480933185
 30
0.0
 40
5.0
  0
LINE
  5
480F
  8
0
 10
87.931685149271772
 20
30.7976007278682
 30
0.0
 11
7.9316851492716864
 21
30.7976007278682
 31
0.0
  0
LINE
  5
4810
  8
0
 10
87.931685149271772
 20
30.7976007278682
 30
0.0
 11
87.931685149271857
 21
39.642305396157823
 31
0.0
  0
LINE
  5
4811
  8
0
 10
81.431685149271701
 20
30.7976007278682
 30
0.0
 11
81.431685149271729
 21
27.79760072786814
 31
0.0
  0
CIRCLE
  5
4812
  8
0
 10
47.931685149271743
 20
178.9034480933185
 30
0.0
 40
40.00000000000005
  0
LINE
  5
4813
  8
1
 10
47.931685149271743
 20
224.61773380760431
 30
0.0
 11
47.931685149271743
 21
133.18916237903269
 31
0.0
  0
LINE
  5
4814
  8
1
 10
93.645970863557494
 20
178.9034480933185
 30
0.0
 11
2.217399434985964
 21
178.9034480933185
 31
0.0
  0
LINE
  5
4815
  8
0
 10
81.431685149271729
 20
42.82910449440277
 30
0.0
 11
14.43168514927174
 21
42.82910449440277
 31
0.0
  0
LINE
  5
4816
  8
0
 10
75.431685149271729
 20
47.200129456468119
 30
0.0
 11
20.431685149271718
 21
47.200129456468119
 31
0.0
  0
LINE
  5
4817
  8
0
 10
68.782128200347501
 20
50.096339326128323
 30
0.0
 11
27.081242098196071
 21
50.096339326128323
 31
0.0
  0
LINE
  5
4818
  8
0
 10
61.931685149271722
 20
54.7976007278682
 30
0.0
 11
33.931685149271772
 21
54.7976007278682
 31
0.0
  0
LINE
  5
4819
  8
0
 10
81.431685149271729
 20
42.82910449440277
 30
0.0
 11
81.431685149271729
 21
43.670491575150209
 31
0.0
  0
LINE
  5
481A
  8
0
 10
81.431685149271729
 20
42.82910449440277
 30
0.0
 11
87.29066422858071
 21
40.575651002360921
 31
0.0
  0
LINE
  5
481B
  8
0
 10
75.431685149271729
 20
47.200129456468119
 30
0.0
 11
80.867161331659815
 21
44.570691827634441
 31
0.0
  0
LINE
  5
481C
  8
0
 10
68.782128200347429
 20
50.096339326128323
 30
0.0
 11
74.659784262739862
 21
48.719350906742079
 31
0.0
  0
LINE
  5
481D
  8
0
 10
62.931685149271679
 20
53.200129456468119
 30
0.0
 11
32.931685149271743
 21
53.200129456468069
 31
0.0
  0
LINE
  5
481E
  8
0
 10
62.931685149271743
 20
53.200129456468119
 30
0.0
 11
68.091848699061785
 21
51.51926917167696
 31
0.0
  0
LINE
  5
481F
  8
0
 10
62.931685149271701
 20
53.797600727868137
 30
0.0
 11
62.931685149271701
 21
53.200129456468183
 31
0.0
  0
LINE
  5
4820
  8
0
 10
75.431685149271786
 20
47.200129456468119
 30
0.0
 11
75.431685149271786
 21
47.745712989220799
 31
0.0
  0
LINE
  5
4821
  8
0
 10
68.782128200347429
 20
50.096339326128323
 30
0.0
 11
68.782128200347429
 21
50.568441525530723
 31
0.0
  0
ARC
  5
4822
  8
0
 10
61.931685149271722
 20
53.7976007278682
 30
0.0
 40
1.0
 50
359.99999999999881
 51
90.0
  0
ARC
  5
4823
  8
0
 10
67.782128200347429
 20
50.568441525530723
 30
0.0
 40
1.0
 50
0.0
 51
71.957612741641853
  0
ARC
  5
4824
  8
0
 10
74.431685149271786
 20
47.745712989220799
 30
0.0
 40
1.0
 50
0.0
 51
76.814815600247471
  0
ARC
  5
4825
  8
0
 10
86.931685149271857
 20
39.642305396157823
 30
0.0
 40
1.0
 50
0.0
 51
68.962488974578363
  0
ARC
  5
4826
  8
0
 10
80.431685149271715
 20
43.670491575150209
 30
0.0
 40
1.0
 50
0.0
 51
64.184402028349112
  0
LINE
  5
4827
  8
0
 10
81.431685149271729
 20
27.79760072786814
 30
0.0
 11
14.43168514927174
 21
27.797600727868261
 31
0.0
  0
ARC
  5
4828
  8
0
 10
15.43168514927174
 20
43.670491575150209
 30
0.0
 40
1.0
 50
115.8155979716509
 51
180.0
  0
ARC
  5
4829
  8
0
 10
8.931685149271658
 20
39.642305396157823
 30
0.0
 40
1.0
 50
111.03751102542159
 51
180.0
  0
ARC
  5
482A
  8
0
 10
21.431685149271718
 20
47.745712989220799
 30
0.0
 40
1.0
 50
103.1851843997527
 51
180.0
  0
ARC
  5
482B
  8
0
 10
28.081242098196071
 20
50.568441525530723
 30
0.0
 40
1.0
 50
108.04238725835791
 51
180.0
  0
ARC
  5
482C
  8
0
 10
33.931685149271772
 20
53.7976007278682
 30
0.0
 40
1.0
 50
90.0
 51
180.0000000000008
  0
LINE
  5
482D
  8
0
 10
27.081242098196071
 20
50.096339326128323
 30
0.0
 11
27.081242098196071
 21
50.568441525530723
 31
0.0
  0
LINE
  5
482E
  8
0
 10
20.431685149271718
 20
47.200129456468119
 30
0.0
 11
20.431685149271718
 21
47.745712989220799
 31
0.0
  0
LINE
  5
482F
  8
0
 10
32.931685149271772
 20
53.797600727868137
 30
0.0
 11
32.931685149271772
 21
53.200129456468183
 31
0.0
  0
LINE
  5
4830
  8
0
 10
32.931685149271743
 20
53.200129456468119
 30
0.0
 11
27.771521599481702
 21
51.51926917167696
 31
0.0
  0
LINE
  5
4831
  8
0
 10
27.081242098196071
 20
50.096339326128323
 30
0.0
 11
21.203586035803621
 21
48.719350906742079
 31
0.0
  0
LINE
  5
4832
  8
0
 10
20.43168514927174
 20
47.200129456468119
 30
0.0
 11
14.996208966883669
 21
44.570691827634441
 31
0.0
  0
LINE
  5
4833
  8
0
 10
14.43168514927174
 20
42.82910449440277
 30
0.0
 11
8.5727060699627771
 21
40.575651002360921
 31
0.0
  0
LINE
  5
4834
  8
0
 10
14.43168514927174
 20
42.82910449440277
 30
0.0
 11
14.43168514927174
 21
43.670491575150209
 31
0.0
  0
LINE
  5
4835
  8
0
 10
7.9316851492716864
 20
30.7976007278682
 30
0.0
 11
7.9316851492716571
 21
39.642305396157823
 31
0.0
  0
LINE
  5
4836
  8
0
 10
14.43168514927177
 20
30.7976007278682
 30
0.0
 11
14.43168514927174
 21
27.79760072786814
 31
0.0
  0
CIRCLE
  5
4837
  8
0
 10
47.931685149271743
 20
178.9034480933185
 30
0.0
 40
33.5
  0
CIRCLE
  5
4838
  8
0
 10
47.931685149271743
 20
178.9034480933185
 30
0.0
 40
27.5
  0
CIRCLE
  5
4839
  8
0
 10
47.931685149271743
 20
178.9034480933185
 30
0.0
 40
20.850443051075668
  0
CIRCLE
  5
483A
  8
0
 10
47.931685149271743
 20
178.9034480933185
 30
0.0
 40
14.99999999999997
  0
LINE
  5
483B
  8
1
 10
47.931685149271743
 20
22.7976007278682
 30
0.0
 11
47.931685149271743
 21
111.7976007278682
 31
0.0
  0
LINE
  5
483C
  8
1
 10
170.20947205245739
 20
22.7976007278682
 30
0.0
 11
170.20947205245739
 21
111.7976007278682
 31
0.0
  0
LINE
  5
483D
  8
0
 10
136.70947205245739
 20
30.7976007278682
 30
0.0
 11
136.70947205245739
 21
27.79760072786814
 31
0.0
  0
LINE
  5
483E
  8
0
 10
130.2094720524573
 20
30.7976007278682
 30
0.0
 11
130.2094720524573
 21
39.642305396157823
 31
0.0
  0
LINE
  5
483F
  8
0
 10
136.70947205245739
 20
42.82910449440277
 30
0.0
 11
136.70947205245739
 21
43.670491575150209
 31
0.0
  0
LINE
  5
4840
  8
0
 10
136.70947205245739
 20
42.82910449440277
 30
0.0
 11
130.85049297314839
 21
40.575651002360921
 31
0.0
  0
LINE
  5
4841
  8
0
 10
142.70947205245739
 20
47.200129456468119
 30
0.0
 11
137.27399587006931
 21
44.570691827634441
 31
0.0
  0
LINE
  5
4842
  8
0
 10
149.35902900138171
 20
50.096339326128323
 30
0.0
 11
143.48137293898921
 21
48.719350906742079
 31
0.0
  0
LINE
  5
4843
  8
0
 10
155.20947205245739
 20
53.200129456468119
 30
0.0
 11
150.0493085026674
 21
51.51926917167696
 31
0.0
  0
LINE
  5
4844
  8
0
 10
155.20947205245739
 20
53.797600727868137
 30
0.0
 11
155.20947205245739
 21
53.200129456468183
 31
0.0
  0
LINE
  5
4845
  8
0
 10
142.7094720524573
 20
47.200129456468119
 30
0.0
 11
142.7094720524573
 21
47.745712989220799
 31
0.0
  0
LINE
  5
4846
  8
0
 10
149.35902900138171
 20
50.096339326128323
 30
0.0
 11
149.35902900138171
 21
50.568441525530723
 31
0.0
  0
ARC
  5
4847
  8
0
 10
156.20947205245739
 20
53.7976007278682
 30
0.0
 40
1.0
 50
90.0
 51
180.0000000000008
  0
ARC
  5
4848
  8
0
 10
150.35902900138171
 20
50.568441525530723
 30
0.0
 40
1.0
 50
108.04238725835729
 51
180.0
  0
ARC
  5
4849
  8
0
 10
143.7094720524573
 20
47.745712989220799
 30
0.0
 40
1.0
 50
103.1851843997525
 51
180.0
  0
ARC
  5
484A
  8
0
 10
131.2094720524573
 20
39.642305396157823
 30
0.0
 40
1.0
 50
111.0375110254224
 51
180.0
  0
ARC
  5
484B
  8
0
 10
137.70947205245739
 20
43.670491575150209
 30
0.0
 40
1.0
 50
115.8155979716509
 51
180.0
  0
LINE
  5
484C
  8
0
 10
203.70947205245739
 20
27.79760072786814
 30
0.0
 11
136.70947205245739
 21
27.797600727868261
 31
0.0
  0
ARC
  5
484D
  8
0
 10
202.70947205245739
 20
43.670491575150209
 30
0.0
 40
1.0
 50
0.0
 51
64.184402028349112
  0
ARC
  5
484E
  8
0
 10
209.2094720524575
 20
39.642305396157823
 30
0.0
 40
1.0
 50
0.0
 51
68.962488974577596
  0
ARC
  5
484F
  8
0
 10
196.70947205245739
 20
47.745712989220799
 30
0.0
 40
1.0
 50
0.0
 51
76.814815600247471
  0
ARC
  5
4850
  8
0
 10
190.05991510353289
 20
50.568441525530723
 30
0.0
 40
1.0
 50
0.0
 51
71.957612741642635
  0
ARC
  5
4851
  8
0
 10
184.20947205245739
 20
53.7976007278682
 30
0.0
 40
1.0
 50
359.99999999999881
 51
90.0
  0
LINE
  5
4852
  8
0
 10
191.05991510353289
 20
50.096339326128323
 30
0.0
 11
191.05991510353289
 21
50.568441525530723
 31
0.0
  0
LINE
  5
4853
  8
0
 10
197.70947205245739
 20
47.200129456468119
 30
0.0
 11
197.70947205245739
 21
47.745712989220799
 31
0.0
  0
LINE
  5
4854
  8
0
 10
185.20947205245739
 20
53.797600727868137
 30
0.0
 11
185.20947205245739
 21
53.200129456468183
 31
0.0
  0
LINE
  5
4855
  8
0
 10
185.20947205245739
 20
53.200129456468119
 30
0.0
 11
190.3696356022474
 21
51.51926917167696
 31
0.0
  0
LINE
  5
4856
  8
0
 10
185.2094720524573
 20
53.200129456468119
 30
0.0
 11
155.20947205245739
 21
53.200129456468069
 31
0.0
  0
LINE
  5
4857
  8
0
 10
191.05991510353289
 20
50.096339326128323
 30
0.0
 11
196.9375711659255
 21
48.719350906742079
 31
0.0
  0
LINE
  5
4858
  8
0
 10
197.70947205245739
 20
47.200129456468119
 30
0.0
 11
203.14494823484549
 21
44.570691827634441
 31
0.0
  0
LINE
  5
4859
  8
0
 10
203.70947205245739
 20
42.82910449440277
 30
0.0
 11
209.5684511317663
 21
40.575651002360921
 31
0.0
  0
LINE
  5
485A
  8
0
 10
203.70947205245739
 20
42.82910449440277
 30
0.0
 11
203.70947205245739
 21
43.670491575150209
 31
0.0
  0
LINE
  5
485B
  8
0
 10
184.20947205245739
 20
54.7976007278682
 30
0.0
 11
156.20947205245739
 21
54.7976007278682
 31
0.0
  0
LINE
  5
485C
  8
0
 10
191.05991510353309
 20
50.096339326128323
 30
0.0
 11
149.35902900138171
 21
50.096339326128323
 31
0.0
  0
LINE
  5
485D
  8
0
 10
197.70947205245739
 20
47.200129456468119
 30
0.0
 11
142.7094720524573
 21
47.200129456468119
 31
0.0
  0
LINE
  5
485E
  8
0
 10
203.70947205245739
 20
42.82910449440277
 30
0.0
 11
136.70947205245739
 21
42.82910449440277
 31
0.0
  0
LINE
  5
485F
  8
0
 10
203.70947205245739
 20
30.7976007278682
 30
0.0
 11
203.70947205245739
 21
27.79760072786814
 31
0.0
  0
LINE
  5
4860
  8
0
 10
210.20947205245739
 20
30.7976007278682
 30
0.0
 11
210.2094720524575
 21
39.642305396157823
 31
0.0
  0
LINE
  5
4861
  8
0
 10
210.20947205245739
 20
30.7976007278682
 30
0.0
 11
130.2094720524573
 21
30.7976007278682
 31
0.0
  0
TEXT
  5
4BFC
  8
0
 62
     3
 10
0.0
 20
0.0
 30
0.0
 40
10.0
  1
LVER80S10A
  7
STANDARD1
  0
ENDSEC
  0
EOF
