  0
SECTION
  2
HEADER
  9
$ACADVER
  1
AC1009
  9
$INSBASE
 10
0.0
 20
0.0
 30
0.0
  9
$EXTMIN
 10
0.0
 20
-2.960436562073669
 30
0.0
  9
$EXTMAX
 10
227.2262648419505
 20
356.73454792234912
 30
0.0
  9
$LIMMIN
 10
0.0
 20
0.0
  9
$LIMMAX
 10
375.0
 20
270.0
  9
$ORTHOMODE
 70
     1
  9
$REGENMODE
 70
     1
  9
$FILLMODE
 70
     1
  9
$QTEXTMODE
 70
     0
  9
$MIRRTEXT
 70
     0
  9
$DRAGMODE
 70
     2
  9
$LTSCALE
 40
6.0
  9
$OSMODE
 70
  3071
  9
$ATTMODE
 70
     1
  9
$TEXTSIZE
 40
0.2
  9
$TRACEWID
 40
0.05
  9
$TEXTSTYLE
  7
STANDARD
  9
$CLAYER
  8
0
  9
$CELTYPE
  6
BYLAYER
  9
$CECOLOR
 62
   256
  9
$DIMSCALE
 40
1.0
  9
$DIMASZ
 40
3.0
  9
$DIMEXO
 40
1.0
  9
$DIMDLI
 40
6.0
  9
$DIMRND
 40
0.0
  9
$DIMDLE
 40
0.0
  9
$DIMEXE
 40
1.0
  9
$DIMTP
 40
495.0
  9
$DIMTM
 40
0.0
  9
$DIMTXT
 40
3.0
  9
$DIMCEN
 40
0.0
  9
$DIMTSZ
 40
0.0
  9
$DIMTOL
 70
     0
  9
$DIMLIM
 70
     0
  9
$DIMTIH
 70
     0
  9
$DIMTOH
 70
     0
  9
$DIMSE1
 70
     0
  9
$DIMSE2
 70
     0
  9
$DIMTAD
 70
     1
  9
$DIMZIN
 70
     0
  9
$DIMBLK
  1

  9
$DIMASO
 70
     0
  9
$DIMSHO
 70
     0
  9
$DIMPOST
  1

  9
$DIMAPOST
  1

  9
$DIMALT
 70
     0
  9
$DIMALTD
 70
     2
  9
$DIMALTF
 40
25.399999999999999
  9
$DIMLFAC
 40
1.0
  9
$DIMTOFL
 70
     1
  9
$DIMTVP
 40
0.0
  9
$DIMTIX
 70
     1
  9
$DIMSOXD
 70
     0
  9
$DIMSAH
 70
     0
  9
$DIMBLK1
  1

  9
$DIMBLK2
  1

  9
$DIMSTYLE
  2
STANDARD
  9
$DIMCLRD
 70
     0
  9
$DIMCLRE
 70
     0
  9
$DIMCLRT
 70
     4
  9
$DIMTFAC
 40
1.0
  9
$DIMGAP
 40
1.0
  9
$LUNITS
 70
     2
  9
$LUPREC
 70
     4
  9
$SKETCHINC
 40
0.1
  9
$FILLETRAD
 40
2.0
  9
$AUNITS
 70
     0
  9
$AUPREC
 70
     0
  9
$MENU
  1
C:\R13\WIN\SUPPORT\ACAD-I
  9
$ELEVATION
 40
0.0
  9
$PELEVATION
 40
0.0
  9
$THICKNESS
 40
0.0
  9
$LIMCHECK
 70
     0
  9
$BLIPMODE
 70
     0
  9
$CHAMFERA
 40
0.0
  9
$CHAMFERB
 40
0.0
  9
$SKPOLY
 70
     0
  9
$TDCREATE
 40
2451962.457267662
  9
$TDUPDATE
 40
2456597.617114746
  9
$TDINDWG
 40
0.0787698727
  9
$TDUSRTIMER
 40
2456556.2096089819
  9
$USRTIMER
 70
     1
  9
$ANGBASE
 50
0.0
  9
$ANGDIR
 70
     0
  9
$PDMODE
 70
     0
  9
$PDSIZE
 40
0.0
  9
$PLINEWID
 40
0.0
  9
$COORDS
 70
     1
  9
$SPLFRAME
 70
     0
  9
$SPLINETYPE
 70
     6
  9
$SPLINESEGS
 70
     8
  9
$ATTDIA
 70
     0
  9
$ATTREQ
 70
     1
  9
$HANDLING
 70
     1
  9
$HANDSEED
  5
5911
  9
$SURFTAB1
 70
     6
  9
$SURFTAB2
 70
     6
  9
$SURFTYPE
 70
     6
  9
$SURFU
 70
     6
  9
$SURFV
 70
     6
  9
$UCSNAME
  2

  9
$UCSORG
 10
0.0
 20
0.0
 30
0.0
  9
$UCSXDIR
 10
1.0
 20
0.0
 30
0.0
  9
$UCSYDIR
 10
0.0
 20
1.0
 30
0.0
  9
$PUCSNAME
  2

  9
$PUCSORG
 10
0.0
 20
0.0
 30
0.0
  9
$PUCSXDIR
 10
1.0
 20
0.0
 30
0.0
  9
$PUCSYDIR
 10
0.0
 20
1.0
 30
0.0
  9
$USERI1
 70
     4
  9
$USERI2
 70
     1
  9
$USERI3
 70
     0
  9
$USERI4
 70
     0
  9
$USERI5
 70
     0
  9
$USERR1
 40
1.0
  9
$USERR2
 40
3.0
  9
$USERR3
 40
3.0
  9
$USERR4
 40
3.0
  9
$USERR5
 40
10.0
  9
$WORLDVIEW
 70
     1
  9
$SHADEDGE
 70
     3
  9
$SHADEDIF
 70
    70
  9
$TILEMODE
 70
     1
  9
$MAXACTVP
 70
    16
  9
$PLIMCHECK
 70
     0
  9
$PEXTMIN
 10
1.0000000000000000E+020
 20
1.0000000000000000E+020
 30
1.0000000000000000E+020
  9
$PEXTMAX
 10
-1.0000000000000000E+020
 20
-1.0000000000000000E+020
 30
-1.0000000000000000E+020
  9
$PLIMMIN
 10
0.0
 20
0.0
  9
$PLIMMAX
 10
12.0
 20
9.0
  9
$UNITMODE
 70
     0
  9
$VISRETAIN
 70
     0
  9
$PLINEGEN
 70
     0
  9
$PSLTSCALE
 70
     0
  0
ENDSEC
  0
SECTION
  2
TABLES
  0
TABLE
  2
VPORT
 70
     1
  0
VPORT
  2
*ACTIVE
 70
     0
 10
0.0
 20
0.0
 11
1.0
 21
1.0
 12
187.4942783906522
 22
177.6626955895525
 13
0.0
 23
0.0
 14
10.0
 24
10.0
 15
10.0
 25
10.0
 16
0.0
 26
0.0
 36
1.0
 17
0.0
 27
0.0
 37
0.0
 40
365.41514687886757
 41
2.304913294797688
 42
50.0
 43
0.0
 44
0.0
 50
0.0
 51
0.0
 71
    16
 72
   100
 73
     1
 74
     0
 75
     0
 76
     0
 77
     0
 78
     0
  0
ENDTAB
  0
TABLE
  2
LTYPE
 70
     3
  0
LTYPE
  2
CONTINUOUS
 70
     0
  3
Solid Line
 72
    65
 73
     0
 40
0.0
  0
LTYPE
  2
PHANTOM2
 70
     0
  3
___ _ _ ___ _ _ ___ _ _ ___ _ _
 72
    65
 73
     6
 40
1.25
 49
0.625
 49
-0.125
 49
0.125
 49
-0.125
 49
0.125
 49
-0.125
  0
LTYPE
  2
CENTER
 70
     0
  3
____ _ ____ _ ____ _ ____ _ ____ _ ____ _ ____
 72
    65
 73
     4
 40
2.0
 49
1.25
 49
-0.25
 49
0.25
 49
-0.25
  0
ENDTAB
  0
TABLE
  2
LAYER
 70
     3
  0
LAYER
  2
0
 70
     0
 62
     7
  6
CONTINUOUS
  0
LAYER
  2
1
 70
     0
 62
     1
  6
CENTER
  0
LAYER
  2
3
 70
     0
 62
     3
  6
CONTINUOUS
  0
ENDTAB
  0
TABLE
  2
STYLE
 70
     3
  0
STYLE
  2
STANDARD
 70
     0
 40
0.0
 41
1.0
 50
0.0
 71
     0
 42
0.2
  3
SIMPLEX
  4
BIGFONT
  0
STYLE
  2
ANNOTATIVE
 70
     0
 40
0.0
 41
1.0
 50
0.0
 71
     0
 42
0.2
  3
txt
  4

  0
STYLE
  2
STANDARD1
 70
     0
 40
0.0
 41
1.0
 50
0.0
 71
     0
 42
3.0
  3
txt
  4

  0
ENDTAB
  0
TABLE
  2
VIEW
 70
     0
  0
ENDTAB
  0
TABLE
  2
UCS
 70
     0
  0
ENDTAB
  0
TABLE
  2
APPID
 70
    29
  0
APPID
  2
ACAD
 70
     0
  0
APPID
  2
ACADANNOTATIVE
 70
     0
  0
APPID
  2
GENIUS_GENOREF_13
 70
     0
  0
APPID
  2
GENIUS_GENOENT_13
 70
     0
  0
APPID
  2
GENIUS_GENBH_13
 70
     0
  0
APPID
  2
GENIUS_GENOBJ_13
 70
     0
  0
APPID
  2
GENIUS_GENODEF_13
 70
     0
  0
APPID
  2
GENIUS_GENOLIS_13
 70
     0
  0
APPID
  2
GENIUS_GENOBJ-NBEHI-BHF_13
 70
     0
  0
APPID
  2
GENIUS_GENOBJ-NBEHI-BHB_13
 70
     0
  0
APPID
  2
GENIUS_GENOBJ-F-PART_13
 70
     0
  0
APPID
  2
GENIUS_GEFSTDP_13
 70
     0
  0
APPID
  2
GENIUS_GENOBJ-N-RSSYM_13
 70
     0
  0
APPID
  2
GENIUS_GENSYMENT_13
 70
     0
  0
APPID
  2
GENIUS_GENOBJ-N-TIT_13
 70
     0
  0
APPID
  2
GENIUS_GENTITLE_13
 70
     0
  0
APPID
  2
GENIUS_GENZVEED_13
 70
     0
  0
APPID
  2
GENIUS_GENOBJ-N-LEADER_13
 70
     0
  0
APPID
  2
GENIUS_GENOBJ-N-FIL_13
 70
     0
  0
APPID
  2
GENIUS_GENOBJ-N-SEC_13
 70
     0
  0
APPID
  2
GENIUS_GENOBJ-N-CRS_13
 70
     0
  0
APPID
  2
GENIUS_GENOBJ-N-ZOO_13
 70
     0
  0
APPID
  2
GENIUS_GENZOO_13
 70
     0
  0
APPID
  2
GENIUS_GENOBJ-F-TOL_13
 70
     0
  0
APPID
  2
GENIUS_GENFIL_13
 70
     0
  0
APPID
  2
GENIUS_GENOBJ-N-CHA_13
 70
     0
  0
APPID
  2
ACAD_EXEMPT_FROM_CAD_STANDARDS
 70
     0
  0
APPID
  2
ACAD_MLEADERVER
 70
     0
  0
APPID
  2
ACAD_NAV_VCDISPLAY
 70
     0
  0
ENDTAB
  0
TABLE
  2
DIMSTYLE
 70
     2
  0
DIMSTYLE
  2
STANDARD
 70
     0
  3

  4

  5

  6

  7

 40
1.0
 41
0.18
 42
0.0625
 43
0.38
 44
0.18
 45
0.0
 46
0.0
 47
0.0
 48
0.0
140
0.18
141
0.09
142
0.0
143
25.399999999999999
144
1.0
145
0.0
146
1.0
147
0.09
 71
     0
 72
     0
 73
     1
 74
     1
 75
     0
 76
     0
 77
     0
 78
     0
170
     0
171
     2
172
     0
173
     0
174
     0
175
     0
176
     0
177
     0
178
     0
  0
DIMSTYLE
  2
ANNOTATIVE
 70
     0
  3

  4

  5

  6

  7

 40
1.0
 41
0.18
 42
0.0625
 43
0.38
 44
0.18
 45
0.0
 46
0.0
 47
0.0
 48
0.0
140
0.18
141
0.09
142
0.0
143
25.399999999999999
144
1.0
145
0.0
146
1.0
147
0.09
 71
     0
 72
     0
 73
     1
 74
     1
 75
     0
 76
     0
 77
     0
 78
     0
170
     0
171
     2
172
     0
173
     0
174
     0
175
     0
176
     0
177
     0
178
     0
  0
ENDTAB
  0
ENDSEC
  0
SECTION
  2
BLOCKS
  0
BLOCK
  8
0
  2
$MODEL_SPACE
 70
     0
 10
0.0
 20
0.0
 30
0.0
  3
$MODEL_SPACE
  1

  0
ENDBLK
  5
5834
  8
0
  0
BLOCK
 67
     1
  8
0
  2
$PAPER_SPACE
 70
     0
 10
0.0
 20
0.0
 30
0.0
  3
$PAPER_SPACE
  1

  0
ENDBLK
  5
5830
 67
     1
  8
0
  0
ENDSEC
  0
SECTION
  2
ENTITIES
  0
LINE
  5
5477
  8
1
 10
187.2262648419505
 20
31.12745266537377
 30
0.0
 11
187.22626484195251
 21
223.1274526653738
 31
0.0
  0
LINE
  5
5478
  8
1
 10
64.948477938764881
 20
225.12745266537371
 30
0.0
 11
64.948477938764881
 21
31.12745266537377
 31
0.0
  0
CIRCLE
  5
5479
  8
3
 10
64.948477938764881
 20
311.02026220806317
 30
0.0
 40
6.9175000000000004
  0
CIRCLE
  5
547A
  8
0
 10
64.948477938764881
 20
311.02026220806317
 30
0.0
 40
8.0
  0
CIRCLE
  5
547B
  8
0
 10
64.948477938764881
 20
311.02026220806317
 30
0.0
 40
11.5
  0
LINE
  5
547C
  8
0
 10
78.804884399316023
 20
311.02026220806317
 30
0.0
 11
71.876681169040225
 21
323.02026220806329
 31
0.0
  0
LINE
  5
547D
  8
0
 10
71.876681169040225
 20
299.02026220806317
 30
0.0
 11
78.804884399316023
 21
311.02026220806317
 31
0.0
  0
LINE
  5
547E
  8
0
 10
58.020274708489517
 20
299.02026220806317
 30
0.0
 11
71.876681169040225
 21
299.02026220806317
 31
0.0
  0
LINE
  5
547F
  8
0
 10
51.092071478213711
 20
311.02026220806317
 30
0.0
 11
58.020274708489517
 21
299.02026220806317
 31
0.0
  0
LINE
  5
5480
  8
0
 10
58.020274708489517
 20
323.02026220806329
 30
0.0
 11
51.092071478213711
 21
311.02026220806317
 31
0.0
  0
LINE
  5
5481
  8
0
 10
71.876681169040225
 20
323.02026220806329
 30
0.0
 11
58.020274708489517
 21
323.02026220806329
 31
0.0
  0
LINE
  5
5482
  8
3
 10
194.1437648419504
 20
111.9161277999369
 30
0.0
 11
194.1437648419504
 21
219.20995266537381
 31
0.0
  0
LINE
  5
5483
  8
0
 10
195.2262648419505
 20
111.91612779993871
 30
0.0
 11
195.2262648419505
 21
218.1274526653738
 31
0.0
  0
LINE
  5
5484
  8
0
 10
179.2262648419505
 20
111.91612779991191
 30
0.0
 11
179.2262648419505
 21
218.12745266537411
 31
0.0
  0
LINE
  5
5485
  8
3
 10
180.30876484195039
 20
111.9161277999137
 30
0.0
 11
180.30876484195039
 21
219.209952665374
 31
0.0
  0
LINE
  5
5486
  8
3
 10
180.30876484195039
 20
74.12745266537398
 30
0.0
 11
179.2262648419505
 21
72.252507666180691
 31
0.0
  0
LINE
  5
5487
  8
0
 10
179.2262648419505
 20
218.12745266537411
 30
0.0
 11
181.2262648419505
 21
220.12745266537399
 31
0.0
  0
LINE
  5
5488
  8
0
 10
179.2262648419505
 20
71.99160554321135
 30
0.0
 11
179.2262648419505
 21
98.916127799965423
 31
0.0
  0
LINE
  5
5489
  8
3
 10
180.30876484195039
 20
74.12745266537398
 30
0.0
 11
180.30876484195039
 21
98.91612779996359
 31
0.0
  0
LINE
  5
548A
  8
3
 10
194.1437648419504
 20
74.12745266537398
 30
0.0
 11
195.2262648419505
 21
72.252507666180691
 31
0.0
  0
LINE
  5
548B
  8
0
 10
179.2262648419505
 20
74.12745266537398
 30
0.0
 11
195.2262648419505
 21
74.12745266537398
 31
0.0
  0
LINE
  5
548C
  8
0
 10
195.2262648419505
 20
218.1274526653738
 30
0.0
 11
179.2262648419505
 21
218.12745266537399
 31
0.0
  0
LINE
  5
548D
  8
0
 10
193.2262648419505
 20
220.1274526653738
 30
0.0
 11
195.2262648419505
 21
218.1274526653738
 31
0.0
  0
LINE
  5
548E
  8
3
 10
194.1437648419504
 20
74.12745266537398
 30
0.0
 11
194.1437648419504
 21
98.916127799940668
 31
0.0
  0
LINE
  5
548F
  8
0
 10
195.2262648419505
 20
71.991605543210881
 30
0.0
 11
195.2262648419505
 21
98.916127799938607
 31
0.0
  0
LINE
  5
5490
  8
0
 10
181.2262648419505
 20
220.12745266537399
 30
0.0
 11
193.2262648419505
 21
220.1274526653738
 31
0.0
  0
LINE
  5
5491
  8
0
 10
194.99097072430411
 20
66.127452665374008
 30
0.0
 11
179.4615589595976
 21
66.127452665374008
 31
0.0
  0
LINE
  5
5492
  8
0
 10
179.4615589595978
 20
72.127452665374221
 30
0.0
 11
194.99097072430391
 21
72.127452665373767
 31
0.0
  0
ARC
  5
5493
  8
0
 10
194.15446807222631
 20
67.902289145730251
 30
0.0
 40
4.0893163974808306
 50
64.384247467885544
 51
124.38424746800619
  0
LINE
  5
5494
  8
0
 10
196.46386914898471
 20
71.277074363395514
 30
0.0
 11
194.99097072430391
 21
72.127452665374221
 31
0.0
  0
LINE
  5
5495
  8
0
 10
196.46386914898471
 20
66.977830967352475
 30
0.0
 11
194.99097072430391
 21
66.127452665373767
 31
0.0
  0
ARC
  5
5496
  8
0
 10
194.15446807222631
 20
70.352616185017723
 30
0.0
 40
4.0893163974808306
 50
235.61575253199379
 51
295.61575253211453
  0
LINE
  5
5497
  8
0
 10
196.46386914898471
 20
71.277074363395514
 30
0.0
 11
196.46386914898471
 21
66.977830967352475
 31
0.0
  0
LINE
  5
5498
  8
0
 10
191.8450669954689
 20
71.277074363395514
 30
0.0
 11
191.8450669954681
 21
66.977830967352034
 31
0.0
  0
LINE
  5
5499
  8
0
 10
182.60746268843289
 20
71.277074363395514
 30
0.0
 11
182.6074626884334
 21
66.977830967352034
 31
0.0
  0
LINE
  5
549A
  8
0
 10
177.98866053491679
 20
71.277074363395514
 30
0.0
 11
177.98866053491679
 21
66.977830967352475
 31
0.0
  0
ARC
  5
549B
  8
0
 10
187.2262648419503
 20
81.548768607740612
 30
0.0
 40
15.28546882020385
 50
252.4120462260301
 51
287.58795377396979
  0
ARC
  5
549C
  8
0
 10
180.29806161167531
 20
70.352616185017723
 30
0.0
 40
4.0893163974808306
 50
244.3842474678855
 51
304.38424746800621
  0
LINE
  5
549D
  8
0
 10
177.98866053491679
 20
66.977830967352475
 30
0.0
 11
179.4615589595978
 21
66.127452665373767
 31
0.0
  0
LINE
  5
549E
  8
0
 10
177.98866053491679
 20
71.277074363395514
 30
0.0
 11
179.4615589595978
 21
72.127452665374221
 31
0.0
  0
ARC
  5
549F
  8
0
 10
187.2262648419503
 20
56.706136723007148
 30
0.0
 40
15.28546882020385
 50
72.412046226030142
 51
107.5879537739699
  0
ARC
  5
54A0
  8
0
 10
180.29806161167531
 20
67.902289145730251
 30
0.0
 40
4.0893163974808306
 50
55.61575253199382
 51
115.6157525321144
  0
LINE
  5
54A1
  8
0
 10
198.72626484195129
 20
98.916127799932923
 30
0.0
 11
175.7262648418849
 21
98.916127799971321
 31
0.0
  0
LINE
  5
54A2
  8
0
 10
175.7262648418849
 20
111.91612779990599
 30
0.0
 11
198.72626484195129
 21
111.91612779994441
 31
0.0
  0
ARC
  5
54A3
  8
0
 10
181.22626484195129
 20
94.297325648007714
 30
0.0
 40
17.330127017333279
 50
69.743841997644466
 51
110.25615800235551
  0
LINE
  5
54A4
  8
0
 10
175.22626484193631
 20
111.627452665341
 30
0.0
 11
175.72626484195129
 21
111.91612779994441
 31
0.0
  0
LINE
  5
54A5
  8
0
 10
175.22626484193631
 20
99.204802934536303
 30
0.0
 11
175.72626484195129
 21
98.916127799932923
 31
0.0
  0
ARC
  5
54A6
  8
0
 10
181.22626484195129
 20
116.5349299518696
 30
0.0
 40
17.330127017333279
 50
249.74384199764449
 51
290.25615800235551
  0
LINE
  5
54A7
  8
0
 10
175.22626484193631
 20
111.627452665341
 30
0.0
 11
175.22626484195129
 21
99.204802934527692
 31
0.0
  0
LINE
  5
54A8
  8
0
 10
187.22626484195129
 20
100.27659970436549
 30
0.0
 11
187.22626484195129
 21
110.5556558955118
 31
0.0
  0
LINE
  5
54A9
  8
0
 10
199.2262648419663
 20
111.627452665341
 30
0.0
 11
199.22626484195129
 21
99.204802934527692
 31
0.0
  0
ARC
  5
54AA
  8
0
 10
193.22626484195129
 20
116.5349299518696
 30
0.0
 40
17.330127017333279
 50
249.74384199764449
 51
290.25615800235551
  0
LINE
  5
54AB
  8
0
 10
199.2262648419663
 20
99.204802934536303
 30
0.0
 11
198.72626484195129
 21
98.916127799932923
 31
0.0
  0
LINE
  5
54AC
  8
0
 10
199.2262648419663
 20
111.627452665341
 30
0.0
 11
198.72626484195129
 21
111.91612779994441
 31
0.0
  0
ARC
  5
54AD
  8
0
 10
193.22626484195129
 20
94.297325648007714
 30
0.0
 40
17.330127017333279
 50
69.743841997644466
 51
110.25615800235551
  0
LINE
  5
54AE
  8
0
 10
181.7262648419505
 20
63.127452665373987
 30
0.0
 11
181.7262648419505
 21
66.127452665373767
 31
0.0
  0
LINE
  5
54AF
  8
0
 10
192.7262648419505
 20
63.127452665373987
 30
0.0
 11
192.7262648419505
 21
66.127452665373767
 31
0.0
  0
LINE
  5
54B0
  8
0
 10
56.948477938764889
 20
111.91612779987339
 30
0.0
 11
56.948477938764889
 21
218.1274526653738
 31
0.0
  0
LINE
  5
54B1
  8
3
 10
58.030977938764849
 20
111.91612779987339
 30
0.0
 11
58.030977938764849
 21
219.20995266537381
 31
0.0
  0
LINE
  5
54B2
  8
0
 10
72.948477938764881
 20
111.91612779987339
 30
0.0
 11
72.948477938764881
 21
218.1274526653738
 31
0.0
  0
LINE
  5
54B3
  8
3
 10
71.8659779387649
 20
111.91612779987339
 30
0.0
 11
71.8659779387649
 21
219.20995266537381
 31
0.0
  0
LINE
  5
54B4
  8
0
 10
57.183772056411279
 20
66.127452665373539
 30
0.0
 11
72.71318382111734
 21
66.127452665373539
 31
0.0
  0
LINE
  5
54B5
  8
0
 10
72.713183821116218
 20
72.127452665373511
 30
0.0
 11
57.183772056412408
 21
72.127452665373511
 31
0.0
  0
ARC
  5
54B6
  8
0
 10
60.94847793876442
 20
60.438187530583491
 30
0.0
 40
11.55341801262729
 50
69.743841999608421
 51
110.25615800039159
  0
LINE
  5
54B7
  8
0
 10
56.94847793876442
 20
71.991605543210881
 30
0.0
 11
57.183772056412408
 21
72.127452665373511
 31
0.0
  0
ARC
  5
54B8
  8
0
 10
60.94847793876442
 20
77.816717800163147
 30
0.0
 40
11.55341801262729
 50
249.74384199960841
 51
290.25615800039151
  0
LINE
  5
54B9
  8
0
 10
56.94847793876442
 20
66.263299787535743
 30
0.0
 11
57.183772056412408
 21
66.127452665372843
 31
0.0
  0
LINE
  5
54BA
  8
0
 10
56.94847793876442
 20
71.991605543210881
 30
0.0
 11
56.94847793876442
 21
66.263299787535743
 31
0.0
  0
LINE
  5
54BB
  8
0
 10
64.948477938764427
 20
71.277074363394831
 30
0.0
 11
64.948477938764427
 21
66.977830967351565
 31
0.0
  0
LINE
  5
54BC
  8
0
 10
72.948477938764427
 20
71.991605543210881
 30
0.0
 11
72.948477938764427
 21
66.263299787535743
 31
0.0
  0
ARC
  5
54BD
  8
0
 10
68.948477938764427
 20
77.816717800163147
 30
0.0
 40
11.55341801262729
 50
249.74384199960841
 51
290.25615800039151
  0
LINE
  5
54BE
  8
0
 10
72.948477938764427
 20
66.263299787535743
 30
0.0
 11
72.713183821116218
 21
66.127452665372843
 31
0.0
  0
LINE
  5
54BF
  8
0
 10
72.948477938764427
 20
71.991605543210881
 30
0.0
 11
72.713183821116218
 21
72.127452665373511
 31
0.0
  0
ARC
  5
54C0
  8
0
 10
68.948477938764427
 20
60.438187530583491
 30
0.0
 40
11.55341801262729
 50
69.743841999608421
 51
110.25615800039159
  0
LINE
  5
54C1
  8
0
 10
58.948477938764889
 20
220.1274526653738
 30
0.0
 11
70.948477938764881
 21
220.1274526653738
 31
0.0
  0
LINE
  5
54C2
  8
0
 10
72.948477938764881
 20
71.991605543210426
 30
0.0
 11
72.948477938764881
 21
98.916127799938508
 31
0.0
  0
LINE
  5
54C3
  8
3
 10
71.8659779387649
 20
74.127452665373767
 30
0.0
 11
71.8659779387649
 21
98.916127799938508
 31
0.0
  0
LINE
  5
54C4
  8
3
 10
58.030977938764849
 20
74.127452665373767
 30
0.0
 11
58.030977938764849
 21
98.916127799938508
 31
0.0
  0
LINE
  5
54C5
  8
0
 10
56.948477938764889
 20
71.991605543211094
 30
0.0
 11
56.948477938764889
 21
98.916127799938764
 31
0.0
  0
LINE
  5
54C6
  8
0
 10
56.948477938764889
 20
218.1274526653738
 30
0.0
 11
58.948477938764889
 21
220.1274526653738
 31
0.0
  0
LINE
  5
54C7
  8
0
 10
70.948477938764881
 20
220.1274526653738
 30
0.0
 11
72.948477938764881
 21
218.1274526653738
 31
0.0
  0
LINE
  5
54C8
  8
0
 10
72.948477938764881
 20
218.1274526653738
 30
0.0
 11
56.948477938764889
 21
218.1274526653738
 31
0.0
  0
LINE
  5
54C9
  8
0
 10
56.948477938764889
 20
74.127452665373767
 30
0.0
 11
72.948477938764881
 21
74.127452665373767
 31
0.0
  0
LINE
  5
54CA
  8
3
 10
58.030977938764849
 20
74.127452665373767
 30
0.0
 11
56.948477938764889
 21
72.252507666180449
 31
0.0
  0
LINE
  5
54CB
  8
3
 10
71.8659779387649
 20
74.127452665373767
 30
0.0
 11
72.948477938764881
 21
72.252507666180449
 31
0.0
  0
LINE
  5
54CC
  8
0
 10
76.448477938656879
 20
98.916127799938764
 30
0.0
 11
53.448477938872422
 21
98.916127799938764
 31
0.0
  0
LINE
  5
54CD
  8
0
 10
53.44847793876464
 20
111.91612779987339
 30
0.0
 11
76.448477938656879
 21
111.91612779987339
 31
0.0
  0
ARC
  5
54CE
  8
0
 10
75.340782784178145
 20
105.4934780695875
 30
0.0
 40
6.1339745957208196
 50
64.384247469854884
 51
124.3842474712113
  0
LINE
  5
54CF
  8
0
 10
78.804884399337652
 20
110.55565589547921
 30
0.0
 11
76.448477938656879
 21
111.91612779987339
 31
0.0
  0
LINE
  5
54D0
  8
0
 10
78.804884399337652
 20
100.2765997043329
 30
0.0
 11
76.448477938656879
 21
98.916127799938764
 31
0.0
  0
ARC
  5
54D1
  8
0
 10
75.340782784178145
 20
105.33877753022441
 30
0.0
 40
6.1339745957208196
 50
235.6157525287887
 51
295.61575253014507
  0
LINE
  5
54D2
  8
0
 10
78.80488439931581
 20
110.55565589547921
 30
0.0
 11
78.80488439931581
 21
100.2765997043202
 31
0.0
  0
LINE
  5
54D3
  8
0
 10
71.876681169040012
 20
110.55565589547921
 30
0.0
 11
71.876681169040012
 21
100.2765997043329
 31
0.0
  0
LINE
  5
54D4
  8
0
 10
58.020274708489303
 20
110.55565589547921
 30
0.0
 11
58.020274708489303
 21
100.2765997043329
 31
0.0
  0
LINE
  5
54D5
  8
0
 10
51.09207147821347
 20
110.55565589547921
 30
0.0
 11
51.09207147821347
 21
100.2765997043202
 31
0.0
  0
ARC
  5
54D6
  8
0
 10
64.948477938764654
 20
122.1330061626431
 30
0.0
 40
22.928203228139491
 50
252.41204622431411
 51
287.58795377568589
  0
ARC
  5
54D7
  8
0
 10
54.556173093351148
 20
105.33877753022441
 30
0.0
 40
6.1339745957208196
 50
244.3842474698549
 51
304.38424747121132
  0
LINE
  5
54D8
  8
0
 10
51.092071478191663
 20
100.2765997043329
 30
0.0
 11
53.448477938872422
 21
98.916127799938764
 31
0.0
  0
LINE
  5
54D9
  8
0
 10
51.092071478191663
 20
110.55565589547921
 30
0.0
 11
53.448477938872422
 21
111.91612779987339
 31
0.0
  0
ARC
  5
54DA
  8
0
 10
54.556173093351148
 20
105.4934780695875
 30
0.0
 40
6.1339745957208196
 50
55.61575252878869
 51
115.6157525301451
  0
ARC
  5
54DB
  8
0
 10
64.948477938764654
 20
88.699249437168788
 30
0.0
 40
22.928203228139491
 50
72.412046224314139
 51
107.5879537756858
  0
LINE
  5
54DC
  8
0
 10
70.448477938764199
 20
63.127452665373752
 30
0.0
 11
70.448477938764199
 21
66.127452665373539
 31
0.0
  0
LINE
  5
54DD
  8
0
 10
59.448477938764192
 20
63.127452665373752
 30
0.0
 11
59.448477938764192
 21
66.127452665373539
 31
0.0
  0
LINE
  5
54ED
  8
0
 10
104.9484779387648
 20
39.127452665373781
 30
0.0
 11
24.948477938764881
 21
39.127452665373781
 31
0.0
  0
LINE
  5
54EE
  8
0
 10
104.9484779387648
 20
39.127452665373781
 30
0.0
 11
104.9484779387648
 21
47.97215733366329
 31
0.0
  0
LINE
  5
54EF
  8
0
 10
98.448477938764896
 20
39.127452665373781
 30
0.0
 11
98.448477938764896
 21
36.127452665373767
 31
0.0
  0
CIRCLE
  5
54F0
  8
0
 10
64.948477938764881
 20
311.02026220806317
 30
0.0
 40
40.00000000000005
  0
LINE
  5
54F1
  8
1
 10
64.948477938764881
 20
356.73454792234912
 30
0.0
 11
64.948477938764881
 21
265.30597649377762
 31
0.0
  0
LINE
  5
54F2
  8
1
 10
110.6627636530506
 20
311.02026220806317
 30
0.0
 11
19.234192224479091
 21
311.02026220806317
 31
0.0
  0
LINE
  5
54F3
  8
0
 10
98.448477938764896
 20
51.158956431908337
 30
0.0
 11
31.448477938764881
 21
51.158956431908337
 31
0.0
  0
LINE
  5
54F4
  8
0
 10
92.448477938764881
 20
55.529981393973678
 30
0.0
 11
37.448477938764881
 21
55.529981393973678
 31
0.0
  0
LINE
  5
54F5
  8
0
 10
85.798920989840525
 20
58.426191263633882
 30
0.0
 11
44.098034887689209
 21
58.426191263633882
 31
0.0
  0
LINE
  5
54F6
  8
0
 10
78.948477938764881
 20
63.127452665373752
 30
0.0
 11
50.948477938764889
 21
63.127452665373752
 31
0.0
  0
LINE
  5
54F7
  8
0
 10
98.448477938764896
 20
51.158956431908337
 30
0.0
 11
98.448477938764896
 21
52.000343512655697
 31
0.0
  0
LINE
  5
54F8
  8
0
 10
98.448477938764896
 20
51.158956431908337
 30
0.0
 11
104.3074570180738
 21
48.905502939866437
 31
0.0
  0
LINE
  5
54F9
  8
0
 10
92.448477938764881
 20
55.529981393973678
 30
0.0
 11
97.883954121152996
 21
52.900543765139894
 31
0.0
  0
LINE
  5
54FA
  8
0
 10
85.798920989840525
 20
58.426191263633882
 30
0.0
 11
91.676577052232915
 21
57.049202844247702
 31
0.0
  0
LINE
  5
54FB
  8
0
 10
79.948477938764881
 20
61.529981393973678
 30
0.0
 11
49.948477938764889
 21
61.529981393973678
 31
0.0
  0
LINE
  5
54FC
  8
0
 10
79.948477938764881
 20
61.529981393973678
 30
0.0
 11
85.108641488554909
 21
59.849121109182519
 31
0.0
  0
LINE
  5
54FD
  8
0
 10
79.948477938764881
 20
62.127452665373767
 30
0.0
 11
79.948477938764881
 21
61.529981393973678
 31
0.0
  0
LINE
  5
54FE
  8
0
 10
92.448477938764881
 20
55.529981393973678
 30
0.0
 11
92.448477938764881
 21
56.075564926726422
 31
0.0
  0
LINE
  5
54FF
  8
0
 10
85.798920989840525
 20
58.426191263633882
 30
0.0
 11
85.798920989840525
 21
58.898293463036218
 31
0.0
  0
ARC
  5
5500
  8
0
 10
78.948477938764881
 20
62.127452665373767
 30
0.0
 40
1.0
 50
359.99999999999892
 51
90.0
  0
ARC
  5
5501
  8
0
 10
84.798920989840539
 20
58.898293463036218
 30
0.0
 40
1.0
 50
0.0
 51
71.957612741641853
  0
ARC
  5
5502
  8
0
 10
91.448477938764881
 20
56.075564926726422
 30
0.0
 40
1.0
 50
0.0
 51
76.814815600247044
  0
ARC
  5
5503
  8
0
 10
103.9484779387649
 20
47.97215733366329
 30
0.0
 40
1.0
 50
0.0
 51
68.962488974578235
  0
ARC
  5
5504
  8
0
 10
97.448477938764881
 20
52.000343512655697
 30
0.0
 40
1.0
 50
0.0
 51
64.18440202834887
  0
LINE
  5
5505
  8
0
 10
98.448477938764896
 20
36.127452665373767
 30
0.0
 11
31.448477938764881
 21
36.127452665373767
 31
0.0
  0
ARC
  5
5506
  8
0
 10
32.448477938764881
 20
52.000343512655697
 30
0.0
 40
1.0
 50
115.8155979716511
 51
180.0
  0
ARC
  5
5507
  8
0
 10
25.948477938764881
 20
47.97215733366329
 30
0.0
 40
1.0
 50
111.03751102542169
 51
180.0
  0
ARC
  5
5508
  8
0
 10
38.448477938764881
 20
56.075564926726422
 30
0.0
 40
1.0
 50
103.1851843997529
 51
180.0
  0
ARC
  5
5509
  8
0
 10
45.098034887689209
 20
58.898293463036218
 30
0.0
 40
1.0
 50
108.0423872583581
 51
180.0
  0
ARC
  5
550A
  8
0
 10
50.948477938764889
 20
62.127452665373767
 30
0.0
 40
1.0
 50
90.0
 51
180.00000000000099
  0
LINE
  5
550B
  8
0
 10
44.098034887689209
 20
58.426191263633882
 30
0.0
 11
44.098034887689209
 21
58.898293463036218
 31
0.0
  0
LINE
  5
550C
  8
0
 10
37.448477938764881
 20
55.529981393973678
 30
0.0
 11
37.448477938764881
 21
56.075564926726422
 31
0.0
  0
LINE
  5
550D
  8
0
 10
49.948477938764889
 20
62.127452665373767
 30
0.0
 11
49.948477938764889
 21
61.529981393973678
 31
0.0
  0
LINE
  5
550E
  8
0
 10
49.948477938764889
 20
61.529981393973678
 30
0.0
 11
44.788314388974861
 21
59.849121109182519
 31
0.0
  0
LINE
  5
550F
  8
0
 10
44.098034887689209
 20
58.426191263633882
 30
0.0
 11
38.220378825296848
 21
57.049202844247702
 31
0.0
  0
LINE
  5
5510
  8
0
 10
37.448477938764881
 20
55.529981393973678
 30
0.0
 11
32.013001756376752
 21
52.900543765139894
 31
0.0
  0
LINE
  5
5511
  8
0
 10
31.448477938764881
 20
51.158956431908337
 30
0.0
 11
25.58949885945594
 21
48.905502939866437
 31
0.0
  0
LINE
  5
5512
  8
0
 10
31.448477938764881
 20
51.158956431908337
 30
0.0
 11
31.448477938764881
 21
52.000343512655697
 31
0.0
  0
LINE
  5
5513
  8
0
 10
24.948477938764881
 20
39.127452665373781
 30
0.0
 11
24.948477938764881
 21
47.97215733366329
 31
0.0
  0
LINE
  5
5514
  8
0
 10
31.448477938764881
 20
39.127452665373781
 30
0.0
 11
31.448477938764881
 21
36.127452665373767
 31
0.0
  0
CIRCLE
  5
5515
  8
0
 10
64.948477938764881
 20
311.02026220806317
 30
0.0
 40
33.5
  0
CIRCLE
  5
5516
  8
0
 10
64.948477938764881
 20
311.02026220806317
 30
0.0
 40
27.5
  0
CIRCLE
  5
5517
  8
0
 10
64.948477938764881
 20
311.02026220806317
 30
0.0
 40
20.850443051075668
  0
CIRCLE
  5
5518
  8
0
 10
64.948477938764881
 20
311.02026220806317
 30
0.0
 40
14.99999999999997
  0
LINE
  5
551A
  8
0
 10
153.7262648419505
 20
39.127452665373781
 30
0.0
 11
153.7262648419505
 21
36.127452665373767
 31
0.0
  0
LINE
  5
551B
  8
0
 10
147.2262648419505
 20
39.127452665373781
 30
0.0
 11
147.2262648419505
 21
47.97215733366329
 31
0.0
  0
LINE
  5
551C
  8
0
 10
153.7262648419505
 20
51.158956431908337
 30
0.0
 11
153.7262648419505
 21
52.000343512655697
 31
0.0
  0
LINE
  5
551D
  8
0
 10
153.7262648419505
 20
51.158956431908337
 30
0.0
 11
147.86728576264159
 21
48.905502939866437
 31
0.0
  0
LINE
  5
551E
  8
0
 10
159.7262648419505
 20
55.529981393973678
 30
0.0
 11
154.29078865956239
 21
52.900543765139894
 31
0.0
  0
LINE
  5
551F
  8
0
 10
166.3758217908748
 20
58.426191263633882
 30
0.0
 11
160.49816572848241
 21
57.049202844247702
 31
0.0
  0
LINE
  5
5520
  8
0
 10
172.2262648419505
 20
61.529981393973678
 30
0.0
 11
167.06610129216051
 21
59.849121109182519
 31
0.0
  0
LINE
  5
5521
  8
0
 10
172.2262648419505
 20
62.127452665373767
 30
0.0
 11
172.2262648419505
 21
61.529981393973678
 31
0.0
  0
LINE
  5
5522
  8
0
 10
159.7262648419505
 20
55.529981393973678
 30
0.0
 11
159.7262648419505
 21
56.075564926726422
 31
0.0
  0
LINE
  5
5523
  8
0
 10
166.3758217908748
 20
58.426191263633882
 30
0.0
 11
166.3758217908748
 21
58.898293463036218
 31
0.0
  0
ARC
  5
5524
  8
0
 10
173.2262648419505
 20
62.127452665373767
 30
0.0
 40
1.0
 50
90.0
 51
180.00000000000099
  0
ARC
  5
5525
  8
0
 10
167.3758217908748
 20
58.898293463036218
 30
0.0
 40
1.0
 50
108.0423872583581
 51
180.0
  0
ARC
  5
5526
  8
0
 10
160.7262648419505
 20
56.075564926726422
 30
0.0
 40
1.0
 50
103.1851843997529
 51
180.0
  0
ARC
  5
5527
  8
0
 10
148.2262648419505
 20
47.97215733366329
 30
0.0
 40
1.0
 50
111.03751102542169
 51
180.0
  0
ARC
  5
5528
  8
0
 10
154.7262648419505
 20
52.000343512655697
 30
0.0
 40
1.0
 50
115.8155979716511
 51
180.0
  0
LINE
  5
5529
  8
0
 10
220.7262648419505
 20
36.127452665373767
 30
0.0
 11
153.7262648419505
 21
36.127452665373767
 31
0.0
  0
ARC
  5
552A
  8
0
 10
219.7262648419505
 20
52.000343512655697
 30
0.0
 40
1.0
 50
0.0
 51
64.18440202834887
  0
ARC
  5
552B
  8
0
 10
226.2262648419505
 20
47.97215733366329
 30
0.0
 40
1.0
 50
0.0
 51
68.962488974578235
  0
ARC
  5
552C
  8
0
 10
213.7262648419505
 20
56.075564926726422
 30
0.0
 40
1.0
 50
0.0
 51
76.814815600247044
  0
ARC
  5
552D
  8
0
 10
207.0767078930262
 20
58.898293463036218
 30
0.0
 40
1.0
 50
0.0
 51
71.957612741641853
  0
ARC
  5
552E
  8
0
 10
201.2262648419505
 20
62.127452665373767
 30
0.0
 40
1.0
 50
359.99999999999892
 51
90.0
  0
LINE
  5
552F
  8
0
 10
208.0767078930262
 20
58.426191263633882
 30
0.0
 11
208.0767078930262
 21
58.898293463036218
 31
0.0
  0
LINE
  5
5530
  8
0
 10
214.7262648419505
 20
55.529981393973678
 30
0.0
 11
214.7262648419505
 21
56.075564926726422
 31
0.0
  0
LINE
  5
5531
  8
0
 10
202.2262648419505
 20
62.127452665373767
 30
0.0
 11
202.2262648419505
 21
61.529981393973678
 31
0.0
  0
LINE
  5
5532
  8
0
 10
202.2262648419505
 20
61.529981393973678
 30
0.0
 11
207.38642839174051
 21
59.849121109182519
 31
0.0
  0
LINE
  5
5533
  8
0
 10
202.2262648419505
 20
61.529981393973678
 30
0.0
 11
172.2262648419505
 21
61.529981393973678
 31
0.0
  0
LINE
  5
5534
  8
0
 10
208.0767078930262
 20
58.426191263633882
 30
0.0
 11
213.95436395541859
 21
57.049202844247702
 31
0.0
  0
LINE
  5
5535
  8
0
 10
214.7262648419505
 20
55.529981393973678
 30
0.0
 11
220.1617410243386
 21
52.900543765139894
 31
0.0
  0
LINE
  5
5536
  8
0
 10
220.7262648419505
 20
51.158956431908337
 30
0.0
 11
226.5852439212594
 21
48.905502939866437
 31
0.0
  0
LINE
  5
5537
  8
0
 10
220.7262648419505
 20
51.158956431908337
 30
0.0
 11
220.7262648419505
 21
52.000343512655697
 31
0.0
  0
LINE
  5
5538
  8
0
 10
201.2262648419505
 20
63.127452665373752
 30
0.0
 11
173.2262648419505
 21
63.127452665373752
 31
0.0
  0
LINE
  5
5539
  8
0
 10
208.0767078930262
 20
58.426191263633882
 30
0.0
 11
166.3758217908748
 21
58.426191263633882
 31
0.0
  0
LINE
  5
553A
  8
0
 10
214.7262648419505
 20
55.529981393973678
 30
0.0
 11
159.7262648419505
 21
55.529981393973678
 31
0.0
  0
LINE
  5
553B
  8
0
 10
220.7262648419505
 20
51.158956431908337
 30
0.0
 11
153.7262648419505
 21
51.158956431908337
 31
0.0
  0
LINE
  5
553C
  8
0
 10
220.7262648419505
 20
39.127452665373781
 30
0.0
 11
220.7262648419505
 21
36.127452665373767
 31
0.0
  0
LINE
  5
553D
  8
0
 10
227.2262648419505
 20
39.127452665373781
 30
0.0
 11
227.2262648419505
 21
47.97215733366329
 31
0.0
  0
LINE
  5
553E
  8
0
 10
227.2262648419505
 20
39.127452665373781
 30
0.0
 11
147.2262648419505
 21
39.127452665373781
 31
0.0
  0
TEXT
  5
58B4
  8
0
 62
     3
 10
0.0
 20
0.0
 30
0.0
 40
10.0
  1
LVER80S16C-SUS
  7
STANDARD1
  0
ENDSEC
  0
EOF
