  0
SECTION
  2
HEADER
  9
$ACADVER
  1
AC1009
  9
$INSBASE
 10
0.0
 20
0.0
 30
0.0
  9
$EXTMIN
 10
0.0
 20
-2.960436562073669
 30
0.0
  9
$EXTMAX
 10
355.900161402614
 20
410.80168207816979
 30
0.0
  9
$LIMMIN
 10
0.0
 20
0.0
  9
$LIMMAX
 10
375.0
 20
270.0
  9
$ORTHOMODE
 70
     0
  9
$REGENMODE
 70
     1
  9
$FILLMODE
 70
     1
  9
$QTEXTMODE
 70
     0
  9
$MIRRTEXT
 70
     0
  9
$DRAGMODE
 70
     2
  9
$LTSCALE
 40
10.0
  9
$OSMODE
 70
  3071
  9
$ATTMODE
 70
     1
  9
$TEXTSIZE
 40
0.2
  9
$TRACEWID
 40
0.05
  9
$TEXTSTYLE
  7
STANDARD
  9
$CLAYER
  8
0
  9
$CELTYPE
  6
BYLAYER
  9
$CECOLOR
 62
   256
  9
$DIMSCALE
 40
1.0
  9
$DIMASZ
 40
3.0
  9
$DIMEXO
 40
1.0
  9
$DIMDLI
 40
6.0
  9
$DIMRND
 40
0.0
  9
$DIMDLE
 40
0.0
  9
$DIMEXE
 40
1.0
  9
$DIMTP
 40
495.0
  9
$DIMTM
 40
0.0
  9
$DIMTXT
 40
3.0
  9
$DIMCEN
 40
0.0
  9
$DIMTSZ
 40
0.0
  9
$DIMTOL
 70
     0
  9
$DIMLIM
 70
     0
  9
$DIMTIH
 70
     0
  9
$DIMTOH
 70
     0
  9
$DIMSE1
 70
     0
  9
$DIMSE2
 70
     0
  9
$DIMTAD
 70
     1
  9
$DIMZIN
 70
     0
  9
$DIMBLK
  1

  9
$DIMASO
 70
     0
  9
$DIMSHO
 70
     0
  9
$DIMPOST
  1

  9
$DIMAPOST
  1

  9
$DIMALT
 70
     0
  9
$DIMALTD
 70
     2
  9
$DIMALTF
 40
25.399999999999999
  9
$DIMLFAC
 40
1.0
  9
$DIMTOFL
 70
     1
  9
$DIMTVP
 40
0.0
  9
$DIMTIX
 70
     1
  9
$DIMSOXD
 70
     0
  9
$DIMSAH
 70
     0
  9
$DIMBLK1
  1

  9
$DIMBLK2
  1

  9
$DIMSTYLE
  2
STANDARD
  9
$DIMCLRD
 70
     0
  9
$DIMCLRE
 70
     0
  9
$DIMCLRT
 70
     4
  9
$DIMTFAC
 40
1.0
  9
$DIMGAP
 40
1.0
  9
$LUNITS
 70
     2
  9
$LUPREC
 70
     4
  9
$SKETCHINC
 40
0.1
  9
$FILLETRAD
 40
2.0
  9
$AUNITS
 70
     0
  9
$AUPREC
 70
     0
  9
$MENU
  1
C:\R13\WIN\SUPPORT\ACAD-I
  9
$ELEVATION
 40
0.0
  9
$PELEVATION
 40
0.0
  9
$THICKNESS
 40
0.0
  9
$LIMCHECK
 70
     0
  9
$BLIPMODE
 70
     0
  9
$CHAMFERA
 40
0.0
  9
$CHAMFERB
 40
0.0
  9
$SKPOLY
 70
     0
  9
$TDCREATE
 40
2451962.613564549
  9
$TDUPDATE
 40
2456597.6172037609
  9
$TDINDWG
 40
0.0493038079
  9
$TDUSRTIMER
 40
2456554.3140306021
  9
$USRTIMER
 70
     1
  9
$ANGBASE
 50
0.0
  9
$ANGDIR
 70
     0
  9
$PDMODE
 70
     0
  9
$PDSIZE
 40
0.0
  9
$PLINEWID
 40
0.0
  9
$COORDS
 70
     1
  9
$SPLFRAME
 70
     0
  9
$SPLINETYPE
 70
     6
  9
$SPLINESEGS
 70
     8
  9
$ATTDIA
 70
     0
  9
$ATTREQ
 70
     1
  9
$HANDLING
 70
     1
  9
$HANDSEED
  5
9B00
  9
$SURFTAB1
 70
     6
  9
$SURFTAB2
 70
     6
  9
$SURFTYPE
 70
     6
  9
$SURFU
 70
     6
  9
$SURFV
 70
     6
  9
$UCSNAME
  2

  9
$UCSORG
 10
0.0
 20
0.0
 30
0.0
  9
$UCSXDIR
 10
1.0
 20
0.0
 30
0.0
  9
$UCSYDIR
 10
0.0
 20
1.0
 30
0.0
  9
$PUCSNAME
  2

  9
$PUCSORG
 10
0.0
 20
0.0
 30
0.0
  9
$PUCSXDIR
 10
1.0
 20
0.0
 30
0.0
  9
$PUCSYDIR
 10
0.0
 20
1.0
 30
0.0
  9
$USERI1
 70
     4
  9
$USERI2
 70
     1
  9
$USERI3
 70
     0
  9
$USERI4
 70
     0
  9
$USERI5
 70
     0
  9
$USERR1
 40
1.0
  9
$USERR2
 40
3.0
  9
$USERR3
 40
3.0
  9
$USERR4
 40
3.0
  9
$USERR5
 40
10.0
  9
$WORLDVIEW
 70
     1
  9
$SHADEDGE
 70
     3
  9
$SHADEDIF
 70
    70
  9
$TILEMODE
 70
     1
  9
$MAXACTVP
 70
    16
  9
$PLIMCHECK
 70
     0
  9
$PEXTMIN
 10
1.0000000000000000E+020
 20
1.0000000000000000E+020
 30
1.0000000000000000E+020
  9
$PEXTMAX
 10
-1.0000000000000000E+020
 20
-1.0000000000000000E+020
 30
-1.0000000000000000E+020
  9
$PLIMMIN
 10
0.0
 20
0.0
  9
$PLIMMAX
 10
12.0
 20
9.0
  9
$UNITMODE
 70
     0
  9
$VISRETAIN
 70
     0
  9
$PLINEGEN
 70
     0
  9
$PSLTSCALE
 70
     0
  0
ENDSEC
  0
SECTION
  2
TABLES
  0
TABLE
  2
VPORT
 70
     1
  0
VPORT
  2
*ACTIVE
 70
     0
 10
0.0
 20
0.0
 11
1.0
 21
1.0
 12
187.49427839065231
 22
204.80791777515299
 13
0.0
 23
0.0
 14
10.0
 24
10.0
 15
10.0
 25
10.0
 16
0.0
 26
0.0
 36
1.0
 17
0.0
 27
0.0
 37
0.0
 40
420.35219668068578
 41
2.304913294797688
 42
50.0
 43
0.0
 44
0.0
 50
0.0
 51
0.0
 71
    16
 72
   100
 73
     1
 74
     0
 75
     0
 76
     0
 77
     0
 78
     0
  0
ENDTAB
  0
TABLE
  2
LTYPE
 70
     4
  0
LTYPE
  2
CONTINUOUS
 70
     0
  3
Solid Line
 72
    65
 73
     0
 40
0.0
  0
LTYPE
  2
PHANTOM2
 70
     0
  3
___ _ _ ___ _ _ ___ _ _ ___ _ _
 72
    65
 73
     6
 40
1.25
 49
0.625
 49
-0.125
 49
0.125
 49
-0.125
 49
0.125
 49
-0.125
  0
LTYPE
  2
CENTER
 70
     0
  3
____ _ ____ _ ____ _ ____ _ ____ _ ____ _ ____
 72
    65
 73
     4
 40
2.0
 49
1.25
 49
-0.25
 49
0.25
 49
-0.25
  0
LTYPE
  2
HIDDEN
 70
     0
  3
_ _ _ _ _ _ _ _ _ _ _ _ _ _ _ _ _ _ _ _ _ _ _
 72
    65
 73
     2
 40
0.375
 49
0.25
 49
-0.125
  0
ENDTAB
  0
TABLE
  2
LAYER
 70
     5
  0
LAYER
  2
0
 70
     0
 62
     7
  6
CONTINUOUS
  0
LAYER
  2
1
 70
     0
 62
     1
  6
CENTER
  0
LAYER
  2
3
 70
     0
 62
     3
  6
CONTINUOUS
  0
LAYER
  2
2
 70
     0
 62
     2
  6
HIDDEN
  0
LAYER
  2
DEFPOINTS
 70
     0
 62
     7
  6
CONTINUOUS
  0
ENDTAB
  0
TABLE
  2
STYLE
 70
     3
  0
STYLE
  2
STANDARD
 70
     0
 40
0.0
 41
1.0
 50
0.0
 71
     0
 42
0.2
  3
SIMPLEX
  4
BIGFONT
  0
STYLE
  2
ANNOTATIVE
 70
     0
 40
0.0
 41
1.0
 50
0.0
 71
     0
 42
0.2
  3
txt
  4

  0
STYLE
  2
STANDARD1
 70
     0
 40
0.0
 41
1.0
 50
0.0
 71
     0
 42
3.0
  3
txt
  4

  0
ENDTAB
  0
TABLE
  2
VIEW
 70
     0
  0
ENDTAB
  0
TABLE
  2
UCS
 70
     0
  0
ENDTAB
  0
TABLE
  2
APPID
 70
    29
  0
APPID
  2
ACAD
 70
     0
  0
APPID
  2
ACADANNOTATIVE
 70
     0
  0
APPID
  2
GENIUS_GENOREF_13
 70
     0
  0
APPID
  2
GENIUS_GENOENT_13
 70
     0
  0
APPID
  2
GENIUS_GENBH_13
 70
     0
  0
APPID
  2
GENIUS_GENOBJ_13
 70
     0
  0
APPID
  2
GENIUS_GENODEF_13
 70
     0
  0
APPID
  2
GENIUS_GENOLIS_13
 70
     0
  0
APPID
  2
GENIUS_GENOBJ-NBEHI-BHF_13
 70
     0
  0
APPID
  2
GENIUS_GENOBJ-NBEHI-BHB_13
 70
     0
  0
APPID
  2
GENIUS_GENOBJ-F-PART_13
 70
     0
  0
APPID
  2
GENIUS_GEFSTDP_13
 70
     0
  0
APPID
  2
GENIUS_GENOBJ-N-RSSYM_13
 70
     0
  0
APPID
  2
GENIUS_GENSYMENT_13
 70
     0
  0
APPID
  2
GENIUS_GENOBJ-N-TIT_13
 70
     0
  0
APPID
  2
GENIUS_GENTITLE_13
 70
     0
  0
APPID
  2
GENIUS_GENZVEED_13
 70
     0
  0
APPID
  2
GENIUS_GENOBJ-N-LEADER_13
 70
     0
  0
APPID
  2
GENIUS_GENOBJ-N-FIL_13
 70
     0
  0
APPID
  2
GENIUS_GENOBJ-N-SEC_13
 70
     0
  0
APPID
  2
GENIUS_GENOBJ-N-CRS_13
 70
     0
  0
APPID
  2
GENIUS_GENOBJ-N-ZOO_13
 70
     0
  0
APPID
  2
GENIUS_GENZOO_13
 70
     0
  0
APPID
  2
GENIUS_GENOBJ-F-TOL_13
 70
     0
  0
APPID
  2
GENIUS_GENFIL_13
 70
     0
  0
APPID
  2
GENIUS_GENOBJ-N-CHA_13
 70
     0
  0
APPID
  2
ACAD_EXEMPT_FROM_CAD_STANDARDS
 70
     0
  0
APPID
  2
ACAD_MLEADERVER
 70
     0
  0
APPID
  2
ACAD_NAV_VCDISPLAY
 70
     0
  0
ENDTAB
  0
TABLE
  2
DIMSTYLE
 70
     2
  0
DIMSTYLE
  2
STANDARD
 70
     0
  3

  4

  5

  6

  7

 40
1.0
 41
0.18
 42
0.0625
 43
0.38
 44
0.18
 45
0.0
 46
0.0
 47
0.0
 48
0.0
140
0.18
141
0.09
142
0.0
143
25.399999999999999
144
1.0
145
0.0
146
1.0
147
0.09
 71
     0
 72
     0
 73
     1
 74
     1
 75
     0
 76
     0
 77
     0
 78
     0
170
     0
171
     2
172
     0
173
     0
174
     0
175
     0
176
     0
177
     0
178
     0
  0
DIMSTYLE
  2
ANNOTATIVE
 70
     0
  3

  4

  5

  6

  7

 40
1.0
 41
0.18
 42
0.0625
 43
0.38
 44
0.18
 45
0.0
 46
0.0
 47
0.0
 48
0.0
140
0.18
141
0.09
142
0.0
143
25.399999999999999
144
1.0
145
0.0
146
1.0
147
0.09
 71
     0
 72
     0
 73
     1
 74
     1
 75
     0
 76
     0
 77
     0
 78
     0
170
     0
171
     2
172
     0
173
     0
174
     0
175
     0
176
     0
177
     0
178
     0
  0
ENDTAB
  0
ENDSEC
  0
SECTION
  2
BLOCKS
  0
BLOCK
  8
0
  2
$MODEL_SPACE
 70
     0
 10
0.0
 20
0.0
 30
0.0
  3
$MODEL_SPACE
  1

  0
ENDBLK
  5
9A12
  8
0
  0
BLOCK
 67
     1
  8
0
  2
$PAPER_SPACE
 70
     0
 10
0.0
 20
0.0
 30
0.0
  3
$PAPER_SPACE
  1

  0
ENDBLK
  5
9A0E
 67
     1
  8
0
  0
ENDSEC
  0
SECTION
  2
ENTITIES
  0
LINE
  5
9603
  8
0
 10
119.3414617809084
 20
337.30168207817002
 30
0.0
 11
94.976990506568484
 21
337.30168207817002
 31
0.0
  0
LINE
  5
9604
  8
0
 10
119.3414617809083
 20
364.30168207817002
 30
0.0
 11
94.976990506568484
 21
364.30168207817002
 31
0.0
  0
ARC
  5
9605
  8
0
 10
130.4769905065684
 20
350.8016820781699
 30
0.0
 40
17.499999999999979
 50
180.0
 51
0.0
  0
ARC
  5
9606
  8
0
 10
130.4769905065684
 20
350.8016820781699
 30
0.0
 40
45.0
 50
13.783000875104349
 51
166.21699912489561
  0
ARC
  5
9607
  8
0
 10
130.4769905065684
 20
350.8016820781699
 30
0.0
 40
37.0
 50
21.399266495350631
 51
158.60073350464941
  0
ARC
  5
9608
  8
0
 10
130.4769905065684
 20
350.8016820781699
 30
0.0
 40
30.0
 50
26.74368395040295
 51
153.25631604959699
  0
ARC
  5
9609
  8
0
 10
130.4769905065684
 20
350.8016820781699
 30
0.0
 40
23.999999999999989
 50
34.228866327812533
 51
145.7711336721874
  0
LINE
  5
960A
  8
1
 10
95.476990506568356
 20
362.05168207817002
 30
0.0
 11
95.476990506568356
 21
339.55168207817002
 31
0.0
  0
CIRCLE
  5
960B
  8
2
 10
95.476990506568356
 20
350.8016820781699
 30
0.0
 40
6.25
  0
ARC
  5
960C
  8
0
 10
94.976990506568484
 20
350.8016820781699
 30
0.0
 40
13.5
 50
85.602109657814381
 51
274.39789034218558
  0
LINE
  5
960D
  8
1
 10
165.47699050656831
 20
362.05168207817002
 30
0.0
 11
165.47699050656831
 21
339.55168207817002
 31
0.0
  0
LINE
  5
960E
  8
0
 10
165.97699050656831
 20
337.30168207817002
 30
0.0
 11
141.61251923222841
 21
337.30168207817002
 31
0.0
  0
CIRCLE
  5
960F
  8
2
 10
165.47699050656831
 20
350.8016820781699
 30
0.0
 40
6.25
  0
ARC
  5
9610
  8
0
 10
165.97699050656831
 20
350.8016820781699
 30
0.0
 40
13.5
 50
265.60210965781442
 51
94.397890342185576
  0
LINE
  5
9611
  8
0
 10
165.97699050656831
 20
364.30168207817002
 30
0.0
 11
141.61251923222841
 21
364.30168207817002
 31
0.0
  0
LINE
  5
9612
  8
1
 10
95.476990506568654
 20
64.604985674287818
 30
0.0
 11
95.476990506568654
 21
97.604985674287789
 31
0.0
  0
LINE
  5
9613
  8
0
 10
81.476990506568626
 20
92.604985674287789
 30
0.0
 11
112.9769905065682
 21
92.604985674287789
 31
0.0
  0
LINE
  5
9614
  8
0
 10
81.476990506568612
 20
92.604985674287875
 30
0.0
 11
81.47699050656864
 21
79.804985674287863
 31
0.0
  0
LINE
  5
9615
  8
0
 10
179.47699050656831
 20
92.604985674287789
 30
0.0
 11
179.47699050656831
 21
79.804985674287821
 31
0.0
  0
LINE
  5
9616
  8
0
 10
179.47699050656831
 20
92.604985674287789
 30
0.0
 11
147.9769905065684
 21
92.604985674287789
 31
0.0
  0
LINE
  5
9617
  8
1
 10
165.47699050656809
 20
64.604985674287775
 30
0.0
 11
165.47699050656809
 21
97.604985674287789
 31
0.0
  0
ARC
  5
9618
  8
0
 10
305.90016140261088
 20
87.275251855485408
 30
0.0
 40
12.25
 50
31.112020819731811
 51
46.120122896761671
  0
LINE
  5
9619
  8
0
 10
305.9001614026144
 20
182.97656457756071
 30
0.0
 11
305.9001614026144
 21
170.23340677105611
 31
0.0
  0
LINE
  5
961A
  8
0
 10
320.4001614026144
 20
168.604985674311
 30
0.0
 11
291.40016140261599
 21
168.604985674311
 31
0.0
  0
LINE
  5
961B
  8
0
 10
291.40016140261599
 20
184.6049856743108
 30
0.0
 11
320.40016140261281
 21
184.6049856743108
 31
0.0
  0
ARC
  5
961C
  8
0
 10
298.40016140261429
 20
162.65365176604681
 30
0.0
 40
21.662658773668529
 50
69.743841999600619
 51
110.2561580003994
  0
LINE
  5
961D
  8
0
 10
291.40016140261599
 20
184.6049856743108
 30
0.0
 11
290.90016140261457
 21
184.3163105397154
 31
0.0
  0
LINE
  5
961E
  8
0
 10
291.40016140261599
 20
168.604985674311
 30
0.0
 11
290.90016140261457
 21
168.8936608089065
 31
0.0
  0
ARC
  5
961F
  8
0
 10
298.40016140261429
 20
190.5563195825747
 30
0.0
 40
21.662658773668529
 50
249.74384199960059
 51
290.25615800039941
  0
LINE
  5
9620
  8
0
 10
290.9001614026144
 20
184.3163105397154
 30
0.0
 11
290.90016140261457
 21
168.8936608089065
 31
0.0
  0
LINE
  5
9621
  8
0
 10
320.90016140261429
 20
184.3163105397154
 30
0.0
 11
320.90016140261417
 21
168.8936608089065
 31
0.0
  0
ARC
  5
9622
  8
0
 10
313.40016140261429
 20
190.5563195825747
 30
0.0
 40
21.662658773668529
 50
249.74384199960059
 51
290.25615800039941
  0
LINE
  5
9623
  8
0
 10
320.40016140261281
 20
168.604985674311
 30
0.0
 11
320.90016140261417
 21
168.8936608089065
 31
0.0
  0
LINE
  5
9624
  8
0
 10
320.40016140261281
 20
184.6049856743108
 30
0.0
 11
320.90016140261417
 21
184.3163105397154
 31
0.0
  0
ARC
  5
9625
  8
0
 10
313.40016140261429
 20
162.65365176604681
 30
0.0
 40
21.662658773668529
 50
69.743841999600619
 51
110.2561580003994
  0
LINE
  5
9626
  8
3
 10
297.25316140261401
 20
184.6049856743108
 30
0.0
 11
297.25316140261401
 21
249.4579856742879
 31
0.0
  0
LINE
  5
9627
  8
0
 10
295.90016140261389
 20
184.6049856743108
 30
0.0
 11
295.90016140261389
 21
248.1049856742878
 31
0.0
  0
LINE
  5
9628
  8
0
 10
315.90016140261389
 20
184.6049856743106
 30
0.0
 11
315.90016140261389
 21
248.1049856742876
 31
0.0
  0
LINE
  5
9629
  8
3
 10
314.54716140261382
 20
184.6049856743108
 30
0.0
 11
314.54716140261382
 21
249.4579856742877
 31
0.0
  0
ARC
  5
962A
  8
0
 10
305.90016140261088
 20
87.275251855485408
 30
0.0
 40
12.25
 50
133.87987710304881
 51
148.8879791802681
  0
LINE
  5
962B
  8
0
 10
314.40016140261389
 20
96.10498567423555
 30
0.0
 11
297.40016140261389
 21
96.104985674263744
 31
0.0
  0
LINE
  5
962C
  8
0
 10
314.40016140261389
 20
102.6049856742496
 30
0.0
 11
314.40016140261389
 21
96.10498567423555
 31
0.0
  0
LINE
  5
962D
  8
0
 10
297.40016140261389
 20
102.6049856742496
 30
0.0
 11
297.40016140261389
 21
96.104985674263972
 31
0.0
  0
LINE
  5
962E
  8
0
 10
298.40016140261389
 20
250.6049856742878
 30
0.0
 11
313.40016140261389
 21
250.6049856742876
 31
0.0
  0
LINE
  5
962F
  8
0
 10
315.90016140261389
 20
112.6049856742878
 30
0.0
 11
315.90016140261389
 21
168.60498567431031
 31
0.0
  0
LINE
  5
9630
  8
3
 10
314.54716140261382
 20
116.6049856742878
 30
0.0
 11
314.54716140261382
 21
168.60498567431031
 31
0.0
  0
LINE
  5
9631
  8
3
 10
297.25316140261401
 20
116.6049856742878
 30
0.0
 11
297.25316140261401
 21
168.60498567431009
 31
0.0
  0
LINE
  5
9632
  8
0
 10
295.90016140261389
 20
112.6049856742878
 30
0.0
 11
295.90016140261389
 21
168.60498567431031
 31
0.0
  0
LINE
  5
9633
  8
0
 10
295.90016140261389
 20
248.1049856742878
 30
0.0
 11
298.40016140261389
 21
250.6049856742878
 31
0.0
  0
LINE
  5
9634
  8
0
 10
313.40016140261389
 20
250.6049856742876
 30
0.0
 11
315.90016140261389
 21
248.1049856742876
 31
0.0
  0
LINE
  5
9635
  8
0
 10
295.90016140261389
 20
248.1049856742878
 30
0.0
 11
315.90016140261389
 21
248.1049856742876
 31
0.0
  0
LINE
  5
9636
  8
0
 10
315.90016140261389
 20
116.6049856742878
 30
0.0
 11
295.90016140261389
 21
116.6049856742878
 31
0.0
  0
LINE
  5
9637
  8
3
 10
297.25316140261401
 20
116.6049856742878
 30
0.0
 11
295.90016140261389
 21
114.2615209316469
 31
0.0
  0
LINE
  5
9638
  8
3
 10
314.54716140261382
 20
116.6049856742878
 30
0.0
 11
315.90016140261389
 21
114.2615209316469
 31
0.0
  0
ARC
  5
9639
  8
0
 10
305.90016140266772
 20
89.388107311664598
 30
0.0
 40
22.928203228139491
 50
72.412046224314381
 51
107.58795377568561
  0
ARC
  5
963A
  8
0
 10
295.50785655725417
 20
106.18233594408331
 30
0.0
 40
6.1339745957208196
 50
55.615752528792761
 51
115.61575253015479
  0
LINE
  5
963B
  8
0
 10
292.04375494209478
 20
111.2445137699748
 30
0.0
 11
294.4001614027755
 21
112.604985674369
 31
0.0
  0
LINE
  5
963C
  8
0
 10
292.04375494209478
 20
103.96545757876321
 30
0.0
 11
294.4001614027755
 21
102.604985674369
 31
0.0
  0
ARC
  5
963D
  8
0
 10
295.50785655725417
 20
109.0276354046547
 30
0.0
 40
6.1339745957208196
 50
244.38424746984521
 51
304.38424747120678
  0
ARC
  5
963E
  8
0
 10
305.90016140266772
 20
125.8218640370734
 30
0.0
 40
22.928203228139491
 50
252.41204622431439
 51
287.58795377568561
  0
LINE
  5
963F
  8
0
 10
292.04375494211661
 20
111.2445137699748
 30
0.0
 11
292.04375494211661
 21
103.9654575787505
 31
0.0
  0
LINE
  5
9640
  8
0
 10
298.97195817239242
 20
111.2445137699748
 30
0.0
 11
298.97195817239242
 21
103.96545757876321
 31
0.0
  0
LINE
  5
9641
  8
0
 10
312.82836463294308
 20
111.2445137699748
 30
0.0
 11
312.82836463294308
 21
103.96545757876321
 31
0.0
  0
LINE
  5
9642
  8
0
 10
319.75656786321889
 20
111.2445137699748
 30
0.0
 11
319.75656786321889
 21
103.9654575787505
 31
0.0
  0
ARC
  5
9643
  8
0
 10
316.29246624808133
 20
109.0276354046547
 30
0.0
 40
6.1339745957208196
 50
235.61575252879319
 51
295.61575253015491
  0
LINE
  5
9644
  8
0
 10
319.75656786324078
 20
103.96545757876321
 30
0.0
 11
317.40016140256
 21
102.604985674369
 31
0.0
  0
LINE
  5
9645
  8
0
 10
319.75656786324078
 20
111.2445137699748
 30
0.0
 11
317.40016140256
 21
112.604985674369
 31
0.0
  0
ARC
  5
9646
  8
0
 10
316.29246624808133
 20
106.18233594408331
 30
0.0
 40
6.1339745957208196
 50
64.384247469845135
 51
124.3842474712072
  0
LINE
  5
9647
  8
0
 10
294.40016140266772
 20
112.604985674369
 30
0.0
 11
317.40016140256
 21
112.604985674369
 31
0.0
  0
LINE
  5
9648
  8
0
 10
317.40016140256
 20
102.604985674369
 30
0.0
 11
294.4001614027755
 21
102.604985674369
 31
0.0
  0
LINE
  5
9649
  8
0
 10
355.90016140261389
 20
69.604985674287775
 30
0.0
 11
255.90016140261389
 21
69.604985674287818
 31
0.0
  0
LINE
  5
964A
  8
0
 10
355.90016140261389
 20
69.604985674287775
 30
0.0
 11
355.900161402614
 21
78.785181771569228
 31
0.0
  0
LINE
  5
964C
  8
0
 10
322.40016140261389
 20
93.604985674287789
 30
0.0
 11
289.40016140261389
 21
93.604985674287789
 31
0.0
  0
LINE
  5
964E
  8
0
 10
323.40016140261389
 20
92.604985674287789
 30
0.0
 11
323.40016140261389
 21
92.604985674287789
 31
0.0
  0
LINE
  5
964F
  8
0
 10
329.90016140261389
 20
89.866411019769686
 30
0.0
 11
329.90016140261389
 21
89.604985674287818
 31
0.0
  0
LINE
  5
9650
  8
0
 10
335.90016140261389
 20
86.884226454231623
 30
0.0
 11
335.90016140261389
 21
86.604985674287789
 31
0.0
  0
LINE
  5
9651
  8
0
 10
342.90016140261389
 20
83.850684261533402
 30
0.0
 11
342.90016140261389
 21
83.604985674287818
 31
0.0
  0
LINE
  5
9652
  8
0
 10
350.90016140261389
 20
80.82420926788339
 30
0.0
 11
350.90016140261389
 21
80.604985674287818
 31
0.0
  0
LINE
  5
9653
  8
0
 10
323.40016140261389
 20
92.604985674287789
 30
0.0
 11
329.19424725145137
 21
90.822190028491619
 31
0.0
  0
LINE
  5
9654
  8
0
 10
329.90016140261389
 20
89.604985674287818
 30
0.0
 11
335.21638916863083
 21
87.832909752282177
 31
0.0
  0
LINE
  5
9655
  8
0
 10
335.90016140261389
 20
86.604985674287789
 30
0.0
 11
342.1748825305113
 21
84.812208209174258
 31
0.0
  0
LINE
  5
9656
  8
0
 10
342.90016140261389
 20
83.604985674287818
 30
0.0
 11
350.14269702765017
 21
81.794351768028719
 31
0.0
  0
ARC
  5
9657
  8
0
 10
349.90016140261389
 20
80.82420926788339
 30
0.0
 40
1.0
 50
0.0
 51
75.963756532073333
  0
ARC
  5
9658
  8
0
 10
341.90016140261389
 20
83.850684261533402
 30
0.0
 40
1.0
 50
0.0
 51
74.054604099077153
  0
ARC
  5
9659
  8
0
 10
334.90016140261389
 20
86.884226454231623
 30
0.0
 40
1.0
 50
0.0
 51
71.565051177077734
  0
ARC
  5
965A
  8
0
 10
328.90016140261389
 20
89.866411019769686
 30
0.0
 40
1.0
 50
0.0
 51
72.897271030947451
  0
ARC
  5
965B
  8
0
 10
322.40016140261389
 20
92.604985674287789
 30
0.0
 40
1.0
 50
0.0
 51
89.999999999999986
  0
LINE
  5
965C
  8
0
 10
350.90016140261389
 20
80.604985674287818
 30
0.0
 11
355.09627753775209
 21
79.765762447260158
 31
0.0
  0
ARC
  5
965D
  8
0
 10
354.90016140261389
 20
78.785181771569228
 30
0.0
 40
1.0
 50
359.99999999999972
 51
78.690067525979913
  0
ARC
  5
965E
  8
0
 10
256.90016140261378
 20
78.785181771569228
 30
0.0
 40
1.0
 50
101.3099324740201
 51
180.00000000000031
  0
LINE
  5
965F
  8
0
 10
260.90016140261389
 20
80.604985674287818
 30
0.0
 11
256.70404526747569
 21
79.765762447260158
 31
0.0
  0
ARC
  5
9660
  8
0
 10
289.40016140261389
 20
92.604985674287789
 30
0.0
 40
1.0
 50
90.000000000000057
 51
180.0
  0
ARC
  5
9661
  8
0
 10
282.90016140261389
 20
89.866411019769686
 30
0.0
 40
1.0
 50
107.10272896905251
 51
180.0
  0
ARC
  5
9662
  8
0
 10
276.90016140261389
 20
86.884226454231623
 30
0.0
 40
1.0
 50
108.43494882292219
 51
180.0
  0
ARC
  5
9663
  8
0
 10
269.90016140261389
 20
83.850684261533402
 30
0.0
 40
1.0
 50
105.9453959009228
 51
180.0
  0
ARC
  5
9664
  8
0
 10
261.90016140261389
 20
80.82420926788339
 30
0.0
 40
1.0
 50
104.0362434679266
 51
180.0
  0
LINE
  5
9665
  8
0
 10
268.90016140261389
 20
83.604985674287818
 30
0.0
 11
261.65762577757761
 21
81.794351768028719
 31
0.0
  0
LINE
  5
9666
  8
0
 10
275.90016140261389
 20
86.604985674287789
 30
0.0
 11
269.62544027471648
 21
84.812208209174258
 31
0.0
  0
LINE
  5
9667
  8
0
 10
281.90016140261389
 20
89.604985674287818
 30
0.0
 11
276.58393363659712
 21
87.832909752282177
 31
0.0
  0
LINE
  5
9668
  8
0
 10
288.40016140261389
 20
92.604985674287789
 30
0.0
 11
282.60607555377629
 21
90.822190028491619
 31
0.0
  0
LINE
  5
9669
  8
0
 10
260.90016140261389
 20
80.82420926788339
 30
0.0
 11
260.90016140261389
 21
80.604985674287818
 31
0.0
  0
LINE
  5
966A
  8
0
 10
268.90016140261389
 20
83.850684261533402
 30
0.0
 11
268.90016140261389
 21
83.604985674287818
 31
0.0
  0
LINE
  5
966B
  8
0
 10
275.90016140261389
 20
86.884226454231623
 30
0.0
 11
275.90016140261389
 21
86.604985674287789
 31
0.0
  0
LINE
  5
966C
  8
0
 10
281.90016140261389
 20
89.866411019769686
 30
0.0
 11
281.90016140261389
 21
89.604985674287818
 31
0.0
  0
LINE
  5
966D
  8
0
 10
288.40016140261389
 20
92.604985674287789
 30
0.0
 11
288.40016140261389
 21
92.604985674287789
 31
0.0
  0
LINE
  5
966F
  8
0
 10
255.90016140261389
 20
69.604985674287775
 30
0.0
 11
255.9001614026138
 21
78.785181771569228
 31
0.0
  0
LINE
  5
9670
  8
0
 10
260.90016140261389
 20
80.604985674287818
 30
0.0
 11
295.68402832573588
 21
80.604985674287818
 31
0.0
  0
LINE
  5
9671
  8
0
 10
268.90016140261389
 20
83.604985674287818
 30
0.0
 11
292.40016140261372
 21
83.604985674287818
 31
0.0
  0
LINE
  5
9672
  8
0
 10
275.90016140261389
 20
86.604985674287789
 30
0.0
 11
292.40016140261372
 21
86.604985674287789
 31
0.0
  0
LINE
  5
9673
  8
0
 10
329.90016140261389
 20
89.604985674287818
 30
0.0
 11
319.40016140261372
 21
89.604985674287775
 31
0.0
  0
LINE
  5
9674
  8
0
 10
288.40016140261389
 20
92.604985674287789
 30
0.0
 11
323.40016140261389
 21
92.604985674287789
 31
0.0
  0
LINE
  5
9675
  8
0
 10
314.40016140261389
 20
102.6049856742497
 30
0.0
 11
314.40016140261389
 21
96.104985674235635
 31
0.0
  0
LINE
  5
9676
  8
0
 10
297.40016140261389
 20
102.6049856742497
 30
0.0
 11
297.40016140261389
 21
96.104985674264043
 31
0.0
  0
LINE
  5
9677
  8
1
 10
305.90016140261389
 20
260.60498567428778
 30
0.0
 11
305.90016140261372
 21
59.604985674287789
 31
0.0
  0
LINE
  5
9678
  8
1
 10
130.4769905065684
 20
260.60498567428778
 30
0.0
 11
130.4769905065682
 21
59.604985674287789
 31
0.0
  0
LINE
  5
9679
  8
1
 10
190.4769905065682
 20
350.8016820781699
 30
0.0
 11
70.47699050656837
 21
350.8016820781699
 31
0.0
  0
LINE
  5
967A
  8
1
 10
130.4769905065684
 20
410.80168207816979
 30
0.0
 11
130.4769905065684
 21
290.80168207817002
 31
0.0
  0
ARC
  5
967B
  8
0
 10
130.47699050656539
 20
87.275251855485521
 30
0.0
 40
12.25
 50
31.112020819731239
 51
46.120122896763412
  0
LINE
  5
967C
  8
3
 10
139.1239905065683
 20
116.6049856742879
 30
0.0
 11
140.4769905065684
 21
114.261520931647
 31
0.0
  0
LINE
  5
967D
  8
3
 10
121.82999050656851
 20
116.6049856742879
 30
0.0
 11
120.4769905065684
 21
114.261520931647
 31
0.0
  0
LINE
  5
967E
  8
0
 10
140.4769905065684
 20
116.6049856742879
 30
0.0
 11
120.4769905065684
 21
116.6049856742879
 31
0.0
  0
LINE
  5
967F
  8
0
 10
120.4769905065684
 20
248.1049856742878
 30
0.0
 11
140.4769905065684
 21
248.10498567428769
 31
0.0
  0
LINE
  5
9680
  8
0
 10
137.9769905065684
 20
250.60498567428769
 30
0.0
 11
140.4769905065684
 21
248.10498567428769
 31
0.0
  0
LINE
  5
9681
  8
0
 10
120.4769905065684
 20
248.1049856742878
 30
0.0
 11
122.9769905065684
 21
250.604985674288
 31
0.0
  0
LINE
  5
9682
  8
0
 10
120.4769905065684
 20
112.6049856742879
 30
0.0
 11
120.4769905065684
 21
168.6049856743104
 31
0.0
  0
LINE
  5
9683
  8
3
 10
121.82999050656851
 20
116.6049856742879
 30
0.0
 11
121.82999050656851
 21
168.6049856743102
 31
0.0
  0
LINE
  5
9684
  8
3
 10
139.1239905065683
 20
116.6049856742879
 30
0.0
 11
139.1239905065683
 21
168.6049856743104
 31
0.0
  0
LINE
  5
9685
  8
0
 10
140.4769905065684
 20
112.6049856742879
 30
0.0
 11
140.4769905065684
 21
168.6049856743104
 31
0.0
  0
LINE
  5
9686
  8
0
 10
122.9769905065684
 20
250.604985674288
 30
0.0
 11
137.9769905065684
 21
250.60498567428769
 31
0.0
  0
ARC
  5
9687
  8
0
 10
136.4769905066016
 20
94.986183522370496
 30
0.0
 40
17.330127017333279
 50
69.743841997634789
 51
110.2561580023652
  0
LINE
  5
9688
  8
0
 10
142.4769905066166
 20
112.31631053970381
 30
0.0
 11
141.9769905066016
 21
112.6049856743073
 31
0.0
  0
LINE
  5
9689
  8
0
 10
142.4769905066166
 20
102.8936608088338
 30
0.0
 11
141.9769905066016
 21
102.60498567423041
 31
0.0
  0
ARC
  5
968A
  8
0
 10
136.4769905066016
 20
120.2237878261671
 30
0.0
 40
17.330127017333279
 50
249.7438419976348
 51
290.25615800236528
  0
LINE
  5
968B
  8
0
 10
142.4769905066166
 20
112.31631053970381
 30
0.0
 11
142.4769905066016
 21
102.8936608088252
 31
0.0
  0
LINE
  5
968C
  8
0
 10
130.4769905066016
 20
103.96545757866301
 30
0.0
 11
130.4769905066016
 21
111.2445137698746
 31
0.0
  0
LINE
  5
968D
  8
0
 10
118.4769905065866
 20
112.31631053970381
 30
0.0
 11
118.4769905066016
 21
102.8936608088252
 31
0.0
  0
ARC
  5
968E
  8
0
 10
124.4769905066016
 20
120.2237878261671
 30
0.0
 40
17.330127017333279
 50
249.7438419976348
 51
290.25615800236528
  0
LINE
  5
968F
  8
0
 10
118.4769905065866
 20
102.8936608088338
 30
0.0
 11
118.9769905066016
 21
102.60498567423041
 31
0.0
  0
LINE
  5
9690
  8
0
 10
118.4769905065866
 20
112.31631053970381
 30
0.0
 11
118.9769905066016
 21
112.6049856743073
 31
0.0
  0
ARC
  5
9691
  8
0
 10
124.4769905066016
 20
94.986183522370496
 30
0.0
 40
17.330127017333279
 50
69.743841997634789
 51
110.2561580023652
  0
LINE
  5
9692
  8
0
 10
118.9769905065352
 20
112.6049856742688
 30
0.0
 11
141.9769905066016
 21
112.6049856743073
 31
0.0
  0
LINE
  5
9693
  8
0
 10
141.9769905066016
 20
102.60498567423041
 30
0.0
 11
118.9769905065352
 21
102.6049856742688
 31
0.0
  0
LINE
  5
9694
  8
0
 10
121.9769905065684
 20
102.6049856742497
 30
0.0
 11
121.9769905065684
 21
96.104985674264071
 31
0.0
  0
LINE
  5
9695
  8
0
 10
138.9769905065684
 20
102.6049856742497
 30
0.0
 11
138.9769905065684
 21
96.10498567423565
 31
0.0
  0
LINE
  5
9696
  8
0
 10
138.9769905065684
 20
96.10498567423565
 30
0.0
 11
121.9769905065684
 21
96.104985674263844
 31
0.0
  0
ARC
  5
9697
  8
0
 10
130.47699050656539
 20
87.275251855485521
 30
0.0
 40
12.25
 50
133.87987710304819
 51
148.8879791802687
  0
LINE
  5
9698
  8
0
 10
144.976990506569
 20
168.60498567431071
 30
0.0
 11
115.9769905065686
 21
168.6049856743104
 31
0.0
  0
LINE
  5
9699
  8
0
 10
115.9769905065686
 20
184.60498567431111
 30
0.0
 11
144.97699050656931
 21
184.60498567431071
 31
0.0
  0
LINE
  5
969A
  8
0
 10
144.9769905065686
 20
184.60498567431111
 30
0.0
 11
147.79749858225719
 21
182.97656457756079
 31
0.0
  0
ARC
  5
969B
  8
0
 10
143.46737156333481
 20
176.6488422944399
 30
0.0
 40
7.6674682452751766
 50
64.384247470460238
 51
124.3842474680055
  0
ARC
  5
969C
  8
0
 10
143.46737156333481
 20
176.6488422944399
 30
0.0
 40
7.6674682452751766
 50
55.615752531994502
 51
55.615752531994502
  0
ARC
  5
969D
  8
0
 10
143.46737156333481
 20
176.56112905418161
 30
0.0
 40
7.6674682452751766
 50
304.38424746800558
 51
304.38424746800558
  0
ARC
  5
969E
  8
0
 10
143.46737156333481
 20
176.56112905418161
 30
0.0
 40
7.6674682452751766
 50
235.6157525319945
 51
295.61575252953969
  0
LINE
  5
969F
  8
0
 10
144.9769905065686
 20
168.6049856743104
 30
0.0
 11
147.79749858225719
 21
170.2334067710608
 31
0.0
  0
LINE
  5
96A0
  8
0
 10
147.79749858225699
 20
182.97656457756079
 30
0.0
 11
147.7974985825407
 21
170.23340677122451
 31
0.0
  0
LINE
  5
96A1
  8
0
 10
139.13724454441279
 20
170.23340677108419
 30
0.0
 11
139.13724454425881
 21
182.97656457756079
 31
0.0
  0
ARC
  5
96A2
  8
0
 10
130.47699050664201
 20
197.55391484629899
 30
0.0
 40
28.660254037392811
 50
252.41204622557021
 51
287.5879537741294
  0
LINE
  5
96A3
  8
0
 10
121.8167364687244
 20
170.23340677108419
 30
0.0
 11
121.8167364688783
 21
182.97656457756079
 31
0.0
  0
LINE
  5
96A4
  8
0
 10
113.1564824308802
 20
182.97656457756079
 30
0.0
 11
113.1564824305964
 21
170.23340677122451
 31
0.0
  0
LINE
  5
96A5
  8
0
 10
115.9769905065686
 20
168.6049856743104
 30
0.0
 11
113.1564824308799
 21
170.2334067710608
 31
0.0
  0
ARC
  5
96A6
  8
0
 10
117.4866094498024
 20
176.56112905418161
 30
0.0
 40
7.6674682452751766
 50
244.3842474704602
 51
304.38424746800558
  0
ARC
  5
96A7
  8
0
 10
117.4866094498024
 20
176.56112905418161
 30
0.0
 40
7.6674682452751766
 50
235.6157525319945
 51
235.6157525319945
  0
ARC
  5
96A8
  8
0
 10
130.47699050664201
 20
155.6560565023224
 30
0.0
 40
28.660254037392811
 50
72.412046225870512
 51
107.58795377442971
  0
ARC
  5
96A9
  8
0
 10
117.4866094498024
 20
176.6488422944399
 30
0.0
 40
7.6674682452751766
 50
124.3842474680055
 51
124.3842474680055
  0
ARC
  5
96AA
  8
0
 10
117.4866094498024
 20
176.6488422944399
 30
0.0
 40
7.6674682452751766
 50
55.615752531994502
 51
115.61575252953971
  0
LINE
  5
96AB
  8
0
 10
115.9769905065686
 20
184.60498567431111
 30
0.0
 11
113.1564824308799
 21
182.97656457756079
 31
0.0
  0
LINE
  5
96AC
  8
3
 10
139.1239905065683
 20
184.60498567431091
 30
0.0
 11
139.1239905065683
 21
249.45798567428781
 31
0.0
  0
LINE
  5
96AD
  8
0
 10
140.4769905065684
 20
184.60498567431071
 30
0.0
 11
140.4769905065684
 21
248.10498567428769
 31
0.0
  0
LINE
  5
96AE
  8
0
 10
120.4769905065684
 20
184.60498567431091
 30
0.0
 11
120.4769905065684
 21
248.1049856742878
 31
0.0
  0
LINE
  5
96AF
  8
3
 10
121.82999050656851
 20
184.60498567431091
 30
0.0
 11
121.82999050656851
 21
249.45798567428801
 31
0.0
  0
CIRCLE
  5
96B0
  8
0
 10
130.4769905065684
 20
350.8016820781699
 30
0.0
 40
10.0
  0
CIRCLE
  5
96B1
  8
3
 10
130.4769905065684
 20
350.8016820781699
 30
0.0
 40
8.6470000000000002
  0
LINE
  5
96B2
  8
0
 10
121.8167364687241
 20
335.80168207817002
 30
0.0
 11
139.13724454441279
 21
335.80168207817002
 31
0.0
  0
LINE
  5
96B3
  8
0
 10
139.13724454441279
 20
335.80168207817002
 30
0.0
 11
147.79749858225711
 21
350.8016820781699
 31
0.0
  0
LINE
  5
96B4
  8
0
 10
147.79749858225711
 20
350.8016820781699
 30
0.0
 11
139.1372445444126
 21
365.80168207817002
 31
0.0
  0
LINE
  5
96B5
  8
0
 10
139.1372445444126
 20
365.80168207817002
 30
0.0
 11
121.8167364687242
 21
365.80168207817002
 31
0.0
  0
LINE
  5
96B6
  8
0
 10
121.8167364687242
 20
365.80168207817002
 30
0.0
 11
113.15648243087971
 21
350.80168207817019
 31
0.0
  0
LINE
  5
96B7
  8
0
 10
113.15648243087971
 20
350.80168207817019
 30
0.0
 11
121.8167364687241
 21
335.80168207817002
 31
0.0
  0
CIRCLE
  5
96B8
  8
0
 10
130.4769905065684
 20
350.8016820781699
 30
0.0
 40
14.5
  0
ARC
  5
96B9
  8
0
 10
130.4769905065684
 20
350.8016820781699
 30
0.0
 40
17.499999999999979
 50
0.0
 51
180.0
  0
ARC
  5
96BA
  8
0
 10
130.4769905065684
 20
350.8016820781699
 30
0.0
 40
23.999999999999989
 50
214.2288663278126
 51
325.77113367218737
  0
ARC
  5
96BB
  8
0
 10
130.4769905065684
 20
350.8016820781699
 30
0.0
 40
30.0
 50
206.74368395040301
 51
333.25631604959688
  0
ARC
  5
96BC
  8
0
 10
130.4769905065684
 20
350.8016820781699
 30
0.0
 40
37.0
 50
201.3992664953507
 51
338.60073350464933
  0
ARC
  5
96BD
  8
0
 10
130.4769905065684
 20
350.8016820781699
 30
0.0
 40
45.0
 50
193.78300087510431
 51
346.21699912489561
  0
CIRCLE
  5
96BE
  8
0
 10
130.4769905065684
 20
350.8016820781699
 30
0.0
 40
50.0
  0
LINE
  5
96BF
  8
0
 10
112.9769905065683
 20
92.60498567428786
 30
0.0
 11
147.97699050656831
 21
92.60498567428786
 31
0.0
  0
LINE
  5
96C0
  8
0
 10
154.4769905065684
 20
89.60498567428786
 30
0.0
 11
106.4769905065684
 21
89.60498567428786
 31
0.0
  0
LINE
  5
96C1
  8
0
 10
100.4769905065683
 20
86.604985674287789
 30
0.0
 11
160.4769905065684
 21
86.604985674287789
 31
0.0
  0
LINE
  5
96C2
  8
0
 10
93.476990506568356
 20
83.604985674287818
 30
0.0
 11
167.47699050656831
 21
83.604985674287818
 31
0.0
  0
LINE
  5
96C3
  8
0
 10
85.476990506568342
 20
80.604985674287818
 30
0.0
 11
175.4769905065684
 21
80.604985674287818
 31
0.0
  0
LINE
  5
96C4
  8
0
 10
80.476990506568342
 20
69.604985674287818
 30
0.0
 11
80.476990506568285
 21
78.785181771569228
 31
0.0
  0
LINE
  5
96C6
  8
0
 10
112.9769905065683
 20
92.604985674287789
 30
0.0
 11
112.9769905065683
 21
92.60498567428786
 31
0.0
  0
LINE
  5
96C7
  8
0
 10
106.4769905065684
 20
89.866411019769686
 30
0.0
 11
106.4769905065684
 21
89.60498567428786
 31
0.0
  0
LINE
  5
96C8
  8
0
 10
100.4769905065683
 20
86.88422645423168
 30
0.0
 11
100.4769905065683
 21
86.604985674287789
 31
0.0
  0
LINE
  5
96C9
  8
0
 10
93.476990506568356
 20
83.850684261533445
 30
0.0
 11
93.476990506568356
 21
83.604985674287818
 31
0.0
  0
LINE
  5
96CA
  8
0
 10
85.476990506568342
 20
80.82420926788339
 30
0.0
 11
85.476990506568342
 21
80.604985674287818
 31
0.0
  0
LINE
  5
96CB
  8
0
 10
112.9769905065683
 20
92.60498567428786
 30
0.0
 11
107.1829046577309
 21
90.822190028491619
 31
0.0
  0
LINE
  5
96CC
  8
0
 10
106.4769905065684
 20
89.60498567428786
 30
0.0
 11
101.1607627405515
 21
87.832909752282177
 31
0.0
  0
LINE
  5
96CD
  8
0
 10
100.4769905065683
 20
86.604985674287789
 30
0.0
 11
94.202269378671019
 21
84.812208209174258
 31
0.0
  0
LINE
  5
96CE
  8
0
 10
93.476990506568356
 20
83.604985674287818
 30
0.0
 11
86.234454881532045
 21
81.794351768028719
 31
0.0
  0
ARC
  5
96CF
  8
0
 10
86.476990506568384
 20
80.82420926788339
 30
0.0
 40
1.0
 50
104.0362434679266
 51
180.0
  0
ARC
  5
96D0
  8
0
 10
94.476990506568356
 20
83.850684261533445
 30
0.0
 40
1.0
 50
105.9453959009228
 51
180.0
  0
ARC
  5
96D1
  8
0
 10
101.4769905065683
 20
86.88422645423168
 30
0.0
 40
1.0
 50
108.43494882292219
 51
180.0
  0
ARC
  5
96D2
  8
0
 10
107.4769905065684
 20
89.866411019769686
 30
0.0
 40
1.0
 50
107.10272896905251
 51
180.0
  0
ARC
  5
96D3
  8
0
 10
113.9769905065683
 20
92.604985674287789
 30
0.0
 40
1.0
 50
90.000000000000057
 51
180.0
  0
LINE
  5
96D4
  8
0
 10
85.476990506568342
 20
80.604985674287818
 30
0.0
 11
81.280874371430187
 21
79.765762447260158
 31
0.0
  0
ARC
  5
96D5
  8
0
 10
81.476990506568299
 20
78.785181771569228
 30
0.0
 40
1.0
 50
101.3099324740201
 51
180.00000000000031
  0
ARC
  5
96D6
  8
0
 10
179.4769905065684
 20
78.785181771569228
 30
0.0
 40
1.0
 50
359.99999999999972
 51
78.690067525979913
  0
LINE
  5
96D7
  8
0
 10
175.4769905065684
 20
80.604985674287818
 30
0.0
 11
179.67310664170651
 21
79.765762447260158
 31
0.0
  0
ARC
  5
96D8
  8
0
 10
146.9769905065684
 20
92.604985674287789
 30
0.0
 40
1.0
 50
0.0
 51
89.999999999999986
  0
ARC
  5
96D9
  8
0
 10
153.4769905065684
 20
89.866411019769686
 30
0.0
 40
1.0
 50
0.0
 51
72.897271030947451
  0
ARC
  5
96DA
  8
0
 10
159.4769905065684
 20
86.88422645423168
 30
0.0
 40
1.0
 50
0.0
 51
71.565051177077734
  0
ARC
  5
96DB
  8
0
 10
166.47699050656831
 20
83.850684261533445
 30
0.0
 40
1.0
 50
0.0
 51
74.054604099077153
  0
ARC
  5
96DC
  8
0
 10
174.47699050656831
 20
80.82420926788339
 30
0.0
 40
1.0
 50
0.0
 51
75.963756532073333
  0
LINE
  5
96DD
  8
0
 10
167.47699050656831
 20
83.604985674287818
 30
0.0
 11
174.71952613160471
 21
81.794351768028719
 31
0.0
  0
LINE
  5
96DE
  8
0
 10
160.4769905065684
 20
86.604985674287789
 30
0.0
 11
166.75171163446581
 21
84.812208209174258
 31
0.0
  0
LINE
  5
96DF
  8
0
 10
154.4769905065684
 20
89.60498567428786
 30
0.0
 11
159.79321827258519
 21
87.832909752282177
 31
0.0
  0
LINE
  5
96E0
  8
0
 10
147.97699050656831
 20
92.60498567428786
 30
0.0
 11
153.77107635540591
 21
90.822190028491619
 31
0.0
  0
LINE
  5
96E1
  8
0
 10
175.4769905065684
 20
80.82420926788339
 30
0.0
 11
175.4769905065684
 21
80.604985674287818
 31
0.0
  0
LINE
  5
96E2
  8
0
 10
167.47699050656831
 20
83.850684261533445
 30
0.0
 11
167.47699050656831
 21
83.604985674287818
 31
0.0
  0
LINE
  5
96E3
  8
0
 10
160.4769905065684
 20
86.88422645423168
 30
0.0
 11
160.4769905065684
 21
86.604985674287789
 31
0.0
  0
LINE
  5
96E4
  8
0
 10
154.4769905065684
 20
89.866411019769686
 30
0.0
 11
154.4769905065684
 21
89.60498567428786
 31
0.0
  0
LINE
  5
96E5
  8
0
 10
147.97699050656831
 20
92.604985674287789
 30
0.0
 11
147.97699050656831
 21
92.60498567428786
 31
0.0
  0
LINE
  5
96E7
  8
0
 10
146.9769905065684
 20
93.604985674287789
 30
0.0
 11
113.9769905065683
 21
93.604985674287789
 31
0.0
  0
LINE
  5
96E9
  8
0
 10
180.4769905065684
 20
69.604985674287818
 30
0.0
 11
180.4769905065684
 21
78.785181771569228
 31
0.0
  0
LINE
  5
96EA
  8
0
 10
180.4769905065684
 20
69.604985674287775
 30
0.0
 11
80.476990506568342
 21
69.604985674287818
 31
0.0
  0
ARC
  5
9841
  8
0
 10
305.90016140142399
 20
150.41927868972141
 30
0.0
 40
70.557812354586119
 50
261.6748259282478
 51
278.32517408217319
  0
LINE
  5
9842
  8
0
 10
295.68402834087181
 20
80.60498567347426
 30
0.0
 11
295.68402833614277
 21
80.824209268287817
 31
0.0
  0
ARC
  5
9843
  8
0
 10
294.64413029094641
 20
80.792248190397075
 30
0.0
 40
1.0403890795799391
 50
1.7604212350710009
 51
74.40814454203398
  0
POLYLINE
  5
9844
  8
0
 66
     1
 10
0.0
 20
0.0
 30
0.0
 70
   128
  0
VERTEX
  5
9AB4
  8
0
 10
294.92376909108162
 20
81.794351766477689
 30
0.0
  0
VERTEX
  5
9AB5
  8
0
 10
293.7593354951872
 20
82.18818767479037
 30
0.0
  0
VERTEX
  5
9AB6
  8
0
 10
292.9240393644489
 20
82.644851137679694
 30
0.0
  0
VERTEX
  5
9AB7
  8
0
 10
292.5338884855999
 20
83.04449439879626
 30
0.0
  0
VERTEX
  5
9AB8
  8
0
 10
292.40016140261372
 20
83.476652933454986
 30
0.0
  0
SEQEND
  5
9AB9
  8
0
  0
LINE
  5
9845
  8
0
 10
292.40016140261372
 20
83.476652933404552
 30
0.0
 11
292.40016140261372
 21
92.60498567428786
 31
0.0
  0
LINE
  5
9846
  8
0
 10
319.40016140261372
 20
83.476652949110104
 30
0.0
 11
319.40016140261372
 21
92.60498567428786
 31
0.0
  0
POLYLINE
  5
9847
  8
0
 66
     1
 10
0.0
 20
0.0
 30
0.0
 70
   128
  0
VERTEX
  5
9ABA
  8
0
 10
316.87655371356527
 20
81.794351766944729
 30
0.0
  0
VERTEX
  5
9ABB
  8
0
 10
318.04098730901012
 20
82.188187674355774
 30
0.0
  0
VERTEX
  5
9ABC
  8
0
 10
318.87628344010938
 20
82.644851137180069
 30
0.0
  0
VERTEX
  5
9ABD
  8
0
 10
319.26643432886328
 20
83.044494413318347
 30
0.0
  0
VERTEX
  5
9ABE
  8
0
 10
319.40016140261372
 20
83.476652965547075
 30
0.0
  0
SEQEND
  5
9ABF
  8
0
  0
ARC
  5
9848
  8
0
 10
317.15619251447038
 20
80.792248190154055
 30
0.0
 40
1.040389079868304
 50
105.59185554048371
 51
178.2395785873081
  0
LINE
  5
9849
  8
0
 10
316.11629447857172
 20
80.604985674514069
 30
0.0
 11
316.11629447878278
 21
80.824209269782628
 31
0.0
  0
LINE
  5
984A
  8
0
 10
319.40016140261349
 20
83.604985674287818
 30
0.0
 11
342.90016140261389
 21
83.604985674287818
 31
0.0
  0
LINE
  5
984D
  8
0
 10
319.40016140261349
 20
86.604985674287789
 30
0.0
 11
335.90016140261389
 21
86.604985674287789
 31
0.0
  0
LINE
  5
984E
  8
0
 10
292.40016140261372
 20
89.604985674287775
 30
0.0
 11
281.90016140261389
 21
89.604985674287818
 31
0.0
  0
LINE
  5
984F
  8
0
 10
316.11629447711198
 20
80.604985674287818
 30
0.0
 11
350.90016140261389
 21
80.604985674287818
 31
0.0
  0
TEXT
  5
9A97
  8
0
 62
     3
 10
0.0
 20
0.0
 30
0.0
 40
10.0
  1
LVF100L20B-SUS
  7
STANDARD1
  0
ENDSEC
  0
EOF
