  0
SECTION
  2
HEADER
  9
$ACADVER
  1
AC1009
  9
$INSBASE
 10
0.0
 20
0.0
 30
0.0
  9
$EXTMIN
 10
0.0
 20
-2.960436562073669
 30
0.0
  9
$EXTMAX
 10
433.15765648238289
 20
409.28059240216118
 30
0.0
  9
$LIMMIN
 10
0.0
 20
0.0
  9
$LIMMAX
 10
375.0
 20
270.0
  9
$ORTHOMODE
 70
     1
  9
$REGENMODE
 70
     1
  9
$FILLMODE
 70
     1
  9
$QTEXTMODE
 70
     0
  9
$MIRRTEXT
 70
     0
  9
$DRAGMODE
 70
     2
  9
$LTSCALE
 40
10.0
  9
$OSMODE
 70
  3071
  9
$ATTMODE
 70
     1
  9
$TEXTSIZE
 40
0.2
  9
$TRACEWID
 40
0.05
  9
$TEXTSTYLE
  7
STANDARD
  9
$CLAYER
  8
0
  9
$CELTYPE
  6
BYLAYER
  9
$CECOLOR
 62
   256
  9
$DIMSCALE
 40
1.0
  9
$DIMASZ
 40
3.0
  9
$DIMEXO
 40
1.0
  9
$DIMDLI
 40
6.0
  9
$DIMRND
 40
0.0
  9
$DIMDLE
 40
0.0
  9
$DIMEXE
 40
1.0
  9
$DIMTP
 40
495.0
  9
$DIMTM
 40
0.0
  9
$DIMTXT
 40
3.0
  9
$DIMCEN
 40
0.0
  9
$DIMTSZ
 40
0.0
  9
$DIMTOL
 70
     0
  9
$DIMLIM
 70
     0
  9
$DIMTIH
 70
     0
  9
$DIMTOH
 70
     0
  9
$DIMSE1
 70
     0
  9
$DIMSE2
 70
     0
  9
$DIMTAD
 70
     1
  9
$DIMZIN
 70
     0
  9
$DIMBLK
  1

  9
$DIMASO
 70
     0
  9
$DIMSHO
 70
     0
  9
$DIMPOST
  1

  9
$DIMAPOST
  1

  9
$DIMALT
 70
     0
  9
$DIMALTD
 70
     2
  9
$DIMALTF
 40
25.399999999999999
  9
$DIMLFAC
 40
1.0
  9
$DIMTOFL
 70
     1
  9
$DIMTVP
 40
0.0
  9
$DIMTIX
 70
     1
  9
$DIMSOXD
 70
     0
  9
$DIMSAH
 70
     0
  9
$DIMBLK1
  1

  9
$DIMBLK2
  1

  9
$DIMSTYLE
  2
STANDARD
  9
$DIMCLRD
 70
     0
  9
$DIMCLRE
 70
     0
  9
$DIMCLRT
 70
     4
  9
$DIMTFAC
 40
1.0
  9
$DIMGAP
 40
1.0
  9
$LUNITS
 70
     2
  9
$LUPREC
 70
     4
  9
$SKETCHINC
 40
0.1
  9
$FILLETRAD
 40
2.0
  9
$AUNITS
 70
     0
  9
$AUPREC
 70
     0
  9
$MENU
  1
C:\R13\WIN\SUPPORT\ACAD-I
  9
$ELEVATION
 40
0.0
  9
$PELEVATION
 40
0.0
  9
$THICKNESS
 40
0.0
  9
$LIMCHECK
 70
     0
  9
$BLIPMODE
 70
     0
  9
$CHAMFERA
 40
0.0
  9
$CHAMFERB
 40
0.0
  9
$SKPOLY
 70
     0
  9
$TDCREATE
 40
2451963.5415257062
  9
$TDUPDATE
 40
2456597.6173288771
  9
$TDINDWG
 40
0.0790103356
  9
$TDUSRTIMER
 40
2456554.3000281719
  9
$USRTIMER
 70
     1
  9
$ANGBASE
 50
0.0
  9
$ANGDIR
 70
     0
  9
$PDMODE
 70
     0
  9
$PDSIZE
 40
0.0
  9
$PLINEWID
 40
0.0
  9
$COORDS
 70
     1
  9
$SPLFRAME
 70
     0
  9
$SPLINETYPE
 70
     6
  9
$SPLINESEGS
 70
     8
  9
$ATTDIA
 70
     0
  9
$ATTREQ
 70
     1
  9
$HANDLING
 70
     1
  9
$HANDSEED
  5
CFE7
  9
$SURFTAB1
 70
     6
  9
$SURFTAB2
 70
     6
  9
$SURFTYPE
 70
     6
  9
$SURFU
 70
     6
  9
$SURFV
 70
     6
  9
$UCSNAME
  2

  9
$UCSORG
 10
0.0
 20
0.0
 30
0.0
  9
$UCSXDIR
 10
1.0
 20
0.0
 30
0.0
  9
$UCSYDIR
 10
0.0
 20
1.0
 30
0.0
  9
$PUCSNAME
  2

  9
$PUCSORG
 10
0.0
 20
0.0
 30
0.0
  9
$PUCSXDIR
 10
1.0
 20
0.0
 30
0.0
  9
$PUCSYDIR
 10
0.0
 20
1.0
 30
0.0
  9
$USERI1
 70
     4
  9
$USERI2
 70
     1
  9
$USERI3
 70
     0
  9
$USERI4
 70
     0
  9
$USERI5
 70
     0
  9
$USERR1
 40
1.0
  9
$USERR2
 40
3.0
  9
$USERR3
 40
3.0
  9
$USERR4
 40
3.0
  9
$USERR5
 40
10.0
  9
$WORLDVIEW
 70
     1
  9
$SHADEDGE
 70
     3
  9
$SHADEDIF
 70
    70
  9
$TILEMODE
 70
     1
  9
$MAXACTVP
 70
    16
  9
$PLIMCHECK
 70
     0
  9
$PEXTMIN
 10
1.0000000000000000E+020
 20
1.0000000000000000E+020
 30
1.0000000000000000E+020
  9
$PEXTMAX
 10
-1.0000000000000000E+020
 20
-1.0000000000000000E+020
 30
-1.0000000000000000E+020
  9
$PLIMMIN
 10
0.0
 20
0.0
  9
$PLIMMAX
 10
12.0
 20
9.0
  9
$UNITMODE
 70
     0
  9
$VISRETAIN
 70
     0
  9
$PLINEGEN
 70
     0
  9
$PSLTSCALE
 70
     0
  0
ENDSEC
  0
SECTION
  2
TABLES
  0
TABLE
  2
VPORT
 70
     1
  0
VPORT
  2
*ACTIVE
 70
     0
 10
0.0
 20
0.0
 11
1.0
 21
1.0
 12
216.5788292497152
 22
204.04956837474001
 13
0.0
 23
0.0
 14
10.0
 24
10.0
 15
10.0
 25
10.0
 16
0.0
 26
0.0
 36
1.0
 17
0.0
 27
0.0
 37
0.0
 40
418.79574398208922
 41
2.304913294797688
 42
50.0
 43
0.0
 44
0.0
 50
0.0
 51
0.0
 71
    16
 72
   100
 73
     1
 74
     0
 75
     0
 76
     0
 77
     0
 78
     0
  0
ENDTAB
  0
TABLE
  2
LTYPE
 70
     4
  0
LTYPE
  2
CONTINUOUS
 70
     0
  3
Solid Line
 72
    65
 73
     0
 40
0.0
  0
LTYPE
  2
PHANTOM2
 70
     0
  3
___ _ _ ___ _ _ ___ _ _ ___ _ _
 72
    65
 73
     6
 40
1.25
 49
0.625
 49
-0.125
 49
0.125
 49
-0.125
 49
0.125
 49
-0.125
  0
LTYPE
  2
CENTER
 70
     0
  3
____ _ ____ _ ____ _ ____ _ ____ _ ____ _ ____
 72
    65
 73
     4
 40
2.0
 49
1.25
 49
-0.25
 49
0.25
 49
-0.25
  0
LTYPE
  2
HIDDEN
 70
     0
  3
_ _ _ _ _ _ _ _ _ _ _ _ _ _ _ _ _ _ _ _ _ _ _
 72
    65
 73
     2
 40
0.375
 49
0.25
 49
-0.125
  0
ENDTAB
  0
TABLE
  2
LAYER
 70
     5
  0
LAYER
  2
0
 70
     0
 62
     7
  6
CONTINUOUS
  0
LAYER
  2
1
 70
     0
 62
     1
  6
CENTER
  0
LAYER
  2
3
 70
     0
 62
     3
  6
CONTINUOUS
  0
LAYER
  2
2
 70
     0
 62
     2
  6
HIDDEN
  0
LAYER
  2
DEFPOINTS
 70
     0
 62
     7
  6
CONTINUOUS
  0
ENDTAB
  0
TABLE
  2
STYLE
 70
     3
  0
STYLE
  2
STANDARD
 70
     0
 40
0.0
 41
1.0
 50
0.0
 71
     0
 42
0.2
  3
SIMPLEX
  4
BIGFONT
  0
STYLE
  2
ANNOTATIVE
 70
     0
 40
0.0
 41
1.0
 50
0.0
 71
     0
 42
0.2
  3
txt
  4

  0
STYLE
  2
STANDARD1
 70
     0
 40
0.0
 41
1.0
 50
0.0
 71
     0
 42
3.0
  3
txt
  4

  0
ENDTAB
  0
TABLE
  2
VIEW
 70
     0
  0
ENDTAB
  0
TABLE
  2
UCS
 70
     0
  0
ENDTAB
  0
TABLE
  2
APPID
 70
    30
  0
APPID
  2
ACAD
 70
     0
  0
APPID
  2
ACADANNOTATIVE
 70
     0
  0
APPID
  2
GENIUS_GENOREF_13
 70
     0
  0
APPID
  2
GENIUS_GENOENT_13
 70
     0
  0
APPID
  2
GENIUS_GENBH_13
 70
     0
  0
APPID
  2
GENIUS_GENOBJ_13
 70
     0
  0
APPID
  2
GENIUS_GENODEF_13
 70
     0
  0
APPID
  2
GENIUS_GENOLIS_13
 70
     0
  0
APPID
  2
GENIUS_GENOBJ-NBEHI-BHF_13
 70
     0
  0
APPID
  2
GENIUS_GENOBJ-NBEHI-BHB_13
 70
     0
  0
APPID
  2
GENIUS_GENOBJ-F-PART_13
 70
     0
  0
APPID
  2
GENIUS_GEFSTDP_13
 70
     0
  0
APPID
  2
GENIUS_GENOBJ-N-RSSYM_13
 70
     0
  0
APPID
  2
GENIUS_GENSYMENT_13
 70
     0
  0
APPID
  2
GENIUS_GENOBJ-N-TIT_13
 70
     0
  0
APPID
  2
GENIUS_GENTITLE_13
 70
     0
  0
APPID
  2
GENIUS_GENZVEED_13
 70
     0
  0
APPID
  2
GENIUS_GENOBJ-N-LEADER_13
 70
     0
  0
APPID
  2
GENIUS_GENOBJ-N-FIL_13
 70
     0
  0
APPID
  2
GENIUS_GENOBJ-N-SEC_13
 70
     0
  0
APPID
  2
GENIUS_GENOBJ-N-CRS_13
 70
     0
  0
APPID
  2
GENIUS_GENOBJ-N-ZOO_13
 70
     0
  0
APPID
  2
GENIUS_GENZOO_13
 70
     0
  0
APPID
  2
GENIUS_GENOBJ-F-TOL_13
 70
     0
  0
APPID
  2
GENIUS_GENFIL_13
 70
     0
  0
APPID
  2
GENIUS_GENOBJ-N-CHA_13
 70
     0
  0
APPID
  2
_CALL_MAC$
 70
     0
  0
APPID
  2
ACAD_EXEMPT_FROM_CAD_STANDARDS
 70
     0
  0
APPID
  2
ACAD_MLEADERVER
 70
     0
  0
APPID
  2
ACAD_NAV_VCDISPLAY
 70
     0
  0
ENDTAB
  0
TABLE
  2
DIMSTYLE
 70
     2
  0
DIMSTYLE
  2
STANDARD
 70
     0
  3

  4

  5

  6

  7

 40
1.0
 41
0.18
 42
0.0625
 43
0.38
 44
0.18
 45
0.0
 46
0.0
 47
0.0
 48
0.0
140
0.18
141
0.09
142
0.0
143
25.399999999999999
144
1.0
145
0.0
146
1.0
147
0.09
 71
     0
 72
     0
 73
     1
 74
     1
 75
     0
 76
     0
 77
     0
 78
     0
170
     0
171
     2
172
     0
173
     0
174
     0
175
     0
176
     0
177
     0
178
     0
  0
DIMSTYLE
  2
ANNOTATIVE
 70
     0
  3

  4

  5

  6

  7

 40
1.0
 41
0.18
 42
0.0625
 43
0.38
 44
0.18
 45
0.0
 46
0.0
 47
0.0
 48
0.0
140
0.18
141
0.09
142
0.0
143
25.399999999999999
144
1.0
145
0.0
146
1.0
147
0.09
 71
     0
 72
     0
 73
     1
 74
     1
 75
     0
 76
     0
 77
     0
 78
     0
170
     0
171
     2
172
     0
173
     0
174
     0
175
     0
176
     0
177
     0
178
     0
  0
ENDTAB
  0
ENDSEC
  0
SECTION
  2
BLOCKS
  0
BLOCK
  8
0
  2
$MODEL_SPACE
 70
     0
 10
0.0
 20
0.0
 30
0.0
  3
$MODEL_SPACE
  1

  0
ENDBLK
  5
CEFA
  8
0
  0
BLOCK
 67
     1
  8
0
  2
$PAPER_SPACE
 70
     0
 10
0.0
 20
0.0
 30
0.0
  3
$PAPER_SPACE
  1

  0
ENDBLK
  5
CEF6
 67
     1
  8
0
  0
ENDSEC
  0
SECTION
  2
ENTITIES
  0
LINE
  5
C915
  8
0
 10
360.65765648238289
 20
120.9595960242858
 30
0.0
 11
360.65765648238289
 21
156.95959602428809
 31
0.0
  0
LINE
  5
C916
  8
0
 10
380.65765648238289
 20
120.9595960242858
 30
0.0
 11
380.657656482383
 21
156.9595960242884
 31
0.0
  0
LINE
  5
C917
  8
3
 10
379.30465648238282
 20
124.9595960242858
 30
0.0
 11
380.65765648238289
 21
122.6161312816449
 31
0.0
  0
LINE
  5
C918
  8
3
 10
362.01065648238313
 20
124.9595960242858
 30
0.0
 11
360.65765648238289
 21
122.6161312816449
 31
0.0
  0
LINE
  5
C919
  8
0
 10
380.65765648238289
 20
124.9595960242858
 30
0.0
 11
360.65765648238289
 21
124.9595960242858
 31
0.0
  0
LINE
  5
C91A
  8
0
 10
360.65765648238289
 20
213.45959602422741
 30
0.0
 11
380.65765648238289
 21
213.4595960242271
 31
0.0
  0
LINE
  5
C91B
  8
0
 10
378.15765648238289
 20
215.9595960242271
 30
0.0
 11
380.65765648238289
 21
213.4595960242271
 31
0.0
  0
LINE
  5
C91C
  8
0
 10
360.65765648238289
 20
213.45959602422741
 30
0.0
 11
363.15765648238289
 21
215.95959602422741
 31
0.0
  0
LINE
  5
C91D
  8
3
 10
362.01065648238313
 20
124.9595960242858
 30
0.0
 11
362.01065648238313
 21
156.9595960242882
 31
0.0
  0
LINE
  5
C91E
  8
3
 10
379.30465648238282
 20
124.9595960242858
 30
0.0
 11
379.30465648238282
 21
156.9595960242884
 31
0.0
  0
LINE
  5
C91F
  8
0
 10
363.15765648238289
 20
215.95959602422741
 30
0.0
 11
378.15765648238289
 21
215.9595960242271
 31
0.0
  0
LINE
  5
C920
  8
0
 10
380.65765648238289
 20
172.9595960242878
 30
0.0
 11
380.65765648238289
 21
213.4595960242271
 31
0.0
  0
LINE
  5
C921
  8
0
 10
360.65765648238289
 20
172.9595960242882
 30
0.0
 11
360.65765648238289
 21
213.45959602422741
 31
0.0
  0
LINE
  5
C922
  8
3
 10
379.30465648238282
 20
172.9595960242878
 30
0.0
 11
379.30465648238282
 21
214.81259602422719
 31
0.0
  0
LINE
  5
C923
  8
3
 10
362.01065648238313
 20
172.95959602428809
 30
0.0
 11
362.01065648238313
 21
214.8125960242273
 31
0.0
  0
LINE
  5
C924
  8
3
 10
154.5890732978589
 20
172.9595960242882
 30
0.0
 11
154.5890732978589
 21
214.81259602422759
 31
0.0
  0
LINE
  5
C925
  8
3
 10
171.8830732978588
 20
172.959596024288
 30
0.0
 11
171.8830732978588
 21
214.8125960242273
 31
0.0
  0
LINE
  5
C926
  8
0
 10
153.23607329785881
 20
172.95959602428829
 30
0.0
 11
153.23607329785881
 21
213.45959602422749
 31
0.0
  0
LINE
  5
C927
  8
0
 10
173.23607329785881
 20
172.959596024288
 30
0.0
 11
173.23607329785881
 21
213.4595960242273
 31
0.0
  0
LINE
  5
C928
  8
0
 10
148.7360732978585
 20
172.95959602428829
 30
0.0
 11
145.9155652221699
 21
171.33117492753789
 31
0.0
  0
ARC
  5
C929
  8
0
 10
150.24569224109231
 20
165.003452644417
 30
0.0
 40
7.6674682452751766
 50
55.615752531991987
 51
115.61575252954481
  0
ARC
  5
C92A
  8
0
 10
150.24569224109231
 20
165.003452644417
 30
0.0
 40
7.6674682452751766
 50
124.38424746800889
 51
124.38424746800889
  0
ARC
  5
C92B
  8
0
 10
163.23607329793191
 20
144.01066685229961
 30
0.0
 40
28.660254037392811
 50
72.412046225872544
 51
107.5879537744287
  0
ARC
  5
C92C
  8
0
 10
150.24569224109231
 20
164.91573940415941
 30
0.0
 40
7.6674682452751766
 50
235.61575253199109
 51
235.61575253199109
  0
ARC
  5
C92D
  8
0
 10
150.24569224109231
 20
164.91573940415941
 30
0.0
 40
7.6674682452751766
 50
244.38424747045511
 51
304.38424746800808
  0
LINE
  5
C92E
  8
0
 10
148.7360732978585
 20
156.9595960242882
 30
0.0
 11
145.9155652221699
 21
158.5880171210384
 31
0.0
  0
LINE
  5
C92F
  8
0
 10
145.9155652221701
 20
171.33117492753789
 30
0.0
 11
145.91556522188631
 21
158.5880171212022
 31
0.0
  0
LINE
  5
C930
  8
0
 10
154.5758192600143
 20
158.58801712106191
 30
0.0
 11
154.5758192601682
 21
171.33117492753789
 31
0.0
  0
ARC
  5
C931
  8
0
 10
163.23607329793191
 20
185.9085251962768
 30
0.0
 40
28.660254037392811
 50
252.41204622557129
 51
287.58795377412758
  0
LINE
  5
C932
  8
0
 10
171.89632733570269
 20
158.58801712106191
 30
0.0
 11
171.89632733554879
 21
171.33117492753789
 31
0.0
  0
LINE
  5
C933
  8
0
 10
180.55658137354681
 20
171.33117492753789
 30
0.0
 11
180.5565813738306
 21
158.5880171212022
 31
0.0
  0
LINE
  5
C934
  8
0
 10
177.7360732978585
 20
156.9595960242882
 30
0.0
 11
180.55658137354709
 21
158.5880171210384
 31
0.0
  0
ARC
  5
C935
  8
0
 10
176.22645435462471
 20
164.91573940415941
 30
0.0
 40
7.6674682452751766
 50
235.615752531992
 51
295.61575252954481
  0
ARC
  5
C936
  8
0
 10
176.22645435462471
 20
164.91573940415941
 30
0.0
 40
7.6674682452751766
 50
304.38424746800899
 51
304.38424746800899
  0
ARC
  5
C937
  8
0
 10
176.22645435462471
 20
165.003452644417
 30
0.0
 40
7.6674682452751766
 50
55.615752531991092
 51
55.615752531991092
  0
ARC
  5
C938
  8
0
 10
176.22645435462471
 20
165.003452644417
 30
0.0
 40
7.6674682452751766
 50
64.384247470455151
 51
124.384247468008
  0
LINE
  5
C939
  8
0
 10
177.7360732978585
 20
172.95959602428829
 30
0.0
 11
180.55658137354709
 21
171.33117492753789
 31
0.0
  0
LINE
  5
C93A
  8
0
 10
148.7360732978585
 20
172.9595960242884
 30
0.0
 11
177.73607329785921
 21
172.959596024288
 31
0.0
  0
LINE
  5
C93B
  8
0
 10
177.73607329785901
 20
156.9595960242886
 30
0.0
 11
148.7360732978585
 21
156.9595960242882
 31
0.0
  0
ARC
  5
C93C
  8
0
 10
378.15765648238238
 20
178.91092993255279
 30
0.0
 40
21.662658773668529
 50
249.74384199959749
 51
290.25615800040242
  0
LINE
  5
C93D
  8
0
 10
385.1576564823809
 20
156.95959602428891
 30
0.0
 11
385.65765648238232
 21
157.24827115888439
 31
0.0
  0
LINE
  5
C93E
  8
0
 10
385.1576564823809
 20
172.9595960242882
 30
0.0
 11
385.65765648238232
 21
172.6709208896927
 31
0.0
  0
ARC
  5
C93F
  8
0
 10
378.15765648238238
 20
151.0082621160243
 30
0.0
 40
21.662658773668529
 50
69.743841999597592
 51
110.25615800040239
  0
LINE
  5
C940
  8
0
 10
385.65765648238249
 20
157.24827115888439
 30
0.0
 11
385.65765648238232
 21
172.6709208896927
 31
0.0
  0
LINE
  5
C941
  8
0
 10
355.65765648238238
 20
157.24827115888439
 30
0.0
 11
355.65765648238272
 21
172.6709208896927
 31
0.0
  0
ARC
  5
C942
  8
0
 10
363.15765648238238
 20
151.0082621160243
 30
0.0
 40
21.662658773668529
 50
69.743841999597592
 51
110.25615800040239
  0
LINE
  5
C943
  8
0
 10
356.15765648238403
 20
172.9595960242882
 30
0.0
 11
355.65765648238272
 21
172.6709208896927
 31
0.0
  0
LINE
  5
C944
  8
0
 10
356.15765648238403
 20
156.95959602428891
 30
0.0
 11
355.65765648238272
 21
157.24827115888439
 31
0.0
  0
ARC
  5
C945
  8
0
 10
363.15765648238238
 20
178.91092993255279
 30
0.0
 40
21.662658773668529
 50
249.74384199959749
 51
290.25615800040242
  0
LINE
  5
C946
  8
0
 10
356.15765648238403
 20
156.95959602428869
 30
0.0
 11
385.1576564823809
 21
156.95959602428869
 31
0.0
  0
LINE
  5
C947
  8
0
 10
385.15765648238238
 20
172.9595960242882
 30
0.0
 11
356.15765648238403
 21
172.9595960242882
 31
0.0
  0
LINE
  5
C948
  8
0
 10
370.65765648238238
 20
158.58801712103889
 30
0.0
 11
370.65765648238238
 21
171.3311749275428
 31
0.0
  0
LINE
  5
C949
  8
0
 10
155.73607329785889
 20
215.95959602422749
 30
0.0
 11
170.73607329785881
 21
215.9595960242273
 31
0.0
  0
LINE
  5
C94A
  8
0
 10
173.23607329785881
 20
120.9595960242859
 30
0.0
 11
173.23607329785889
 21
156.9595960242886
 31
0.0
  0
LINE
  5
C94B
  8
3
 10
171.8830732978588
 20
124.9595960242859
 30
0.0
 11
171.8830732978588
 21
156.9595960242884
 31
0.0
  0
LINE
  5
C94C
  8
3
 10
154.5890732978589
 20
124.9595960242859
 30
0.0
 11
154.5890732978589
 21
156.9595960242882
 31
0.0
  0
LINE
  5
C94D
  8
0
 10
153.23607329785881
 20
120.9595960242859
 30
0.0
 11
153.23607329785881
 21
156.9595960242882
 31
0.0
  0
LINE
  5
C94E
  8
0
 10
153.23607329785881
 20
213.45959602422749
 30
0.0
 11
155.73607329785889
 21
215.95959602422749
 31
0.0
  0
LINE
  5
C94F
  8
0
 10
170.73607329785881
 20
215.9595960242273
 30
0.0
 11
173.23607329785881
 21
213.4595960242273
 31
0.0
  0
LINE
  5
C950
  8
0
 10
153.23607329785881
 20
213.45959602422749
 30
0.0
 11
173.23607329785881
 21
213.4595960242273
 31
0.0
  0
LINE
  5
C951
  8
0
 10
173.23607329785881
 20
124.9595960242859
 30
0.0
 11
153.23607329785881
 21
124.9595960242859
 31
0.0
  0
LINE
  5
C952
  8
3
 10
154.5890732978589
 20
124.9595960242859
 30
0.0
 11
153.23607329785881
 21
122.616131281645
 31
0.0
  0
LINE
  5
C953
  8
3
 10
171.8830732978588
 20
124.9595960242859
 30
0.0
 11
173.23607329785881
 21
122.616131281645
 31
0.0
  0
LINE
  5
C963
  8
0
 10
225.73607329785889
 20
65.959596024227494
 30
0.0
 11
100.73607329785899
 21
65.959596024227537
 31
0.0
  0
LINE
  5
C964
  8
0
 10
225.73607329785901
 20
65.959596024227494
 30
0.0
 11
225.73607329785901
 21
81.078802113272616
 31
0.0
  0
LINE
  5
C966
  8
0
 10
184.23607329785901
 20
110.95959602422749
 30
0.0
 11
142.23607329785901
 21
110.95959602422749
 31
0.0
  0
LINE
  5
C967
  8
0
 10
184.23607329785901
 20
110.95959602422749
 30
0.0
 11
198.23607329785881
 21
88.959596024227466
 31
0.0
  0
LINE
  5
C968
  8
0
 10
198.23607329785881
 20
88.959596024227466
 30
0.0
 11
203.9827525784938
 21
87.496804934611305
 31
0.0
  0
LINE
  5
C969
  8
0
 10
218.73607329785889
 20
82.850505115136585
 30
0.0
 11
218.73607329785889
 21
82.860620295090868
 31
0.0
  0
LINE
  5
C96A
  8
0
 10
211.73607329785889
 20
84.632323296954752
 30
0.0
 11
211.73607329785889
 21
84.642438476909007
 31
0.0
  0
LINE
  5
C96B
  8
0
 10
204.73607329785889
 20
86.414141478772947
 30
0.0
 11
204.73607329785889
 21
86.527707760688386
 31
0.0
  0
LINE
  5
C96C
  8
0
 10
224.86232757753291
 20
82.070800024996217
 30
0.0
 11
218.73607329785889
 21
82.850505115136585
 31
0.0
  0
LINE
  5
C96D
  8
0
 10
217.8623275775328
 20
83.852618206814441
 30
0.0
 11
211.73607329785889
 21
84.632323296954752
 31
0.0
  0
LINE
  5
C96E
  8
0
 10
210.8623275775328
 20
85.634436388632665
 30
0.0
 11
204.73607329785889
 21
86.414141478772947
 31
0.0
  0
ARC
  5
C96F
  8
0
 10
203.73607329785881
 20
86.527707760688386
 30
0.0
 40
1.0
 50
0.0
 51
75.718904264029092
  0
ARC
  5
C970
  8
0
 10
210.73607329785889
 20
84.642438476909007
 30
0.0
 40
1.0
 50
0.0
 51
82.746805387274705
  0
ARC
  5
C971
  8
0
 10
217.73607329785889
 20
82.860620295090797
 30
0.0
 40
1.0
 50
0.000000000001832
 51
82.746805387274634
  0
ARC
  5
C972
  8
0
 10
224.73607329785901
 20
81.078802113272616
 30
0.0
 40
1.0
 50
359.9999999999996
 51
82.746805387274634
  0
LINE
  5
C973
  8
0
 10
218.73607329785889
 20
82.850505115136585
 30
0.0
 11
107.7360732978599
 21
82.85050511513667
 31
0.0
  0
LINE
  5
C974
  8
0
 10
211.73607329785889
 20
84.632323296954752
 30
0.0
 11
114.7360732978597
 21
84.632323296954837
 31
0.0
  0
LINE
  5
C975
  8
0
 10
204.73607329785889
 20
86.414141478772947
 30
0.0
 11
121.7360732978596
 21
86.414141478773047
 31
0.0
  0
LINE
  5
C976
  8
0
 10
198.23607329785881
 20
88.959596024227466
 30
0.0
 11
128.23607329785921
 21
88.959596024227537
 31
0.0
  0
ARC
  5
C977
  8
0
 10
101.73607329785879
 20
81.078802113272616
 30
0.0
 40
1.0
 50
97.253194612725352
 51
180.00000000000051
  0
ARC
  5
C978
  8
0
 10
108.73607329785899
 20
82.860620295090797
 30
0.0
 40
1.0
 50
97.253194612725352
 51
179.99999999999821
  0
ARC
  5
C979
  8
0
 10
115.73607329785879
 20
84.642438476909007
 30
0.0
 40
1.0
 50
97.253194612725281
 51
180.0
  0
ARC
  5
C97A
  8
0
 10
122.73607329785899
 20
86.527707760688386
 30
0.0
 40
1.0
 50
104.28109573597089
 51
180.0
  0
LINE
  5
C97B
  8
0
 10
115.60981901818499
 20
85.634436388632665
 30
0.0
 11
121.73607329785899
 21
86.414141478772947
 31
0.0
  0
LINE
  5
C97C
  8
0
 10
108.60981901818499
 20
83.852618206814441
 30
0.0
 11
114.73607329785879
 21
84.632323296954752
 31
0.0
  0
LINE
  5
C97D
  8
0
 10
101.60981901818479
 20
82.070800024996217
 30
0.0
 11
107.73607329785899
 21
82.850505115136585
 31
0.0
  0
LINE
  5
C97E
  8
0
 10
121.73607329785899
 20
86.414141478772947
 30
0.0
 11
121.73607329785899
 21
86.527707760688386
 31
0.0
  0
LINE
  5
C97F
  8
0
 10
114.73607329785879
 20
84.632323296954752
 30
0.0
 11
114.73607329785879
 21
84.642438476909007
 31
0.0
  0
LINE
  5
C980
  8
0
 10
107.73607329785899
 20
82.850505115136585
 30
0.0
 11
107.73607329785899
 21
82.860620295090868
 31
0.0
  0
LINE
  5
C981
  8
0
 10
128.23607329785881
 20
88.959596024227466
 30
0.0
 11
122.489394017224
 21
87.496804934611305
 31
0.0
  0
LINE
  5
C982
  8
0
 10
142.23607329785901
 20
110.95959602422749
 30
0.0
 11
128.23607329785881
 21
88.959596024227466
 31
0.0
  0
LINE
  5
C983
  8
0
 10
100.73607329785899
 20
65.959596024227537
 30
0.0
 11
100.73607329785879
 21
81.078802113272616
 31
0.0
  0
CIRCLE
  5
C984
  8
0
 10
163.23607329785901
 20
336.7805924021614
 30
0.0
 40
62.499999999999929
  0
ARC
  5
C985
  8
0
 10
163.23607329785901
 20
336.7805924021614
 30
0.0
 40
55.499999999999503
 50
11.453741223643069
 51
168.54625877635681
  0
ARC
  5
C986
  8
0
 10
163.23607329785901
 20
336.7805924021614
 30
0.0
 40
48.499999999999901
 50
15.547742233147421
 51
164.4522577668526
  0
ARC
  5
C987
  8
0
 10
163.23607329785901
 20
336.7805924021614
 30
0.0
 40
41.499999999999901
 50
18.255381895565911
 51
161.7446181044341
  0
CIRCLE
  5
C988
  8
0
 10
163.23607329785901
 20
336.7805924021614
 30
0.0
 40
34.999999999999829
  0
CIRCLE
  5
C989
  8
0
 10
163.23607329785901
 20
336.7805924021614
 30
0.0
 40
20.999999999999879
  0
LINE
  5
C98A
  8
1
 10
163.23607329785901
 20
409.28059240216118
 30
0.0
 11
163.23607329785901
 21
264.28059240216152
 31
0.0
  0
LINE
  5
C98B
  8
1
 10
235.73607329785889
 20
336.7805924021614
 30
0.0
 11
90.736073297858994
 21
336.7805924021614
 31
0.0
  0
LINE
  5
C990
  8
0
 10
151.73607329782581
 20
120.95959602424669
 30
0.0
 11
174.7360732978922
 21
120.9595960242851
 31
0.0
  0
ARC
  5
C991
  8
0
 10
157.23607329789209
 20
103.3407938723484
 30
0.0
 40
17.330127017333279
 50
69.74384199763557
 51
110.2561580023644
  0
LINE
  5
C992
  8
0
 10
151.2360732978772
 20
120.6709208896817
 30
0.0
 11
151.7360732978922
 21
120.9595960242851
 31
0.0
  0
LINE
  5
C993
  8
0
 10
151.2360732978772
 20
111.2482711588117
 30
0.0
 11
151.7360732978922
 21
110.9595960242083
 31
0.0
  0
ARC
  5
C994
  8
0
 10
157.23607329789209
 20
128.57839817614499
 30
0.0
 40
17.330127017333279
 50
249.7438419976356
 51
290.25615800236437
  0
LINE
  5
C995
  8
0
 10
151.2360732978772
 20
120.6709208896817
 30
0.0
 11
151.23607329789209
 21
111.24827115880301
 31
0.0
  0
LINE
  5
C996
  8
0
 10
163.2360732978922
 20
112.3200679286409
 30
0.0
 11
163.2360732978922
 21
119.5991241198525
 31
0.0
  0
LINE
  5
C997
  8
0
 10
175.23607329790721
 20
120.6709208896817
 30
0.0
 11
175.23607329789209
 21
111.24827115880301
 31
0.0
  0
ARC
  5
C998
  8
0
 10
169.2360732978922
 20
128.57839817614499
 30
0.0
 40
17.330127017333279
 50
249.7438419976356
 51
290.25615800236437
  0
LINE
  5
C999
  8
0
 10
175.23607329790721
 20
111.2482711588117
 30
0.0
 11
174.7360732978922
 21
110.9595960242083
 31
0.0
  0
LINE
  5
C99A
  8
0
 10
175.23607329790721
 20
120.6709208896817
 30
0.0
 11
174.7360732978922
 21
120.9595960242851
 31
0.0
  0
ARC
  5
C99B
  8
0
 10
169.2360732978922
 20
103.3407938723484
 30
0.0
 40
17.330127017333279
 50
69.74384199763557
 51
110.2561580023644
  0
LINE
  5
C99F
  8
0
 10
308.157656482383
 20
65.959596024227537
 30
0.0
 11
308.15765648238289
 21
81.078802113272616
 31
0.0
  0
LINE
  5
C9A0
  8
0
 10
349.657656482383
 20
110.95959602422749
 30
0.0
 11
335.657656482383
 21
88.959596024227466
 31
0.0
  0
LINE
  5
C9A1
  8
0
 10
335.657656482383
 20
88.959596024227466
 30
0.0
 11
329.9109772017481
 21
87.496804934611305
 31
0.0
  0
LINE
  5
C9A2
  8
0
 10
315.157656482383
 20
82.850505115136585
 30
0.0
 11
315.157656482383
 21
82.860620295090868
 31
0.0
  0
LINE
  5
C9A3
  8
0
 10
322.157656482383
 20
84.632323296954752
 30
0.0
 11
322.157656482383
 21
84.642438476909007
 31
0.0
  0
LINE
  5
C9A4
  8
0
 10
329.157656482383
 20
86.414141478772947
 30
0.0
 11
329.157656482383
 21
86.527707760688386
 31
0.0
  0
LINE
  5
C9A5
  8
0
 10
309.03140220270888
 20
82.070800024996217
 30
0.0
 11
315.157656482383
 21
82.850505115136585
 31
0.0
  0
LINE
  5
C9A6
  8
0
 10
316.03140220270888
 20
83.852618206814441
 30
0.0
 11
322.157656482383
 21
84.632323296954752
 31
0.0
  0
LINE
  5
C9A7
  8
0
 10
323.0314022027091
 20
85.634436388632665
 30
0.0
 11
329.157656482383
 21
86.414141478772947
 31
0.0
  0
ARC
  5
C9A8
  8
0
 10
330.157656482383
 20
86.527707760688386
 30
0.0
 40
1.0
 50
104.28109573597089
 51
180.0
  0
ARC
  5
C9A9
  8
0
 10
323.157656482383
 20
84.642438476909007
 30
0.0
 40
1.0
 50
97.253194612725281
 51
180.0
  0
ARC
  5
C9AA
  8
0
 10
316.157656482383
 20
82.860620295090797
 30
0.0
 40
1.0
 50
97.253194612725352
 51
179.99999999999821
  0
ARC
  5
C9AB
  8
0
 10
309.15765648238289
 20
81.078802113272616
 30
0.0
 40
1.0
 50
97.253194612725352
 51
180.00000000000051
  0
LINE
  5
C9AC
  8
0
 10
405.65765648238289
 20
88.959596024227466
 30
0.0
 11
383.65765648238289
 21
88.959596024227523
 31
0.0
  0
LINE
  5
C9AD
  8
0
 10
412.15765648238278
 20
86.414141478772947
 30
0.0
 11
383.65765648238289
 21
86.41414147877299
 31
0.0
  0
LINE
  5
C9AE
  8
0
 10
419.15765648238289
 20
84.632323296954752
 30
0.0
 11
383.65765648238289
 21
84.632323296954809
 31
0.0
  0
LINE
  5
C9AF
  8
0
 10
426.15765648238289
 20
82.850505115136585
 30
0.0
 11
381.67856277694671
 21
82.850505115136585
 31
0.0
  0
ARC
  5
C9B0
  8
0
 10
432.15765648238278
 20
81.078802113272616
 30
0.0
 40
1.0
 50
359.9999999999996
 51
82.746805387274634
  0
ARC
  5
C9B1
  8
0
 10
425.15765648238278
 20
82.860620295090797
 30
0.0
 40
1.0
 50
0.000000000001832
 51
82.746805387274634
  0
ARC
  5
C9B2
  8
0
 10
418.15765648238289
 20
84.642438476909007
 30
0.0
 40
1.0
 50
0.0
 51
82.746805387274705
  0
ARC
  5
C9B3
  8
0
 10
411.15765648238278
 20
86.527707760688386
 30
0.0
 40
1.0
 50
0.0
 51
75.718904264029092
  0
LINE
  5
C9B4
  8
0
 10
418.28391076205668
 20
85.634436388632665
 30
0.0
 11
412.15765648238278
 21
86.414141478772947
 31
0.0
  0
LINE
  5
C9B5
  8
0
 10
425.28391076205679
 20
83.852618206814441
 30
0.0
 11
419.15765648238289
 21
84.632323296954752
 31
0.0
  0
LINE
  5
C9B6
  8
0
 10
432.28391076205691
 20
82.070800024996217
 30
0.0
 11
426.15765648238289
 21
82.850505115136585
 31
0.0
  0
LINE
  5
C9B7
  8
0
 10
412.15765648238278
 20
86.414141478772947
 30
0.0
 11
412.15765648238278
 21
86.527707760688386
 31
0.0
  0
LINE
  5
C9B8
  8
0
 10
419.15765648238289
 20
84.632323296954752
 30
0.0
 11
419.15765648238289
 21
84.642438476909007
 31
0.0
  0
LINE
  5
C9B9
  8
0
 10
426.15765648238289
 20
82.850505115136585
 30
0.0
 11
426.15765648238289
 21
82.860620295090868
 31
0.0
  0
LINE
  5
C9BA
  8
0
 10
405.65765648238289
 20
88.959596024227466
 30
0.0
 11
411.4043357630178
 21
87.496804934611305
 31
0.0
  0
LINE
  5
C9BB
  8
0
 10
391.65765648238289
 20
110.95959602422749
 30
0.0
 11
405.65765648238289
 21
88.959596024227466
 31
0.0
  0
LINE
  5
C9BC
  8
0
 10
391.65765648238289
 20
110.95959602422749
 30
0.0
 11
349.657656482383
 21
110.95959602422749
 31
0.0
  0
LINE
  5
C9BD
  8
0
 10
433.15765648238289
 20
65.959596024227494
 30
0.0
 11
433.15765648238289
 21
81.078802113272616
 31
0.0
  0
LINE
  5
C9BE
  8
0
 10
433.15765648238278
 20
65.959596024227494
 30
0.0
 11
308.157656482383
 21
65.959596024227537
 31
0.0
  0
LINE
  5
C9C0
  8
0
 10
359.15765648243678
 20
120.95959602422749
 30
0.0
 11
382.15765648232912
 21
120.95959602422749
 31
0.0
  0
ARC
  5
C9C1
  8
0
 10
381.04996132785033
 20
114.5369462939418
 30
0.0
 40
6.1339745957208196
 50
64.384247469842208
 51
124.3842474712046
  0
LINE
  5
C9C2
  8
0
 10
384.51406294300978
 20
119.59912411983331
 30
0.0
 11
382.15765648232912
 21
120.95959602422749
 31
0.0
  0
LINE
  5
C9C3
  8
0
 10
384.51406294300978
 20
112.3200679286217
 30
0.0
 11
382.15765648232912
 21
110.95959602422749
 31
0.0
  0
ARC
  5
C9C4
  8
0
 10
381.04996132785033
 20
117.38224575451309
 30
0.0
 40
6.1339745957208196
 50
235.6157525287957
 51
295.61575253015798
  0
LINE
  5
C9C5
  8
0
 10
384.51406294298812
 20
119.59912411983331
 30
0.0
 11
384.51406294298812
 21
112.32006792860901
 31
0.0
  0
LINE
  5
C9C6
  8
0
 10
377.58585971271219
 20
119.59912411983331
 30
0.0
 11
377.58585971271219
 21
112.3200679286217
 31
0.0
  0
LINE
  5
C9C7
  8
0
 10
363.72945325216148
 20
119.59912411983331
 30
0.0
 11
363.72945325216148
 21
112.3200679286217
 31
0.0
  0
LINE
  5
C9C8
  8
0
 10
356.80125002188561
 20
119.59912411983331
 30
0.0
 11
356.80125002188561
 21
112.32006792860901
 31
0.0
  0
ARC
  5
C9C9
  8
0
 10
370.65765648243678
 20
134.17647438693189
 30
0.0
 40
22.928203228139491
 50
252.41204622431439
 51
287.58795377568561
  0
ARC
  5
C9CA
  8
0
 10
360.26535163702317
 20
117.38224575451309
 30
0.0
 40
6.1339745957208196
 50
244.38424746984199
 51
304.38424747120439
  0
LINE
  5
C9CB
  8
0
 10
356.80125002186378
 20
112.3200679286217
 30
0.0
 11
359.15765648254461
 21
110.95959602422749
 31
0.0
  0
LINE
  5
C9CC
  8
0
 10
356.80125002186378
 20
119.59912411983331
 30
0.0
 11
359.15765648254461
 21
120.95959602422749
 31
0.0
  0
ARC
  5
C9CD
  8
0
 10
360.26535163702317
 20
114.5369462939418
 30
0.0
 40
6.1339745957208196
 50
55.61575252879544
 51
115.61575253015781
  0
ARC
  5
C9CE
  8
0
 10
370.65765648243678
 20
97.742717661523145
 30
0.0
 40
22.928203228139491
 50
72.412046224314381
 51
107.58795377568561
  0
LINE
  5
C9CF
  8
0
 10
145.9155652362742
 20
336.78059240216379
 30
0.0
 11
154.57581927411491
 21
351.78059240216368
 31
0.0
  0
LINE
  5
C9D0
  8
0
 10
154.5758192670603
 20
321.78059241437518
 30
0.0
 11
145.91556522921351
 21
336.78059241437518
 31
0.0
  0
LINE
  5
C9D1
  8
0
 10
171.89632732864769
 20
321.78059241437518
 30
0.0
 11
154.57581925296009
 21
321.78059241437518
 31
0.0
  0
LINE
  5
C9D2
  8
0
 10
180.55658135944299
 20
336.78059240216379
 30
0.0
 11
171.8963273216022
 21
321.78059240216368
 31
0.0
  0
LINE
  5
C9D3
  8
0
 10
171.89632732865681
 20
351.78059238994013
 30
0.0
 11
180.55658136650371
 21
336.78059238995218
 31
0.0
  0
LINE
  5
C9D4
  8
0
 10
154.57581926705879
 20
351.78059238995218
 30
0.0
 11
171.89632734274639
 21
351.78059238995218
 31
0.0
  0
CIRCLE
  5
C9D5
  8
0
 10
163.23607329785901
 20
336.7805924021614
 30
0.0
 40
14.16666666666667
  0
LINE
  5
C9D8
  8
0
 10
223.73607329785881
 20
88.959596024227466
 30
0.0
 11
198.2360732978587
 21
88.959596024227537
 31
0.0
  0
LINE
  5
C9D9
  8
0
 10
223.73607329785881
 20
82.21414147877293
 30
0.0
 11
223.73607329785881
 21
88.959596024227466
 31
0.0
  0
LINE
  5
C9DA
  8
0
 10
102.73607329785899
 20
88.959596024227466
 30
0.0
 11
128.23607329785901
 21
88.959596024227537
 31
0.0
  0
LINE
  5
C9DB
  8
0
 10
102.73607329785899
 20
82.21414147877293
 30
0.0
 11
102.73607329785899
 21
88.959596024227466
 31
0.0
  0
LINE
  5
C9DC
  8
1
 10
210.73607329785881
 20
94.188955636663763
 30
0.0
 11
210.73607329785881
 21
60.959596024227501
 31
0.0
  0
LINE
  5
C9DD
  8
1
 10
115.73607329785921
 20
94.188955636663763
 30
0.0
 11
115.73607329785921
 21
60.959596024227537
 31
0.0
  0
LINE
  5
C9E4
  8
0
 10
210.73607329785889
 20
349.78059240216152
 30
0.0
 11
195.7322269164026
 21
349.78059240216152
 31
0.0
  0
LINE
  5
C9E5
  8
0
 10
210.73607329785889
 20
323.78059240216152
 30
0.0
 11
195.7322269164026
 21
323.7805924021614
 31
0.0
  0
ARC
  5
C9E6
  8
0
 10
210.73607329785889
 20
336.7805924021614
 30
0.0
 40
12.99999999999997
 50
270.0
 51
90.0
  0
ARC
  5
C9E7
  8
0
 10
115.73607329785879
 20
336.7805924021614
 30
0.0
 40
12.99999999999997
 50
90.0
 51
270.0
  0
CIRCLE
  5
C9E8
  8
2
 10
210.73607329785901
 20
336.7805924021614
 30
0.0
 40
6.25
  0
LINE
  5
C9E9
  8
1
 10
210.73607329785901
 20
348.03059240216152
 30
0.0
 11
210.73607329785901
 21
325.53059240216152
 31
0.0
  0
CIRCLE
  5
C9EA
  8
2
 10
115.73607329785879
 20
336.7805924021614
 30
0.0
 40
6.25
  0
LINE
  5
C9EB
  8
1
 10
115.73607329785879
 20
348.03059240216152
 30
0.0
 11
115.73607329785879
 21
325.53059240216152
 31
0.0
  0
LINE
  5
C9EC
  8
0
 10
130.73991967931531
 20
323.7805924021614
 30
0.0
 11
115.73607329785879
 21
323.78059240216152
 31
0.0
  0
LINE
  5
C9ED
  8
0
 10
130.73991967931531
 20
349.78059240216129
 30
0.0
 11
115.73607329785879
 21
349.78059240216129
 31
0.0
  0
ARC
  5
C9EE
  8
0
 10
163.23607329785901
 20
336.7805924021614
 30
0.0
 40
55.499999999999503
 50
191.45374122364311
 51
348.54625877635681
  0
ARC
  5
C9EF
  8
0
 10
163.23607329785901
 20
336.7805924021614
 30
0.0
 40
41.499999999999901
 50
198.2553818955659
 51
341.74461810443398
  0
ARC
  5
C9F0
  8
0
 10
163.23607329785901
 20
336.7805924021614
 30
0.0
 40
48.499999999999901
 50
195.54774223314749
 51
344.45225776685248
  0
LINE
  5
C9F1
  8
1
 10
163.23607329785889
 20
225.95959602422749
 30
0.0
 11
163.23607329785889
 21
55.959596024227487
 31
0.0
  0
LINE
  5
C9F2
  8
1
 10
370.657656482383
 20
225.95959602422511
 30
0.0
 11
370.65765648238289
 21
55.959596024227487
 31
0.0
  0
CIRCLE
  5
CAE2
  8
3
 10
163.23607329785889
 20
336.7805924021614
 30
0.0
 40
8.6469999999998777
  0
CIRCLE
  5
CAE3
  8
0
 10
163.23607329785889
 20
336.7805924021614
 30
0.0
 40
9.9999999999999432
  0
ARC
  5
CD2C
  8
0
 10
370.65765648331381
 20
172.1989694483309
 30
0.0
 40
90.025598882946184
 50
262.96800700517838
 51
277.03199299072628
  0
ARC
  5
CD2D
  8
0
 10
358.68196280062961
 20
82.970376617061021
 30
0.0
 40
0.9615654688432545
 50
353.14234411221253
 51
66.564082695056626
  0
POLYLINE
  5
CD2E
  8
0
 66
     1
 10
0.0
 20
0.0
 30
0.0
 70
   128
  0
VERTEX
  5
CF9D
  8
0
 10
359.06439962879489
 20
83.852618207182886
 30
0.0
  0
VERTEX
  5
CF9E
  8
0
 10
358.24708316545002
 20
84.078943470691314
 30
0.0
  0
VERTEX
  5
CF9F
  8
0
 10
357.76795297163312
 20
84.333154979701249
 30
0.0
  0
VERTEX
  5
CFA0
  8
0
 10
357.65765648238272
 20
84.537272548453956
 30
0.0
  0
SEQEND
  5
CFA1
  8
0
  0
LINE
  5
CD2F
  8
0
 10
357.65765648238272
 20
84.537272548676995
 30
0.0
 11
357.65765648238272
 21
88.959596024227579
 31
0.0
  0
LINE
  5
CD30
  8
0
 10
383.65765648238289
 20
88.959596024227579
 30
0.0
 11
357.65765648238272
 21
88.959596024227579
 31
0.0
  0
LINE
  5
CD31
  8
0
 10
383.65765648238289
 20
84.537272561561124
 30
0.0
 11
383.65765648238289
 21
88.959596024227579
 31
0.0
  0
POLYLINE
  5
CD32
  8
0
 66
     1
 10
0.0
 20
0.0
 30
0.0
 70
   128
  0
VERTEX
  5
CFA2
  8
0
 10
382.25091333607162
 20
83.852618207358944
 30
0.0
  0
VERTEX
  5
CFA3
  8
0
 10
383.06822979933321
 20
84.078943470697894
 30
0.0
  0
VERTEX
  5
CFA4
  8
0
 10
383.54735999317268
 20
84.333154979738111
 30
0.0
  0
VERTEX
  5
CFA5
  8
0
 10
383.65765648238289
 20
84.53727257459505
 30
0.0
  0
SEQEND
  5
CFA6
  8
0
  0
ARC
  5
CD33
  8
0
 10
382.63335016410912
 20
82.970376617134804
 30
0.0
 40
0.9615654687801043
 50
113.43591730986979
 51
186.85765586972661
  0
LINE
  5
CD34
  8
0
 10
357.65765648238272
 20
88.959596024227523
 30
0.0
 11
335.65765648238329
 21
88.959596024227537
 31
0.0
  0
LINE
  5
CD35
  8
0
 10
357.65765648238272
 20
84.632323296954809
 30
0.0
 11
322.1576564823838
 21
84.632323296954837
 31
0.0
  0
LINE
  5
CD36
  8
0
 10
357.65765648238272
 20
86.414141478773018
 30
0.0
 11
329.15765648238369
 21
86.414141478773047
 31
0.0
  0
LINE
  5
CD37
  8
0
 10
359.63675018968058
 20
82.850505115136627
 30
0.0
 11
315.15765648238391
 21
82.85050511513667
 31
0.0
  0
TEXT
  5
CF80
  8
0
 62
     3
 10
0.0
 20
0.0
 30
0.0
 40
10.0
  1
LVF125C20A
  7
STANDARD1
  0
ENDSEC
  0
EOF
