  0
SECTION
  2
HEADER
  9
$ACADVER
  1
AC1009
  9
$INSBASE
 10
0.0
 20
0.0
 30
0.0
  9
$EXTMIN
 10
0.0
 20
-2.960436562073669
 30
0.0
  9
$EXTMAX
 10
369.65800302082789
 20
418.6005024968515
 30
0.0
  9
$LIMMIN
 10
0.0
 20
0.0
  9
$LIMMAX
 10
375.0
 20
270.0
  9
$ORTHOMODE
 70
     1
  9
$REGENMODE
 70
     1
  9
$FILLMODE
 70
     1
  9
$QTEXTMODE
 70
     0
  9
$MIRRTEXT
 70
     0
  9
$DRAGMODE
 70
     2
  9
$LTSCALE
 40
10.0
  9
$OSMODE
 70
  3071
  9
$ATTMODE
 70
     1
  9
$TEXTSIZE
 40
0.2
  9
$TRACEWID
 40
0.05
  9
$TEXTSTYLE
  7
STANDARD
  9
$CLAYER
  8
0
  9
$CELTYPE
  6
BYLAYER
  9
$CECOLOR
 62
   256
  9
$DIMSCALE
 40
1.0
  9
$DIMASZ
 40
3.0
  9
$DIMEXO
 40
1.0
  9
$DIMDLI
 40
6.0
  9
$DIMRND
 40
0.0
  9
$DIMDLE
 40
0.0
  9
$DIMEXE
 40
1.0
  9
$DIMTP
 40
495.0
  9
$DIMTM
 40
0.0
  9
$DIMTXT
 40
3.0
  9
$DIMCEN
 40
0.0
  9
$DIMTSZ
 40
0.0
  9
$DIMTOL
 70
     0
  9
$DIMLIM
 70
     0
  9
$DIMTIH
 70
     0
  9
$DIMTOH
 70
     0
  9
$DIMSE1
 70
     0
  9
$DIMSE2
 70
     0
  9
$DIMTAD
 70
     1
  9
$DIMZIN
 70
     0
  9
$DIMBLK
  1

  9
$DIMASO
 70
     0
  9
$DIMSHO
 70
     0
  9
$DIMPOST
  1

  9
$DIMAPOST
  1

  9
$DIMALT
 70
     0
  9
$DIMALTD
 70
     2
  9
$DIMALTF
 40
25.399999999999999
  9
$DIMLFAC
 40
1.0
  9
$DIMTOFL
 70
     1
  9
$DIMTVP
 40
0.0
  9
$DIMTIX
 70
     1
  9
$DIMSOXD
 70
     0
  9
$DIMSAH
 70
     0
  9
$DIMBLK1
  1

  9
$DIMBLK2
  1

  9
$DIMSTYLE
  2
STANDARD
  9
$DIMCLRD
 70
     0
  9
$DIMCLRE
 70
     0
  9
$DIMCLRT
 70
     4
  9
$DIMTFAC
 40
1.0
  9
$DIMGAP
 40
1.0
  9
$LUNITS
 70
     2
  9
$LUPREC
 70
     4
  9
$SKETCHINC
 40
0.1
  9
$FILLETRAD
 40
2.0
  9
$AUNITS
 70
     0
  9
$AUPREC
 70
     0
  9
$MENU
  1
C:\R13\WIN\SUPPORT\ACAD-I
  9
$ELEVATION
 40
0.0
  9
$PELEVATION
 40
0.0
  9
$THICKNESS
 40
0.0
  9
$LIMCHECK
 70
     0
  9
$BLIPMODE
 70
     0
  9
$CHAMFERA
 40
0.0
  9
$CHAMFERB
 40
0.0
  9
$SKPOLY
 70
     0
  9
$TDCREATE
 40
2451963.4668357749
  9
$TDUPDATE
 40
2456597.6173657179
  9
$TDINDWG
 40
0.0264041782
  9
$TDUSRTIMER
 40
2456553.3132707868
  9
$USRTIMER
 70
     1
  9
$ANGBASE
 50
0.0
  9
$ANGDIR
 70
     0
  9
$PDMODE
 70
     0
  9
$PDSIZE
 40
0.0
  9
$PLINEWID
 40
0.0
  9
$COORDS
 70
     1
  9
$SPLFRAME
 70
     0
  9
$SPLINETYPE
 70
     6
  9
$SPLINESEGS
 70
     8
  9
$ATTDIA
 70
     0
  9
$ATTREQ
 70
     1
  9
$HANDLING
 70
     1
  9
$HANDSEED
  5
B6A5
  9
$SURFTAB1
 70
     6
  9
$SURFTAB2
 70
     6
  9
$SURFTYPE
 70
     6
  9
$SURFU
 70
     6
  9
$SURFV
 70
     6
  9
$UCSNAME
  2

  9
$UCSORG
 10
0.0
 20
0.0
 30
0.0
  9
$UCSXDIR
 10
1.0
 20
0.0
 30
0.0
  9
$UCSYDIR
 10
0.0
 20
1.0
 30
0.0
  9
$PUCSNAME
  2

  9
$PUCSORG
 10
0.0
 20
0.0
 30
0.0
  9
$PUCSXDIR
 10
1.0
 20
0.0
 30
0.0
  9
$PUCSYDIR
 10
0.0
 20
1.0
 30
0.0
  9
$USERI1
 70
     4
  9
$USERI2
 70
     1
  9
$USERI3
 70
     0
  9
$USERI4
 70
     0
  9
$USERI5
 70
     0
  9
$USERR1
 40
1.0
  9
$USERR2
 40
3.0
  9
$USERR3
 40
3.0
  9
$USERR4
 40
3.0
  9
$USERR5
 40
10.0
  9
$WORLDVIEW
 70
     1
  9
$SHADEDGE
 70
     3
  9
$SHADEDIF
 70
    70
  9
$TILEMODE
 70
     1
  9
$MAXACTVP
 70
    16
  9
$PLIMCHECK
 70
     0
  9
$PEXTMIN
 10
1.0000000000000000E+020
 20
1.0000000000000000E+020
 30
1.0000000000000000E+020
  9
$PEXTMAX
 10
-1.0000000000000000E+020
 20
-1.0000000000000000E+020
 30
-1.0000000000000000E+020
  9
$PLIMMIN
 10
0.0
 20
0.0
  9
$PLIMMAX
 10
12.0
 20
9.0
  9
$UNITMODE
 70
     0
  9
$VISRETAIN
 70
     0
  9
$PLINEGEN
 70
     0
  9
$PSLTSCALE
 70
     0
  0
ENDSEC
  0
SECTION
  2
TABLES
  0
TABLE
  2
VPORT
 70
     1
  0
VPORT
  2
*ACTIVE
 70
     0
 10
0.0
 20
0.0
 11
1.0
 21
1.0
 12
187.4942783906524
 22
208.7278701069279
 13
0.0
 23
0.0
 14
10.0
 24
10.0
 15
10.0
 25
10.0
 16
0.0
 26
0.0
 36
1.0
 17
0.0
 27
0.0
 37
0.0
 40
428.26744372699937
 41
2.304913294797688
 42
50.0
 43
0.0
 44
0.0
 50
0.0
 51
0.0
 71
    16
 72
   100
 73
     1
 74
     0
 75
     0
 76
     0
 77
     0
 78
     0
  0
ENDTAB
  0
TABLE
  2
LTYPE
 70
     4
  0
LTYPE
  2
CONTINUOUS
 70
     0
  3
Solid Line
 72
    65
 73
     0
 40
0.0
  0
LTYPE
  2
PHANTOM2
 70
     0
  3
___ _ _ ___ _ _ ___ _ _ ___ _ _
 72
    65
 73
     6
 40
1.25
 49
0.625
 49
-0.125
 49
0.125
 49
-0.125
 49
0.125
 49
-0.125
  0
LTYPE
  2
CENTER
 70
     0
  3
____ _ ____ _ ____ _ ____ _ ____ _ ____ _ ____
 72
    65
 73
     4
 40
2.0
 49
1.25
 49
-0.25
 49
0.25
 49
-0.25
  0
LTYPE
  2
HIDDEN
 70
     0
  3
_ _ _ _ _ _ _ _ _ _ _ _ _ _ _ _ _ _ _ _ _ _ _
 72
    65
 73
     2
 40
0.375
 49
0.25
 49
-0.125
  0
ENDTAB
  0
TABLE
  2
LAYER
 70
     5
  0
LAYER
  2
0
 70
     0
 62
     7
  6
CONTINUOUS
  0
LAYER
  2
1
 70
     0
 62
     1
  6
CENTER
  0
LAYER
  2
3
 70
     0
 62
     3
  6
CONTINUOUS
  0
LAYER
  2
2
 70
     0
 62
     2
  6
HIDDEN
  0
LAYER
  2
DEFPOINTS
 70
     0
 62
     7
  6
CONTINUOUS
  0
ENDTAB
  0
TABLE
  2
STYLE
 70
     3
  0
STYLE
  2
STANDARD
 70
     0
 40
0.0
 41
1.0
 50
0.0
 71
     0
 42
0.2
  3
SIMPLEX
  4
BIGFONT
  0
STYLE
  2
ANNOTATIVE
 70
     0
 40
0.0
 41
1.0
 50
0.0
 71
     0
 42
0.2
  3
txt
  4

  0
STYLE
  2
STANDARD1
 70
     0
 40
0.0
 41
1.0
 50
0.0
 71
     0
 42
3.0
  3
txt
  4

  0
ENDTAB
  0
TABLE
  2
VIEW
 70
     0
  0
ENDTAB
  0
TABLE
  2
UCS
 70
     0
  0
ENDTAB
  0
TABLE
  2
APPID
 70
    29
  0
APPID
  2
ACAD
 70
     0
  0
APPID
  2
ACADANNOTATIVE
 70
     0
  0
APPID
  2
GENIUS_GENOREF_13
 70
     0
  0
APPID
  2
GENIUS_GENOENT_13
 70
     0
  0
APPID
  2
GENIUS_GENBH_13
 70
     0
  0
APPID
  2
GENIUS_GENOBJ_13
 70
     0
  0
APPID
  2
GENIUS_GENODEF_13
 70
     0
  0
APPID
  2
GENIUS_GENOLIS_13
 70
     0
  0
APPID
  2
GENIUS_GENOBJ-NBEHI-BHF_13
 70
     0
  0
APPID
  2
GENIUS_GENOBJ-NBEHI-BHB_13
 70
     0
  0
APPID
  2
GENIUS_GENOBJ-F-PART_13
 70
     0
  0
APPID
  2
GENIUS_GEFSTDP_13
 70
     0
  0
APPID
  2
GENIUS_GENOBJ-N-RSSYM_13
 70
     0
  0
APPID
  2
GENIUS_GENSYMENT_13
 70
     0
  0
APPID
  2
GENIUS_GENOBJ-N-TIT_13
 70
     0
  0
APPID
  2
GENIUS_GENTITLE_13
 70
     0
  0
APPID
  2
GENIUS_GENZVEED_13
 70
     0
  0
APPID
  2
GENIUS_GENOBJ-N-LEADER_13
 70
     0
  0
APPID
  2
GENIUS_GENOBJ-N-FIL_13
 70
     0
  0
APPID
  2
GENIUS_GENOBJ-N-SEC_13
 70
     0
  0
APPID
  2
GENIUS_GENOBJ-N-CRS_13
 70
     0
  0
APPID
  2
GENIUS_GENOBJ-N-ZOO_13
 70
     0
  0
APPID
  2
GENIUS_GENZOO_13
 70
     0
  0
APPID
  2
GENIUS_GENOBJ-F-TOL_13
 70
     0
  0
APPID
  2
GENIUS_GENFIL_13
 70
     0
  0
APPID
  2
GENIUS_GENOBJ-N-CHA_13
 70
     0
  0
APPID
  2
ACAD_EXEMPT_FROM_CAD_STANDARDS
 70
     0
  0
APPID
  2
ACAD_MLEADERVER
 70
     0
  0
APPID
  2
ACAD_NAV_VCDISPLAY
 70
     0
  0
ENDTAB
  0
TABLE
  2
DIMSTYLE
 70
     2
  0
DIMSTYLE
  2
STANDARD
 70
     0
  3

  4

  5

  6

  7

 40
1.0
 41
0.18
 42
0.0625
 43
0.38
 44
0.18
 45
0.0
 46
0.0
 47
0.0
 48
0.0
140
0.18
141
0.09
142
0.0
143
25.399999999999999
144
1.0
145
0.0
146
1.0
147
0.09
 71
     0
 72
     0
 73
     1
 74
     1
 75
     0
 76
     0
 77
     0
 78
     0
170
     0
171
     2
172
     0
173
     0
174
     0
175
     0
176
     0
177
     0
178
     0
  0
DIMSTYLE
  2
ANNOTATIVE
 70
     0
  3

  4

  5

  6

  7

 40
1.0
 41
0.18
 42
0.0625
 43
0.38
 44
0.18
 45
0.0
 46
0.0
 47
0.0
 48
0.0
140
0.18
141
0.09
142
0.0
143
25.399999999999999
144
1.0
145
0.0
146
1.0
147
0.09
 71
     0
 72
     0
 73
     1
 74
     1
 75
     0
 76
     0
 77
     0
 78
     0
170
     0
171
     2
172
     0
173
     0
174
     0
175
     0
176
     0
177
     0
178
     0
  0
ENDTAB
  0
ENDSEC
  0
SECTION
  2
BLOCKS
  0
BLOCK
  8
0
  2
$MODEL_SPACE
 70
     0
 10
0.0
 20
0.0
 30
0.0
  3
$MODEL_SPACE
  1

  0
ENDBLK
  5
B5B9
  8
0
  0
BLOCK
 67
     1
  8
0
  2
$PAPER_SPACE
 70
     0
 10
0.0
 20
0.0
 30
0.0
  3
$PAPER_SPACE
  1

  0
ENDBLK
  5
B5B5
 67
     1
  8
0
  0
ENDSEC
  0
SECTION
  2
ENTITIES
  0
LINE
  5
B0B7
  8
0
 10
104.69188258552541
 20
359.10050249685168
 30
0.0
 11
89.688036204069192
 21
359.10050249685168
 31
0.0
  0
LINE
  5
B0B8
  8
0
 10
104.69188258552541
 20
333.10050249685168
 30
0.0
 11
89.688036204069192
 21
333.10050249685168
 31
0.0
  0
ARC
  5
B0B9
  8
0
 10
137.18803620406899
 20
346.10050249685179
 30
0.0
 40
55.499999999999503
 50
191.45374122364311
 51
348.54625877635681
  0
ARC
  5
B0BA
  8
0
 10
137.18803620406911
 20
346.10050249685179
 30
0.0
 40
48.499999999999901
 50
195.5477422331474
 51
344.4522577668526
  0
ARC
  5
B0BB
  8
0
 10
137.18803620406899
 20
346.10050249685179
 30
0.0
 40
34.999999999999829
 50
180.0
 51
0.0
  0
ARC
  5
B0BC
  8
0
 10
137.18803620406911
 20
346.10050249685179
 30
0.0
 40
41.499999999999901
 50
198.2553818955659
 51
341.74461810443421
  0
ARC
  5
B0BD
  8
0
 10
89.688036204069192
 20
346.10050249685179
 30
0.0
 40
13.0
 50
90.0
 51
270.0
  0
CIRCLE
  5
B0BE
  8
2
 10
89.688036204069064
 20
346.10050249685179
 30
0.0
 40
6.25
  0
LINE
  5
B0BF
  8
1
 10
89.688036204069064
 20
357.35050249685168
 30
0.0
 11
89.688036204069064
 21
334.85050249685168
 31
0.0
  0
LINE
  5
B0C0
  8
1
 10
184.68803620406911
 20
357.35050249685168
 30
0.0
 11
184.68803620406911
 21
334.85050249685168
 31
0.0
  0
CIRCLE
  5
B0C1
  8
2
 10
184.68803620406911
 20
346.10050249685179
 30
0.0
 40
6.25
  0
ARC
  5
B0C2
  8
0
 10
184.68803620406891
 20
346.10050249685179
 30
0.0
 40
13.0
 50
270.0
 51
90.0
  0
LINE
  5
B0C3
  8
0
 10
184.68803620406891
 20
333.10050249685168
 30
0.0
 11
169.68418982261269
 21
333.10050249685168
 31
0.0
  0
LINE
  5
B0C4
  8
0
 10
184.68803620406891
 20
359.10050249685168
 30
0.0
 11
169.68418982261269
 21
359.10050249685168
 31
0.0
  0
CIRCLE
  5
B0C7
  8
0
 10
137.18803620406899
 20
346.10050249685179
 30
0.0
 40
10.0
  0
CIRCLE
  5
B0C8
  8
3
 10
137.18803620406899
 20
346.10050249685179
 30
0.0
 40
8.6470000000000002
  0
LINE
  5
B0C9
  8
0
 10
128.5277821662248
 20
331.10050249685168
 30
0.0
 11
145.8482902419135
 21
331.10050249685168
 31
0.0
  0
LINE
  5
B0CA
  8
0
 10
145.8482902419135
 20
331.10050249685168
 30
0.0
 11
154.50854427975781
 21
346.10050249685179
 31
0.0
  0
LINE
  5
B0CB
  8
0
 10
154.50854427975781
 20
346.10050249685179
 30
0.0
 11
145.8482902419133
 21
361.10050249685168
 31
0.0
  0
LINE
  5
B0CC
  8
0
 10
145.8482902419133
 20
361.10050249685168
 30
0.0
 11
128.52778216622491
 21
361.10050249685168
 31
0.0
  0
LINE
  5
B0CD
  8
0
 10
128.52778216622491
 20
361.10050249685168
 30
0.0
 11
119.8675281283804
 21
346.10050249685202
 31
0.0
  0
LINE
  5
B0CE
  8
0
 10
119.8675281283804
 20
346.10050249685202
 30
0.0
 11
128.5277821662248
 21
331.10050249685168
 31
0.0
  0
CIRCLE
  5
B0CF
  8
0
 10
137.18803620406899
 20
346.10050249685179
 30
0.0
 40
14.5
  0
LINE
  5
B0D0
  8
1
 10
209.68803620406899
 20
346.10050249685179
 30
0.0
 11
64.688036204069135
 21
346.10050249685179
 31
0.0
  0
LINE
  5
B0D1
  8
1
 10
137.18803620406899
 20
418.6005024968515
 30
0.0
 11
137.18803620406899
 21
273.60050249685168
 31
0.0
  0
CIRCLE
  5
B0D2
  8
0
 10
137.18803620406899
 20
346.10050249685179
 30
0.0
 40
20.999999999999879
  0
ARC
  5
B0D3
  8
0
 10
137.18803620406899
 20
346.10050249685179
 30
0.0
 40
34.999999999999829
 50
0.0
 51
180.0
  0
ARC
  5
B0D4
  8
0
 10
137.18803620406911
 20
346.10050249685179
 30
0.0
 40
41.499999999999901
 50
18.25538189556595
 51
161.74461810443401
  0
ARC
  5
B0D5
  8
0
 10
137.18803620406911
 20
346.10050249685179
 30
0.0
 40
48.499999999999901
 50
15.54774223314746
 51
164.45225776685251
  0
ARC
  5
B0D6
  8
0
 10
137.18803620406899
 20
346.10050249685179
 30
0.0
 40
55.499999999999503
 50
11.45374122364313
 51
168.54625877635681
  0
CIRCLE
  5
B0D7
  8
0
 10
137.18803620406899
 20
346.10050249685179
 30
0.0
 40
62.499999999999929
  0
ARC
  5
B0D8
  8
0
 10
307.15800302082488
 20
95.481874316842735
 30
0.0
 40
12.25
 50
20.698334926538699
 51
46.120122896762233
  0
LINE
  5
B0D9
  8
0
 10
307.15800302082818
 20
161.18318703891779
 30
0.0
 11
307.15800302082818
 21
148.44002923241339
 31
0.0
  0
LINE
  5
B0DA
  8
0
 10
321.65800302082818
 20
146.81160813566831
 30
0.0
 11
292.65800302082988
 21
146.81160813566831
 31
0.0
  0
LINE
  5
B0DB
  8
0
 10
292.65800302082988
 20
162.811608135668
 30
0.0
 11
321.6580030208267
 21
162.811608135668
 31
0.0
  0
ARC
  5
B0DC
  8
0
 10
299.6580030208284
 20
140.86027422740409
 30
0.0
 40
21.662658773668529
 50
69.743841999600619
 51
110.2561580003994
  0
LINE
  5
B0DD
  8
0
 10
292.65800302082988
 20
162.811608135668
 30
0.0
 11
292.15800302082857
 21
162.5229330010724
 31
0.0
  0
LINE
  5
B0DE
  8
0
 10
292.65800302082988
 20
146.81160813566831
 30
0.0
 11
292.15800302082857
 21
147.10028327026379
 31
0.0
  0
ARC
  5
B0DF
  8
0
 10
299.6580030208284
 20
168.76294204393199
 30
0.0
 40
21.662658773668529
 50
249.7438419996007
 51
290.25615800039941
  0
LINE
  5
B0E0
  8
0
 10
292.1580030208284
 20
162.5229330010724
 30
0.0
 11
292.15800302082857
 21
147.10028327026379
 31
0.0
  0
LINE
  5
B0E1
  8
0
 10
322.15800302082818
 20
162.5229330010724
 30
0.0
 11
322.15800302082812
 21
147.10028327026379
 31
0.0
  0
ARC
  5
B0E2
  8
0
 10
314.6580030208284
 20
168.76294204393199
 30
0.0
 40
21.662658773668529
 50
249.7438419996007
 51
290.25615800039941
  0
LINE
  5
B0E3
  8
0
 10
321.6580030208267
 20
146.81160813566831
 30
0.0
 11
322.15800302082812
 21
147.10028327026379
 31
0.0
  0
LINE
  5
B0E4
  8
0
 10
321.6580030208267
 20
162.811608135668
 30
0.0
 11
322.15800302082812
 21
162.5229330010724
 31
0.0
  0
ARC
  5
B0E5
  8
0
 10
314.6580030208284
 20
140.86027422740409
 30
0.0
 40
21.662658773668529
 50
69.743841999600619
 51
110.2561580003994
  0
LINE
  5
B0E6
  8
3
 10
298.51100302082801
 20
162.811608135668
 30
0.0
 11
298.51100302082801
 21
217.66460813564521
 31
0.0
  0
LINE
  5
B0E7
  8
0
 10
297.15800302082789
 20
162.811608135668
 30
0.0
 11
297.15800302082789
 21
216.31160813564509
 31
0.0
  0
LINE
  5
B0E8
  8
0
 10
317.15800302082789
 20
162.8116081356678
 30
0.0
 11
317.15800302082789
 21
216.31160813564489
 31
0.0
  0
LINE
  5
B0E9
  8
3
 10
315.80500302082783
 20
162.811608135668
 30
0.0
 11
315.80500302082783
 21
217.66460813564501
 31
0.0
  0
ARC
  5
B0EA
  8
0
 10
307.15800302082488
 20
95.481874316842735
 30
0.0
 40
12.25
 50
133.87987710304881
 51
159.30166507346109
  0
LINE
  5
B0EB
  8
0
 10
315.65800302082789
 20
104.31160813559281
 30
0.0
 11
298.65800302082789
 21
104.311608135621
 31
0.0
  0
LINE
  5
B0EC
  8
0
 10
315.65800302082789
 20
110.8116081356069
 30
0.0
 11
315.65800302082789
 21
104.31160813559281
 31
0.0
  0
LINE
  5
B0ED
  8
0
 10
298.65800302082789
 20
110.8116081356069
 30
0.0
 11
298.65800302082789
 21
104.3116081356213
 31
0.0
  0
LINE
  5
B0EE
  8
0
 10
299.65800302082789
 20
218.81160813564509
 30
0.0
 11
314.65800302082789
 21
218.81160813564489
 31
0.0
  0
LINE
  5
B0EF
  8
0
 10
317.15800302082789
 20
120.8116081356451
 30
0.0
 11
317.15800302082789
 21
146.8116081356676
 31
0.0
  0
LINE
  5
B0F0
  8
3
 10
315.80500302082783
 20
124.8116081356451
 30
0.0
 11
315.80500302082783
 21
146.8116081356676
 31
0.0
  0
LINE
  5
B0F1
  8
3
 10
298.51100302082801
 20
124.8116081356451
 30
0.0
 11
298.51100302082801
 21
146.8116081356674
 31
0.0
  0
LINE
  5
B0F2
  8
0
 10
297.15800302082789
 20
120.8116081356451
 30
0.0
 11
297.15800302082789
 21
146.8116081356676
 31
0.0
  0
LINE
  5
B0F3
  8
0
 10
297.15800302082789
 20
216.31160813564509
 30
0.0
 11
299.65800302082789
 21
218.81160813564509
 31
0.0
  0
LINE
  5
B0F4
  8
0
 10
314.65800302082789
 20
218.81160813564489
 30
0.0
 11
317.15800302082789
 21
216.31160813564489
 31
0.0
  0
LINE
  5
B0F5
  8
0
 10
297.15800302082789
 20
216.31160813564509
 30
0.0
 11
317.15800302082789
 21
216.31160813564489
 31
0.0
  0
LINE
  5
B0F6
  8
0
 10
317.15800302082789
 20
124.8116081356451
 30
0.0
 11
297.15800302082789
 21
124.8116081356451
 31
0.0
  0
LINE
  5
B0F7
  8
3
 10
298.51100302082801
 20
124.8116081356451
 30
0.0
 11
297.15800302082789
 21
122.4681433930042
 31
0.0
  0
LINE
  5
B0F8
  8
3
 10
315.80500302082783
 20
124.8116081356451
 30
0.0
 11
317.15800302082789
 21
122.4681433930042
 31
0.0
  0
ARC
  5
B0F9
  8
0
 10
307.15800302088178
 20
97.594729773021925
 30
0.0
 40
22.928203228139491
 50
72.412046224314139
 51
107.5879537756858
  0
ARC
  5
B0FA
  8
0
 10
296.76569817546817
 20
114.3889584054406
 30
0.0
 40
6.1339745957208196
 50
55.615752528793202
 51
115.61575253015521
  0
LINE
  5
B0FB
  8
0
 10
293.30159656030878
 20
119.4511362313321
 30
0.0
 11
295.65800302098961
 21
120.8116081357263
 31
0.0
  0
LINE
  5
B0FC
  8
0
 10
293.30159656030878
 20
112.17208004012051
 30
0.0
 11
295.65800302098961
 21
110.8116081357263
 31
0.0
  0
ARC
  5
B0FD
  8
0
 10
296.76569817546817
 20
117.234257866012
 30
0.0
 40
6.1339745957208196
 50
244.38424746984481
 51
304.38424747120678
  0
ARC
  5
B0FE
  8
0
 10
307.15800302088178
 20
134.02848649843071
 30
0.0
 40
22.928203228139491
 50
252.41204622431411
 51
287.58795377568589
  0
LINE
  5
B0FF
  8
0
 10
293.30159656033061
 20
119.4511362313321
 30
0.0
 11
293.30159656033061
 21
112.1720800401078
 31
0.0
  0
LINE
  5
B100
  8
0
 10
300.22979979060631
 20
119.4511362313321
 30
0.0
 11
300.22979979060631
 21
112.17208004012051
 31
0.0
  0
LINE
  5
B101
  8
0
 10
314.08620625115708
 20
119.4511362313321
 30
0.0
 11
314.08620625115708
 21
112.17208004012051
 31
0.0
  0
LINE
  5
B102
  8
0
 10
321.01440948143289
 20
119.4511362313321
 30
0.0
 11
321.01440948143289
 21
112.1720800401078
 31
0.0
  0
ARC
  5
B103
  8
0
 10
317.55030786629533
 20
117.234257866012
 30
0.0
 40
6.1339745957208196
 50
235.61575252879319
 51
295.61575253015519
  0
LINE
  5
B104
  8
0
 10
321.01440948145478
 20
112.17208004012051
 30
0.0
 11
318.658003020774
 21
110.8116081357263
 31
0.0
  0
LINE
  5
B105
  8
0
 10
321.01440948145478
 20
119.4511362313321
 30
0.0
 11
318.658003020774
 21
120.8116081357263
 31
0.0
  0
ARC
  5
B106
  8
0
 10
317.55030786629533
 20
114.3889584054406
 30
0.0
 40
6.1339745957208196
 50
64.38424746984478
 51
124.38424747120671
  0
LINE
  5
B107
  8
0
 10
295.65800302088178
 20
120.8116081357263
 30
0.0
 11
318.658003020774
 21
120.8116081357263
 31
0.0
  0
LINE
  5
B108
  8
0
 10
318.658003020774
 20
110.8116081357263
 30
0.0
 11
295.65800302098961
 21
110.8116081357263
 31
0.0
  0
LINE
  5
B109
  8
0
 10
369.65800302082772
 20
53.811608135645088
 30
0.0
 11
244.65800302082781
 21
53.811608135645137
 31
0.0
  0
LINE
  5
B10A
  8
0
 10
369.65800302082772
 20
53.811608135645088
 30
0.0
 11
369.65800302082789
 21
69.930814224690209
 31
0.0
  0
LINE
  5
B10C
  8
0
 10
328.15800302082778
 20
99.811608135645088
 30
0.0
 11
286.15800302082772
 21
99.811608135645145
 31
0.0
  0
LINE
  5
B10D
  8
0
 10
328.15800302082778
 20
99.811608135645088
 30
0.0
 11
342.15800302082778
 21
77.811608135645059
 31
0.0
  0
LINE
  5
B10E
  8
0
 10
342.15800302082778
 20
77.811608135645059
 30
0.0
 11
347.90468230146269
 21
76.34881704602887
 31
0.0
  0
LINE
  5
B10F
  8
0
 10
362.65800302082772
 20
71.702517226554136
 30
0.0
 11
362.65800302082772
 21
71.712632406508419
 31
0.0
  0
LINE
  5
B110
  8
0
 10
355.65800302082772
 20
73.484335408372374
 30
0.0
 11
355.65800302082772
 21
73.494450588326572
 31
0.0
  0
LINE
  5
B111
  8
0
 10
348.65800302082772
 20
75.266153590190541
 30
0.0
 11
348.65800302082772
 21
75.379719872105952
 31
0.0
  0
LINE
  5
B112
  8
0
 10
368.78425730050179
 20
70.922812136413825
 30
0.0
 11
362.65800302082772
 21
71.702517226554136
 31
0.0
  0
LINE
  5
B113
  8
0
 10
361.78425730050168
 20
72.704630318232034
 30
0.0
 11
355.65800302082772
 21
73.484335408372374
 31
0.0
  0
LINE
  5
B114
  8
0
 10
354.78425730050162
 20
74.48644850005023
 30
0.0
 11
348.65800302082772
 21
75.266153590190541
 31
0.0
  0
ARC
  5
B115
  8
0
 10
347.65800302082761
 20
75.379719872105952
 30
0.0
 40
1.0
 50
0.0
 51
75.718904264029092
  0
ARC
  5
B116
  8
0
 10
354.65800302082772
 20
73.494450588326572
 30
0.0
 40
1.0
 50
0.0
 51
82.746805387274705
  0
ARC
  5
B117
  8
0
 10
361.65800302082772
 20
71.712632406508419
 30
0.0
 40
1.0
 50
0.000000000001832
 51
82.746805387274634
  0
ARC
  5
B118
  8
0
 10
368.658003020828
 20
69.930814224690209
 30
0.0
 40
1.0
 50
359.9999999999996
 51
82.746805387274634
  0
LINE
  5
B119
  8
0
 10
362.65800302082772
 20
71.702517226554136
 30
0.0
 11
318.1789093154137
 21
71.702517226554178
 31
0.0
  0
LINE
  5
B11A
  8
0
 10
355.65800302082772
 20
73.484335408372374
 30
0.0
 11
320.15800302082818
 21
73.484335408372402
 31
0.0
  0
LINE
  5
B11B
  8
0
 10
348.65800302082772
 20
75.266153590190541
 30
0.0
 11
320.15800302082818
 21
75.266153590190584
 31
0.0
  0
LINE
  5
B11C
  8
0
 10
342.15800302082778
 20
77.811608135645059
 30
0.0
 11
272.15800302082812
 21
77.811608135645145
 31
0.0
  0
ARC
  5
B11D
  8
0
 10
245.65800302082761
 20
69.930814224690209
 30
0.0
 40
1.0
 50
97.253194612725352
 51
180.00000000000051
  0
ARC
  5
B11E
  8
0
 10
252.65800302082769
 20
71.712632406508419
 30
0.0
 40
1.0
 50
97.253194612725352
 51
179.99999999999821
  0
ARC
  5
B11F
  8
0
 10
259.65800302082772
 20
73.494450588326572
 30
0.0
 40
1.0
 50
97.253194612725281
 51
180.0
  0
ARC
  5
B120
  8
0
 10
266.65800302082778
 20
75.379719872105952
 30
0.0
 40
1.0
 50
104.28109573597089
 51
180.0
  0
LINE
  5
B121
  8
0
 10
259.53174874115388
 20
74.48644850005023
 30
0.0
 11
265.65800302082778
 21
75.266153590190541
 31
0.0
  0
LINE
  5
B122
  8
0
 10
252.53174874115379
 20
72.704630318232034
 30
0.0
 11
258.65800302082778
 21
73.484335408372374
 31
0.0
  0
LINE
  5
B123
  8
0
 10
245.53174874115371
 20
70.922812136413825
 30
0.0
 11
251.65800302082781
 21
71.702517226554136
 31
0.0
  0
LINE
  5
B124
  8
0
 10
265.65800302082778
 20
75.266153590190541
 30
0.0
 11
265.65800302082778
 21
75.379719872105952
 31
0.0
  0
LINE
  5
B125
  8
0
 10
258.65800302082772
 20
73.484335408372374
 30
0.0
 11
258.65800302082772
 21
73.494450588326572
 31
0.0
  0
LINE
  5
B126
  8
0
 10
251.65800302082781
 20
71.702517226554136
 30
0.0
 11
251.65800302082769
 21
71.712632406508419
 31
0.0
  0
LINE
  5
B127
  8
0
 10
272.15800302082772
 20
77.811608135645059
 30
0.0
 11
266.41132374019293
 21
76.34881704602887
 31
0.0
  0
LINE
  5
B128
  8
0
 10
286.15800302082772
 20
99.811608135645088
 30
0.0
 11
272.15800302082772
 21
77.811608135645059
 31
0.0
  0
LINE
  5
B12A
  8
0
 10
244.65800302082781
 20
53.811608135645088
 30
0.0
 11
244.65800302082761
 21
69.930814224690209
 31
0.0
  0
LINE
  5
B12C
  8
1
 10
307.15800302082778
 20
43.811608135645123
 30
0.0
 11
307.15800302082789
 21
228.8116081356452
 31
0.0
  0
LINE
  5
B12D
  8
1
 10
137.18803620406899
 20
43.811608135645123
 30
0.0
 11
137.18803620406911
 21
228.8116081356452
 31
0.0
  0
ARC
  5
B12F
  8
0
 10
137.18803620406621
 20
95.481874316842848
 30
0.0
 40
12.25
 50
20.698334926538148
 51
46.120122896763377
  0
LINE
  5
B130
  8
3
 10
145.8350362040691
 20
124.8116081356452
 30
0.0
 11
147.18803620406911
 21
122.4681433930044
 31
0.0
  0
LINE
  5
B131
  8
3
 10
128.5410362040692
 20
124.8116081356452
 30
0.0
 11
127.18803620406911
 21
122.4681433930044
 31
0.0
  0
LINE
  5
B132
  8
0
 10
147.18803620406911
 20
124.8116081356452
 30
0.0
 11
127.18803620406911
 21
124.8116081356452
 31
0.0
  0
LINE
  5
B133
  8
0
 10
127.18803620406911
 20
216.31160813564529
 30
0.0
 11
147.18803620406911
 21
216.311608135645
 31
0.0
  0
LINE
  5
B134
  8
0
 10
144.68803620406911
 20
218.811608135645
 30
0.0
 11
147.18803620406911
 21
216.311608135645
 31
0.0
  0
LINE
  5
B135
  8
0
 10
127.18803620406911
 20
216.31160813564529
 30
0.0
 11
129.68803620406911
 21
218.81160813564529
 31
0.0
  0
LINE
  5
B136
  8
0
 10
127.18803620406911
 20
120.8116081356452
 30
0.0
 11
127.18803620406911
 21
146.8116081356678
 31
0.0
  0
LINE
  5
B137
  8
3
 10
128.5410362040692
 20
124.8116081356452
 30
0.0
 11
128.5410362040692
 21
146.81160813566751
 31
0.0
  0
LINE
  5
B138
  8
3
 10
145.8350362040691
 20
124.8116081356452
 30
0.0
 11
145.8350362040691
 21
146.8116081356678
 31
0.0
  0
LINE
  5
B139
  8
0
 10
147.18803620406911
 20
120.8116081356452
 30
0.0
 11
147.18803620406911
 21
146.8116081356678
 31
0.0
  0
LINE
  5
B13A
  8
0
 10
129.68803620406911
 20
218.81160813564529
 30
0.0
 11
144.68803620406911
 21
218.811608135645
 31
0.0
  0
ARC
  5
B13B
  8
0
 10
143.1880362041023
 20
103.19280598372779
 30
0.0
 40
17.330127017333279
 50
69.74384199763557
 51
110.2561580023644
  0
LINE
  5
B13C
  8
0
 10
149.18803620411731
 20
120.5229330010612
 30
0.0
 11
148.6880362041023
 21
120.8116081356646
 31
0.0
  0
LINE
  5
B13D
  8
0
 10
149.18803620411731
 20
111.1002832701911
 30
0.0
 11
148.6880362041023
 21
110.8116081355877
 31
0.0
  0
ARC
  5
B13E
  8
0
 10
143.1880362041023
 20
128.43041028752441
 30
0.0
 40
17.330127017333279
 50
249.7438419976356
 51
290.25615800236437
  0
LINE
  5
B13F
  8
0
 10
149.18803620411731
 20
120.5229330010612
 30
0.0
 11
149.1880362041023
 21
111.1002832701825
 31
0.0
  0
LINE
  5
B140
  8
0
 10
137.1880362041023
 20
112.1720800400203
 30
0.0
 11
137.1880362041023
 21
119.4511362312319
 31
0.0
  0
LINE
  5
B141
  8
0
 10
125.1880362040873
 20
120.5229330010612
 30
0.0
 11
125.1880362041023
 21
111.1002832701825
 31
0.0
  0
ARC
  5
B142
  8
0
 10
131.1880362041023
 20
128.43041028752441
 30
0.0
 40
17.330127017333279
 50
249.7438419976356
 51
290.25615800236437
  0
LINE
  5
B143
  8
0
 10
125.1880362040873
 20
111.1002832701911
 30
0.0
 11
125.6880362041023
 21
110.8116081355877
 31
0.0
  0
LINE
  5
B144
  8
0
 10
125.1880362040873
 20
120.5229330010612
 30
0.0
 11
125.6880362041023
 21
120.8116081356646
 31
0.0
  0
ARC
  5
B145
  8
0
 10
131.1880362041023
 20
103.19280598372779
 30
0.0
 40
17.330127017333279
 50
69.74384199763557
 51
110.2561580023644
  0
LINE
  5
B146
  8
0
 10
125.6880362040359
 20
120.8116081356261
 30
0.0
 11
148.6880362041023
 21
120.8116081356646
 31
0.0
  0
LINE
  5
B147
  8
0
 10
148.6880362041023
 20
110.8116081355877
 30
0.0
 11
125.6880362040359
 21
110.8116081356261
 31
0.0
  0
LINE
  5
B148
  8
0
 10
128.68803620406911
 20
110.811608135607
 30
0.0
 11
128.68803620406911
 21
104.3116081356214
 31
0.0
  0
LINE
  5
B149
  8
0
 10
145.68803620406911
 20
110.811608135607
 30
0.0
 11
145.68803620406911
 21
104.31160813559291
 31
0.0
  0
LINE
  5
B14A
  8
0
 10
145.68803620406911
 20
104.31160813559291
 30
0.0
 11
128.68803620406911
 21
104.3116081356211
 31
0.0
  0
ARC
  5
B14B
  8
0
 10
137.18803620406621
 20
95.481874316842848
 30
0.0
 40
12.25
 50
133.8798771030477
 51
159.30166507346169
  0
LINE
  5
B14C
  8
0
 10
151.6880362040697
 20
146.811608135668
 30
0.0
 11
122.68803620406931
 21
146.8116081356678
 31
0.0
  0
LINE
  5
B14D
  8
0
 10
122.68803620406931
 20
162.81160813566831
 30
0.0
 11
151.68803620406999
 21
162.81160813566791
 31
0.0
  0
LINE
  5
B14E
  8
0
 10
151.68803620406931
 20
162.81160813566831
 30
0.0
 11
154.5085442797579
 21
161.18318703891799
 31
0.0
  0
ARC
  5
B14F
  8
0
 10
150.17841726083549
 20
154.8554647557971
 30
0.0
 40
7.6674682452751766
 50
64.384247470459485
 51
124.38424746800619
  0
ARC
  5
B150
  8
0
 10
150.17841726083549
 20
154.8554647557971
 30
0.0
 40
7.6674682452751766
 50
55.61575253199382
 51
55.61575253199382
  0
ARC
  5
B151
  8
0
 10
150.17841726083549
 20
154.767751515539
 30
0.0
 40
7.6674682452751766
 50
304.38424746800621
 51
304.38424746800621
  0
ARC
  5
B152
  8
0
 10
150.17841726083549
 20
154.767751515539
 30
0.0
 40
7.6674682452751766
 50
235.61575253199379
 51
295.61575252954049
  0
LINE
  5
B153
  8
0
 10
151.68803620406931
 20
146.8116081356678
 30
0.0
 11
154.5085442797579
 21
148.44002923241811
 31
0.0
  0
LINE
  5
B154
  8
0
 10
154.5085442797577
 20
161.18318703891799
 30
0.0
 11
154.50854428004141
 21
148.44002923258179
 31
0.0
  0
LINE
  5
B155
  8
0
 10
145.8482902419135
 20
148.4400292324415
 30
0.0
 11
145.84829024175951
 21
161.18318703891799
 31
0.0
  0
ARC
  5
B156
  8
0
 10
137.18803620414269
 20
175.76053730765631
 30
0.0
 40
28.660254037392811
 50
252.41204622557021
 51
287.5879537741294
  0
LINE
  5
B157
  8
0
 10
128.52778216622511
 20
148.4400292324415
 30
0.0
 11
128.52778216637901
 21
161.18318703891799
 31
0.0
  0
LINE
  5
B158
  8
0
 10
119.8675281283809
 20
161.18318703891799
 30
0.0
 11
119.86752812809711
 21
148.44002923258179
 31
0.0
  0
LINE
  5
B159
  8
0
 10
122.68803620406931
 20
146.8116081356678
 30
0.0
 11
119.8675281283807
 21
148.44002923241811
 31
0.0
  0
ARC
  5
B15A
  8
0
 10
124.197655147303
 20
154.767751515539
 30
0.0
 40
7.6674682452751766
 50
244.38424747045951
 51
304.38424746800621
  0
ARC
  5
B15B
  8
0
 10
124.197655147303
 20
154.767751515539
 30
0.0
 40
7.6674682452751766
 50
235.61575253199379
 51
235.61575253199379
  0
ARC
  5
B15C
  8
0
 10
137.18803620414269
 20
133.8626789636796
 30
0.0
 40
28.660254037392811
 50
72.412046225870512
 51
107.58795377442971
  0
ARC
  5
B15D
  8
0
 10
124.197655147303
 20
154.8554647557971
 30
0.0
 40
7.6674682452751766
 50
124.38424746800619
 51
124.38424746800619
  0
ARC
  5
B15E
  8
0
 10
124.197655147303
 20
154.8554647557971
 30
0.0
 40
7.6674682452751766
 50
55.61575253199382
 51
115.6157525295405
  0
LINE
  5
B15F
  8
0
 10
122.68803620406931
 20
162.81160813566831
 30
0.0
 11
119.8675281283807
 21
161.18318703891799
 31
0.0
  0
LINE
  5
B160
  8
3
 10
145.8350362040691
 20
162.81160813566811
 30
0.0
 11
145.8350362040691
 21
217.6646081356451
 31
0.0
  0
LINE
  5
B161
  8
0
 10
147.18803620406911
 20
162.81160813566791
 30
0.0
 11
147.18803620406911
 21
216.311608135645
 31
0.0
  0
LINE
  5
B162
  8
0
 10
127.18803620406911
 20
162.81160813566811
 30
0.0
 11
127.18803620406911
 21
216.31160813564529
 31
0.0
  0
LINE
  5
B163
  8
3
 10
128.5410362040692
 20
162.81160813566811
 30
0.0
 11
128.5410362040692
 21
217.6646081356453
 31
0.0
  0
LINE
  5
B164
  8
0
 10
74.688036204069135
 20
53.811608135645088
 30
0.0
 11
74.688036204069007
 21
69.930814224690209
 31
0.0
  0
LINE
  5
B166
  8
0
 10
116.18803620406911
 20
99.811608135645088
 30
0.0
 11
102.18803620406911
 21
77.811608135645059
 31
0.0
  0
LINE
  5
B167
  8
0
 10
102.18803620406911
 20
77.811608135645059
 30
0.0
 11
96.441356923434256
 21
76.34881704602887
 31
0.0
  0
LINE
  5
B168
  8
0
 10
81.688036204069135
 20
71.702517226554136
 30
0.0
 11
81.688036204069135
 21
71.71263240650849
 31
0.0
  0
LINE
  5
B169
  8
0
 10
88.688036204069135
 20
73.484335408372374
 30
0.0
 11
88.688036204069135
 21
73.494450588326572
 31
0.0
  0
LINE
  5
B16A
  8
0
 10
95.688036204069121
 20
75.266153590190541
 30
0.0
 11
95.688036204069192
 21
75.379719872105952
 31
0.0
  0
LINE
  5
B16B
  8
0
 10
75.561781924395063
 20
70.922812136413825
 30
0.0
 11
81.688036204069135
 21
71.702517226554136
 31
0.0
  0
LINE
  5
B16C
  8
0
 10
82.561781924395177
 20
72.704630318232034
 30
0.0
 11
88.688036204069135
 21
73.484335408372374
 31
0.0
  0
LINE
  5
B16D
  8
0
 10
89.561781924395234
 20
74.48644850005023
 30
0.0
 11
95.688036204069121
 21
75.266153590190541
 31
0.0
  0
ARC
  5
B16E
  8
0
 10
96.688036204069192
 20
75.379719872105952
 30
0.0
 40
1.0
 50
104.28109573597089
 51
180.0
  0
ARC
  5
B16F
  8
0
 10
89.688036204069135
 20
73.494450588326572
 30
0.0
 40
1.0
 50
97.253194612725281
 51
180.0
  0
ARC
  5
B170
  8
0
 10
82.688036204069135
 20
71.712632406508419
 30
0.0
 40
1.0
 50
97.253194612725352
 51
179.99999999999821
  0
ARC
  5
B171
  8
0
 10
75.688036204068993
 20
69.930814224690209
 30
0.0
 40
1.0
 50
97.253194612725352
 51
180.00000000000051
  0
LINE
  5
B172
  8
0
 10
172.18803620406899
 20
77.811608135645059
 30
0.0
 11
102.18803620406941
 21
77.811608135645145
 31
0.0
  0
LINE
  5
B173
  8
0
 10
178.68803620406899
 20
75.266153590190541
 30
0.0
 11
95.688036204069761
 21
75.26615359019064
 31
0.0
  0
LINE
  5
B174
  8
0
 10
185.68803620406899
 20
73.484335408372374
 30
0.0
 11
88.688036204069945
 21
73.484335408372445
 31
0.0
  0
LINE
  5
B175
  8
0
 10
192.68803620406899
 20
71.702517226554136
 30
0.0
 11
81.688036204070045
 21
71.702517226554278
 31
0.0
  0
ARC
  5
B176
  8
0
 10
198.68803620406911
 20
69.930814224690209
 30
0.0
 40
1.0
 50
359.9999999999996
 51
82.746805387274634
  0
ARC
  5
B177
  8
0
 10
191.68803620406899
 20
71.712632406508419
 30
0.0
 40
1.0
 50
0.000000000001832
 51
82.746805387274634
  0
ARC
  5
B178
  8
0
 10
184.68803620406899
 20
73.494450588326572
 30
0.0
 40
1.0
 50
0.0
 51
82.746805387274705
  0
ARC
  5
B179
  8
0
 10
177.68803620406899
 20
75.379719872105952
 30
0.0
 40
1.0
 50
0.0
 51
75.718904264029092
  0
LINE
  5
B17A
  8
0
 10
184.81429048374301
 20
74.48644850005023
 30
0.0
 11
178.68803620406899
 21
75.266153590190541
 31
0.0
  0
LINE
  5
B17B
  8
0
 10
191.81429048374301
 20
72.704630318232034
 30
0.0
 11
185.68803620406899
 21
73.484335408372374
 31
0.0
  0
LINE
  5
B17C
  8
0
 10
198.81429048374309
 20
70.922812136413825
 30
0.0
 11
192.68803620406899
 21
71.702517226554136
 31
0.0
  0
LINE
  5
B17D
  8
0
 10
178.68803620406899
 20
75.266153590190541
 30
0.0
 11
178.68803620406899
 21
75.379719872105952
 31
0.0
  0
LINE
  5
B17E
  8
0
 10
185.68803620406899
 20
73.484335408372374
 30
0.0
 11
185.68803620406899
 21
73.494450588326572
 31
0.0
  0
LINE
  5
B17F
  8
0
 10
192.68803620406899
 20
71.702517226554136
 30
0.0
 11
192.68803620406899
 21
71.71263240650849
 31
0.0
  0
LINE
  5
B180
  8
0
 10
172.18803620406899
 20
77.811608135645059
 30
0.0
 11
177.9347154847039
 21
76.34881704602887
 31
0.0
  0
LINE
  5
B181
  8
0
 10
158.18803620406899
 20
99.811608135645088
 30
0.0
 11
172.18803620406899
 21
77.811608135645059
 31
0.0
  0
LINE
  5
B182
  8
0
 10
158.18803620406911
 20
99.811608135645088
 30
0.0
 11
116.18803620406911
 21
99.811608135645145
 31
0.0
  0
LINE
  5
B185
  8
0
 10
199.68803620406899
 20
53.811608135645088
 30
0.0
 11
199.68803620406911
 21
69.930814224690209
 31
0.0
  0
LINE
  5
B186
  8
0
 10
199.68803620406899
 20
53.811608135645088
 30
0.0
 11
74.688036204069135
 21
53.811608135645137
 31
0.0
  0
LINE
  5
B3BE
  8
0
 10
197.68803620406899
 20
76.811608135645059
 30
0.0
 11
176.1166076326403
 21
76.811608135645088
 31
0.0
  0
LINE
  5
B3BF
  8
0
 10
197.68803620406899
 20
71.06615359019051
 30
0.0
 11
197.68803620406899
 21
76.811608135645045
 31
0.0
  0
LINE
  5
B3C0
  8
1
 10
184.68803620406911
 20
81.811608135645059
 30
0.0
 11
184.68803620406911
 21
48.811608135645102
 31
0.0
  0
LINE
  5
B3C1
  8
1
 10
89.688036204069277
 20
81.811608135645059
 30
0.0
 11
89.688036204069277
 21
48.81160813564513
 31
0.0
  0
LINE
  5
B3C2
  8
0
 10
76.688036204069306
 20
76.811608135645059
 30
0.0
 11
98.259464775498046
 21
76.811608135645088
 31
0.0
  0
LINE
  5
B3C3
  8
0
 10
76.688036204069306
 20
71.06615359019051
 30
0.0
 11
76.688036204069306
 21
76.811608135645045
 31
0.0
  0
ARC
  5
B3C6
  8
0
 10
307.1580030217699
 20
161.05098155905031
 30
0.0
 40
90.025598882254684
 50
262.96800700512091
 51
277.03199299073611
  0
ARC
  5
B3C7
  8
0
 10
295.18230933907478
 20
71.822388728478742
 30
0.0
 40
0.9615654688432545
 50
353.14234411221253
 51
66.564082695046039
  0
POLYLINE
  5
B3C8
  8
0
 66
     1
 10
0.0
 20
0.0
 30
0.0
 70
   128
  0
VERTEX
  5
B65B
  8
0
 10
295.56474616724051
 20
72.70463031860065
 30
0.0
  0
VERTEX
  5
B65C
  8
0
 10
294.74742970389508
 20
72.930955582109092
 30
0.0
  0
VERTEX
  5
B65D
  8
0
 10
294.26829951007852
 20
73.185167091119013
 30
0.0
  0
VERTEX
  5
B65E
  8
0
 10
294.15800302082778
 20
73.389284659869176
 30
0.0
  0
SEQEND
  5
B65F
  8
0
  0
LINE
  5
B3C9
  8
0
 10
294.15800302082778
 20
73.389284660093807
 30
0.0
 11
294.15800302082778
 21
76.811608135645301
 31
0.0
  0
LINE
  5
B3CA
  8
0
 10
320.15800302082818
 20
76.811608135645301
 30
0.0
 11
294.15800302082778
 21
76.811608135645301
 31
0.0
  0
LINE
  5
B3CB
  8
0
 10
320.15800302082818
 20
73.389284672986705
 30
0.0
 11
320.15800302082818
 21
76.811608135645301
 31
0.0
  0
POLYLINE
  5
B3CC
  8
0
 66
     1
 10
0.0
 20
0.0
 30
0.0
 70
   128
  0
VERTEX
  5
B660
  8
0
 10
318.7512598744301
 20
72.704630318603805
 30
0.0
  0
VERTEX
  5
B661
  8
0
 10
319.56857633784182
 20
72.930955582138751
 30
0.0
  0
VERTEX
  5
B662
  8
0
 10
320.04770653164621
 20
73.185167091181739
 30
0.0
  0
VERTEX
  5
B663
  8
0
 10
320.15800302082818
 20
73.389284686033449
 30
0.0
  0
SEQEND
  5
B664
  8
0
  0
ARC
  5
B3CD
  8
0
 10
319.13369670263722
 20
71.822388728407446
 30
0.0
 40
0.9615654689281507
 50
113.4359173054563
 51
186.85765590176879
  0
LINE
  5
B3CE
  8
0
 10
294.15800302082778
 20
75.266153590190626
 30
0.0
 11
265.6580030208284
 21
75.26615359019064
 31
0.0
  0
LINE
  5
B3CF
  8
0
 10
294.15800302082778
 20
73.484335408372402
 30
0.0
 11
258.65800302082857
 21
73.484335408372445
 31
0.0
  0
LINE
  5
B3D0
  8
0
 10
296.1370967281261
 20
71.702517226554221
 30
0.0
 11
251.65800302082869
 21
71.702517226554278
 31
0.0
  0
TEXT
  5
B63E
  8
0
 62
     3
 10
0.0
 20
0.0
 30
0.0
 40
10.0
  1
LVF125L20A-SUS
  7
STANDARD1
  0
ENDSEC
  0
EOF
