  0
SECTION
  2
HEADER
  9
$ACADVER
  1
AC1009
  9
$INSBASE
 10
0.0
 20
0.0
 30
0.0
  9
$EXTMIN
 10
0.0
 20
-2.960436562073669
 30
0.0
  9
$EXTMAX
 10
270.32692878940259
 20
376.9786716972136
 30
0.0
  9
$LIMMIN
 10
0.0
 20
0.0
  9
$LIMMAX
 10
375.0
 20
270.0
  9
$ORTHOMODE
 70
     0
  9
$REGENMODE
 70
     1
  9
$FILLMODE
 70
     1
  9
$QTEXTMODE
 70
     0
  9
$MIRRTEXT
 70
     0
  9
$DRAGMODE
 70
     2
  9
$LTSCALE
 40
6.0
  9
$OSMODE
 70
  3071
  9
$ATTMODE
 70
     1
  9
$TEXTSIZE
 40
0.2
  9
$TRACEWID
 40
0.05
  9
$TEXTSTYLE
  7
STANDARD
  9
$CLAYER
  8
0
  9
$CELTYPE
  6
BYLAYER
  9
$CECOLOR
 62
   256
  9
$DIMSCALE
 40
1.0
  9
$DIMASZ
 40
3.0
  9
$DIMEXO
 40
1.0
  9
$DIMDLI
 40
6.0
  9
$DIMRND
 40
0.0
  9
$DIMDLE
 40
0.0
  9
$DIMEXE
 40
1.0
  9
$DIMTP
 40
495.0
  9
$DIMTM
 40
0.0
  9
$DIMTXT
 40
3.0
  9
$DIMCEN
 40
0.0
  9
$DIMTSZ
 40
0.0
  9
$DIMTOL
 70
     0
  9
$DIMLIM
 70
     0
  9
$DIMTIH
 70
     0
  9
$DIMTOH
 70
     0
  9
$DIMSE1
 70
     0
  9
$DIMSE2
 70
     0
  9
$DIMTAD
 70
     1
  9
$DIMZIN
 70
     0
  9
$DIMBLK
  1

  9
$DIMASO
 70
     0
  9
$DIMSHO
 70
     0
  9
$DIMPOST
  1

  9
$DIMAPOST
  1

  9
$DIMALT
 70
     0
  9
$DIMALTD
 70
     2
  9
$DIMALTF
 40
25.399999999999999
  9
$DIMLFAC
 40
1.0
  9
$DIMTOFL
 70
     1
  9
$DIMTVP
 40
0.0
  9
$DIMTIX
 70
     1
  9
$DIMSOXD
 70
     0
  9
$DIMSAH
 70
     0
  9
$DIMBLK1
  1

  9
$DIMBLK2
  1

  9
$DIMSTYLE
  2
STANDARD
  9
$DIMCLRD
 70
     0
  9
$DIMCLRE
 70
     0
  9
$DIMCLRT
 70
     4
  9
$DIMTFAC
 40
1.0
  9
$DIMGAP
 40
1.0
  9
$LUNITS
 70
     2
  9
$LUPREC
 70
     4
  9
$SKETCHINC
 40
0.1
  9
$FILLETRAD
 40
2.0
  9
$AUNITS
 70
     0
  9
$AUPREC
 70
     0
  9
$MENU
  1
C:\R13\WIN\SUPPORT\ACAD-I
  9
$ELEVATION
 40
0.0
  9
$PELEVATION
 40
0.0
  9
$THICKNESS
 40
0.0
  9
$LIMCHECK
 70
     0
  9
$BLIPMODE
 70
     0
  9
$CHAMFERA
 40
0.0
  9
$CHAMFERB
 40
0.0
  9
$SKPOLY
 70
     0
  9
$TDCREATE
 40
2451962.478331747
  9
$TDUPDATE
 40
2456597.617529294
  9
$TDINDWG
 40
0.0420888657
  9
$TDUSRTIMER
 40
2456555.1086957748
  9
$USRTIMER
 70
     1
  9
$ANGBASE
 50
0.0
  9
$ANGDIR
 70
     0
  9
$PDMODE
 70
     0
  9
$PDSIZE
 40
0.0
  9
$PLINEWID
 40
0.0
  9
$COORDS
 70
     1
  9
$SPLFRAME
 70
     0
  9
$SPLINETYPE
 70
     6
  9
$SPLINESEGS
 70
     8
  9
$ATTDIA
 70
     0
  9
$ATTREQ
 70
     1
  9
$HANDLING
 70
     1
  9
$HANDSEED
  5
8010
  9
$SURFTAB1
 70
     6
  9
$SURFTAB2
 70
     6
  9
$SURFTYPE
 70
     6
  9
$SURFU
 70
     6
  9
$SURFV
 70
     6
  9
$UCSNAME
  2

  9
$UCSORG
 10
0.0
 20
0.0
 30
0.0
  9
$UCSXDIR
 10
1.0
 20
0.0
 30
0.0
  9
$UCSYDIR
 10
0.0
 20
1.0
 30
0.0
  9
$PUCSNAME
  2

  9
$PUCSORG
 10
0.0
 20
0.0
 30
0.0
  9
$PUCSXDIR
 10
1.0
 20
0.0
 30
0.0
  9
$PUCSYDIR
 10
0.0
 20
1.0
 30
0.0
  9
$USERI1
 70
     4
  9
$USERI2
 70
     1
  9
$USERI3
 70
     0
  9
$USERI4
 70
     0
  9
$USERI5
 70
     0
  9
$USERR1
 40
1.0
  9
$USERR2
 40
3.0
  9
$USERR3
 40
3.0
  9
$USERR4
 40
3.0
  9
$USERR5
 40
10.0
  9
$WORLDVIEW
 70
     1
  9
$SHADEDGE
 70
     3
  9
$SHADEDIF
 70
    70
  9
$TILEMODE
 70
     1
  9
$MAXACTVP
 70
    16
  9
$PLIMCHECK
 70
     0
  9
$PEXTMIN
 10
1.0000000000000000E+020
 20
1.0000000000000000E+020
 30
1.0000000000000000E+020
  9
$PEXTMAX
 10
-1.0000000000000000E+020
 20
-1.0000000000000000E+020
 30
-1.0000000000000000E+020
  9
$PLIMMIN
 10
0.0
 20
0.0
  9
$PLIMMAX
 10
12.0
 20
9.0
  9
$UNITMODE
 70
     0
  9
$VISRETAIN
 70
     0
  9
$PLINEGEN
 70
     0
  9
$PSLTSCALE
 70
     0
  0
ENDSEC
  0
SECTION
  2
TABLES
  0
TABLE
  2
VPORT
 70
     1
  0
VPORT
  2
*ACTIVE
 70
     0
 10
0.0
 20
0.0
 11
1.0
 21
1.0
 12
187.4942783906524
 22
187.83068376032759
 13
0.0
 23
0.0
 14
10.0
 24
10.0
 15
10.0
 25
10.0
 16
0.0
 26
0.0
 36
1.0
 17
0.0
 27
0.0
 37
0.0
 40
385.97658315335678
 41
2.304913294797688
 42
50.0
 43
0.0
 44
0.0
 50
0.0
 51
0.0
 71
    16
 72
   100
 73
     1
 74
     0
 75
     0
 76
     0
 77
     0
 78
     0
  0
ENDTAB
  0
TABLE
  2
LTYPE
 70
     4
  0
LTYPE
  2
CONTINUOUS
 70
     0
  3
Solid Line
 72
    65
 73
     0
 40
0.0
  0
LTYPE
  2
PHANTOM2
 70
     0
  3
___ _ _ ___ _ _ ___ _ _ ___ _ _
 72
    65
 73
     6
 40
1.25
 49
0.625
 49
-0.125
 49
0.125
 49
-0.125
 49
0.125
 49
-0.125
  0
LTYPE
  2
CENTER
 70
     0
  3
____ _ ____ _ ____ _ ____ _ ____ _ ____ _ ____
 72
    65
 73
     4
 40
2.0
 49
1.25
 49
-0.25
 49
0.25
 49
-0.25
  0
LTYPE
  2
HIDDEN
 70
     0
  3
_ _ _ _ _ _ _ _ _ _ _ _ _ _ _ _ _ _ _ _ _ _ _
 72
    65
 73
     2
 40
0.375
 49
0.25
 49
-0.125
  0
ENDTAB
  0
TABLE
  2
LAYER
 70
     5
  0
LAYER
  2
0
 70
     0
 62
     7
  6
CONTINUOUS
  0
LAYER
  2
1
 70
     0
 62
     1
  6
CENTER
  0
LAYER
  2
3
 70
     0
 62
     3
  6
CONTINUOUS
  0
LAYER
  2
2
 70
     0
 62
     2
  6
HIDDEN
  0
LAYER
  2
DEFPOINTS
 70
     0
 62
     7
  6
CONTINUOUS
  0
ENDTAB
  0
TABLE
  2
STYLE
 70
     3
  0
STYLE
  2
STANDARD
 70
     0
 40
0.0
 41
1.0
 50
0.0
 71
     0
 42
0.2
  3
SIMPLEX
  4
BIGFONT
  0
STYLE
  2
ANNOTATIVE
 70
     0
 40
0.0
 41
1.0
 50
0.0
 71
     0
 42
0.2
  3
txt
  4

  0
STYLE
  2
STANDARD1
 70
     0
 40
0.0
 41
1.0
 50
0.0
 71
     0
 42
3.0
  3
txt
  4

  0
ENDTAB
  0
TABLE
  2
VIEW
 70
     0
  0
ENDTAB
  0
TABLE
  2
UCS
 70
     0
  0
ENDTAB
  0
TABLE
  2
APPID
 70
    29
  0
APPID
  2
ACAD
 70
     0
  0
APPID
  2
ACADANNOTATIVE
 70
     0
  0
APPID
  2
GENIUS_GENOREF_13
 70
     0
  0
APPID
  2
GENIUS_GENOENT_13
 70
     0
  0
APPID
  2
GENIUS_GENBH_13
 70
     0
  0
APPID
  2
GENIUS_GENOBJ_13
 70
     0
  0
APPID
  2
GENIUS_GENODEF_13
 70
     0
  0
APPID
  2
GENIUS_GENOLIS_13
 70
     0
  0
APPID
  2
GENIUS_GENOBJ-NBEHI-BHF_13
 70
     0
  0
APPID
  2
GENIUS_GENOBJ-NBEHI-BHB_13
 70
     0
  0
APPID
  2
GENIUS_GENOBJ-F-PART_13
 70
     0
  0
APPID
  2
GENIUS_GEFSTDP_13
 70
     0
  0
APPID
  2
GENIUS_GENOBJ-N-RSSYM_13
 70
     0
  0
APPID
  2
GENIUS_GENSYMENT_13
 70
     0
  0
APPID
  2
GENIUS_GENOBJ-N-TIT_13
 70
     0
  0
APPID
  2
GENIUS_GENTITLE_13
 70
     0
  0
APPID
  2
GENIUS_GENZVEED_13
 70
     0
  0
APPID
  2
GENIUS_GENOBJ-N-LEADER_13
 70
     0
  0
APPID
  2
GENIUS_GENOBJ-N-FIL_13
 70
     0
  0
APPID
  2
GENIUS_GENOBJ-N-SEC_13
 70
     0
  0
APPID
  2
GENIUS_GENOBJ-N-CRS_13
 70
     0
  0
APPID
  2
GENIUS_GENOBJ-N-ZOO_13
 70
     0
  0
APPID
  2
GENIUS_GENZOO_13
 70
     0
  0
APPID
  2
GENIUS_GENOBJ-F-TOL_13
 70
     0
  0
APPID
  2
GENIUS_GENFIL_13
 70
     0
  0
APPID
  2
GENIUS_GENOBJ-N-CHA_13
 70
     0
  0
APPID
  2
ACAD_EXEMPT_FROM_CAD_STANDARDS
 70
     0
  0
APPID
  2
ACAD_MLEADERVER
 70
     0
  0
APPID
  2
ACAD_NAV_VCDISPLAY
 70
     0
  0
ENDTAB
  0
TABLE
  2
DIMSTYLE
 70
     2
  0
DIMSTYLE
  2
STANDARD
 70
     0
  3

  4

  5

  6

  7

 40
1.0
 41
0.18
 42
0.0625
 43
0.38
 44
0.18
 45
0.0
 46
0.0
 47
0.0
 48
0.0
140
0.18
141
0.09
142
0.0
143
25.399999999999999
144
1.0
145
0.0
146
1.0
147
0.09
 71
     0
 72
     0
 73
     1
 74
     1
 75
     0
 76
     0
 77
     0
 78
     0
170
     0
171
     2
172
     0
173
     0
174
     0
175
     0
176
     0
177
     0
178
     0
  0
DIMSTYLE
  2
ANNOTATIVE
 70
     0
  3

  4

  5

  6

  7

 40
1.0
 41
0.18
 42
0.0625
 43
0.38
 44
0.18
 45
0.0
 46
0.0
 47
0.0
 48
0.0
140
0.18
141
0.09
142
0.0
143
25.399999999999999
144
1.0
145
0.0
146
1.0
147
0.09
 71
     0
 72
     0
 73
     1
 74
     1
 75
     0
 76
     0
 77
     0
 78
     0
170
     0
171
     2
172
     0
173
     0
174
     0
175
     0
176
     0
177
     0
178
     0
  0
ENDTAB
  0
ENDSEC
  0
SECTION
  2
BLOCKS
  0
BLOCK
  8
0
  2
$MODEL_SPACE
 70
     0
 10
0.0
 20
0.0
 30
0.0
  3
$MODEL_SPACE
  1

  0
ENDBLK
  5
7F1F
  8
0
  0
BLOCK
 67
     1
  8
0
  2
$PAPER_SPACE
 70
     0
 10
0.0
 20
0.0
 30
0.0
  3
$PAPER_SPACE
  1

  0
ENDBLK
  5
7F1B
 67
     1
  8
0
  0
ENDSEC
  0
SECTION
  2
ENTITIES
  0
LINE
  5
7B2C
  8
1
 10
230.3269287894025
 20
248.38383849914419
 30
0.0
 11
230.3269287894025
 21
37.38383849914419
 31
0.0
  0
CIRCLE
  5
7B2D
  8
0
 10
108.0491418862168
 20
331.26438598292782
 30
0.0
 40
10.0
  0
CIRCLE
  5
7B2E
  8
3
 10
108.0491418862168
 20
331.26438598292782
 30
0.0
 40
8.6470000000000002
  0
LINE
  5
7B2F
  8
0
 10
99.388887848372548
 20
316.26438598292782
 30
0.0
 11
116.7093959240612
 21
316.26438598292782
 31
0.0
  0
LINE
  5
7B30
  8
0
 10
116.7093959240612
 20
316.26438598292782
 30
0.0
 11
125.36964996190559
 21
331.26438598292782
 31
0.0
  0
LINE
  5
7B31
  8
0
 10
125.36964996190559
 20
331.26438598292782
 30
0.0
 11
116.7093959240611
 21
346.26438598292782
 31
0.0
  0
LINE
  5
7B32
  8
0
 10
116.7093959240611
 20
346.26438598292782
 30
0.0
 11
99.38888784837269
 21
346.26438598292782
 31
0.0
  0
LINE
  5
7B33
  8
0
 10
99.38888784837269
 20
346.26438598292782
 30
0.0
 11
90.728633810528166
 21
331.26438598292822
 31
0.0
  0
LINE
  5
7B34
  8
0
 10
90.728633810528166
 20
331.26438598292822
 30
0.0
 11
99.388887848372548
 21
316.26438598292782
 31
0.0
  0
CIRCLE
  5
7B35
  8
0
 10
108.0491418862168
 20
331.26438598292782
 30
0.0
 40
14.5
  0
ARC
  5
7B36
  8
0
 10
230.32692878939949
 20
60.054104680341773
 30
0.0
 40
12.25
 50
31.112020819732059
 51
46.12012289676111
  0
LINE
  5
7B37
  8
0
 10
230.32692878940301
 20
160.7554174024169
 30
0.0
 11
230.32692878940301
 21
148.0122595959125
 31
0.0
  0
LINE
  5
7B38
  8
0
 10
244.82692878940301
 20
146.38383849916741
 30
0.0
 11
215.8269287894046
 21
146.38383849916741
 31
0.0
  0
LINE
  5
7B39
  8
0
 10
215.8269287894046
 20
162.38383849916701
 30
0.0
 11
244.82692878940139
 21
162.38383849916701
 31
0.0
  0
ARC
  5
7B3A
  8
0
 10
222.82692878940301
 20
140.43250459090311
 30
0.0
 40
21.662658773668529
 50
69.74384199960231
 51
110.2561580003977
  0
LINE
  5
7B3B
  8
0
 10
215.8269287894046
 20
162.38383849916701
 30
0.0
 11
215.32692878940321
 21
162.09516336457159
 31
0.0
  0
LINE
  5
7B3C
  8
0
 10
215.8269287894046
 20
146.38383849916741
 30
0.0
 11
215.32692878940321
 21
146.6725136337628
 31
0.0
  0
ARC
  5
7B3D
  8
0
 10
222.82692878940301
 20
168.335172407431
 30
0.0
 40
21.662658773668529
 50
249.7438419996023
 51
290.2561580003977
  0
LINE
  5
7B3E
  8
0
 10
215.32692878940301
 20
162.09516336457159
 30
0.0
 11
215.32692878940321
 21
146.6725136337628
 31
0.0
  0
LINE
  5
7B3F
  8
0
 10
245.32692878940301
 20
162.09516336457159
 30
0.0
 11
245.3269287894027
 21
146.6725136337628
 31
0.0
  0
ARC
  5
7B40
  8
0
 10
237.82692878940301
 20
168.335172407431
 30
0.0
 40
21.662658773668529
 50
249.7438419996023
 51
290.2561580003977
  0
LINE
  5
7B41
  8
0
 10
244.82692878940139
 20
146.38383849916741
 30
0.0
 11
245.3269287894027
 21
146.6725136337628
 31
0.0
  0
LINE
  5
7B42
  8
0
 10
244.82692878940139
 20
162.38383849916701
 30
0.0
 11
245.3269287894027
 21
162.09516336457159
 31
0.0
  0
ARC
  5
7B43
  8
0
 10
237.82692878940301
 20
140.43250459090311
 30
0.0
 40
21.662658773668529
 50
69.74384199960231
 51
110.2561580003977
  0
LINE
  5
7B44
  8
3
 10
221.67992878940251
 20
162.38383849916701
 30
0.0
 11
221.67992878940251
 21
242.23683849914431
 31
0.0
  0
LINE
  5
7B45
  8
0
 10
220.3269287894025
 20
162.38383849916701
 30
0.0
 11
220.3269287894025
 21
240.88383849914419
 31
0.0
  0
LINE
  5
7B46
  8
0
 10
240.3269287894025
 20
162.38383849916681
 30
0.0
 11
240.3269287894025
 21
240.88383849914399
 31
0.0
  0
LINE
  5
7B47
  8
3
 10
238.97392878940241
 20
162.38383849916701
 30
0.0
 11
238.97392878940241
 21
242.236838499144
 31
0.0
  0
ARC
  5
7B48
  8
0
 10
230.32692878939949
 20
60.054104680341773
 30
0.0
 40
12.25
 50
133.87987710305001
 51
148.88797918026791
  0
LINE
  5
7B49
  8
0
 10
238.8269287894025
 20
68.883838499091894
 30
0.0
 11
221.8269287894025
 21
68.883838499120088
 31
0.0
  0
LINE
  5
7B4A
  8
0
 10
238.8269287894025
 20
75.383838499105991
 30
0.0
 11
238.8269287894025
 21
68.883838499091894
 31
0.0
  0
LINE
  5
7B4B
  8
0
 10
221.8269287894025
 20
75.383838499105991
 30
0.0
 11
221.8269287894025
 21
68.883838499120316
 31
0.0
  0
LINE
  5
7B4C
  8
0
 10
222.8269287894025
 20
243.38383849914419
 30
0.0
 11
237.8269287894025
 21
243.38383849914399
 31
0.0
  0
LINE
  5
7B4D
  8
0
 10
240.3269287894025
 20
85.38383849914419
 30
0.0
 11
240.3269287894025
 21
146.38383849916659
 31
0.0
  0
LINE
  5
7B4E
  8
3
 10
238.97392878940241
 20
89.38383849914419
 30
0.0
 11
238.97392878940241
 21
146.38383849916659
 31
0.0
  0
LINE
  5
7B4F
  8
3
 10
221.67992878940251
 20
89.38383849914419
 30
0.0
 11
221.67992878940251
 21
146.3838384991665
 31
0.0
  0
LINE
  5
7B50
  8
0
 10
220.3269287894025
 20
85.38383849914419
 30
0.0
 11
220.3269287894025
 21
146.38383849916659
 31
0.0
  0
LINE
  5
7B51
  8
0
 10
220.3269287894025
 20
240.88383849914419
 30
0.0
 11
222.8269287894025
 21
243.38383849914419
 31
0.0
  0
LINE
  5
7B52
  8
0
 10
237.8269287894025
 20
243.38383849914399
 30
0.0
 11
240.3269287894025
 21
240.88383849914399
 31
0.0
  0
LINE
  5
7B53
  8
0
 10
220.3269287894025
 20
240.88383849914419
 30
0.0
 11
240.3269287894025
 21
240.88383849914399
 31
0.0
  0
LINE
  5
7B54
  8
0
 10
240.3269287894025
 20
89.38383849914419
 30
0.0
 11
220.3269287894025
 21
89.38383849914419
 31
0.0
  0
LINE
  5
7B55
  8
3
 10
221.67992878940251
 20
89.38383849914419
 30
0.0
 11
220.3269287894025
 21
87.040373756503286
 31
0.0
  0
LINE
  5
7B56
  8
3
 10
238.97392878940241
 20
89.38383849914419
 30
0.0
 11
240.3269287894025
 21
87.040373756503286
 31
0.0
  0
ARC
  5
7B57
  8
0
 10
230.3269287894563
 20
62.16696013652097
 30
0.0
 40
22.928203228139491
 50
72.412046224314139
 51
107.5879537756858
  0
ARC
  5
7B58
  8
0
 10
219.9346239440429
 20
78.961188768939692
 30
0.0
 40
6.1339745957208196
 50
55.615752528791369
 51
115.6157525301566
  0
LINE
  5
7B59
  8
0
 10
216.47052232888339
 20
84.023366594831145
 30
0.0
 11
218.82692878956419
 21
85.383838499225376
 31
0.0
  0
LINE
  5
7B5A
  8
0
 10
216.47052232888339
 20
76.744310403619579
 30
0.0
 11
218.82692878956419
 21
75.383838499225362
 31
0.0
  0
ARC
  5
7B5B
  8
0
 10
219.9346239440429
 20
81.806488229511046
 30
0.0
 40
6.1339745957208196
 50
244.38424746984339
 51
304.3842474712086
  0
ARC
  5
7B5C
  8
0
 10
230.3269287894563
 20
98.600716861929754
 30
0.0
 40
22.928203228139491
 50
252.4120462243142
 51
287.58795377568578
  0
LINE
  5
7B5D
  8
0
 10
216.47052232890519
 20
84.023366594831145
 30
0.0
 11
216.47052232890519
 21
76.744310403606846
 31
0.0
  0
LINE
  5
7B5E
  8
0
 10
223.398725559181
 20
84.023366594831145
 30
0.0
 11
223.398725559181
 21
76.744310403619579
 31
0.0
  0
LINE
  5
7B5F
  8
0
 10
237.25513201973169
 20
84.023366594831145
 30
0.0
 11
237.25513201973169
 21
76.744310403619579
 31
0.0
  0
LINE
  5
7B60
  8
0
 10
244.1833352500075
 20
84.023366594831145
 30
0.0
 11
244.1833352500075
 21
76.744310403606846
 31
0.0
  0
ARC
  5
7B61
  8
0
 10
240.71923363486979
 20
81.806488229511046
 30
0.0
 40
6.1339745957208196
 50
235.6157525287914
 51
295.61575253015661
  0
LINE
  5
7B62
  8
0
 10
244.18333525002939
 20
76.744310403619579
 30
0.0
 11
241.82692878934861
 21
75.383838499225362
 31
0.0
  0
LINE
  5
7B63
  8
0
 10
244.18333525002939
 20
84.023366594831145
 30
0.0
 11
241.82692878934861
 21
85.383838499225376
 31
0.0
  0
ARC
  5
7B64
  8
0
 10
240.71923363486979
 20
78.961188768939692
 30
0.0
 40
6.1339745957208196
 50
64.384247469843373
 51
124.3842474712085
  0
LINE
  5
7B65
  8
0
 10
218.82692878945639
 20
85.383838499225376
 30
0.0
 11
241.82692878934861
 21
85.383838499225376
 31
0.0
  0
LINE
  5
7B66
  8
0
 10
241.82692878934861
 20
75.383838499225362
 30
0.0
 11
218.82692878956419
 21
75.383838499225362
 31
0.0
  0
LINE
  5
7B67
  8
0
 10
245.32692878940239
 20
65.38383849914419
 30
0.0
 11
245.32692878940239
 21
64.786367227744094
 31
0.0
  0
ARC
  5
7B68
  8
0
 10
244.32692878940239
 20
65.38383849914419
 30
0.0
 40
1.0
 50
359.99999999999892
 51
90.0
  0
LINE
  5
7B69
  8
1
 10
108.0491418862168
 20
248.38383849914419
 30
0.0
 11
108.0491418862168
 21
37.38383849914419
 31
0.0
  0
ARC
  5
7B6A
  8
0
 10
108.0491418862139
 20
60.054104680341993
 30
0.0
 40
12.25
 50
31.11202081973067
 51
46.120122896762247
  0
LINE
  5
7B6B
  8
3
 10
116.69614188621669
 20
89.383838499144417
 30
0.0
 11
118.0491418862168
 21
87.040373756503527
 31
0.0
  0
LINE
  5
7B6C
  8
3
 10
99.402141886216882
 20
89.383838499144417
 30
0.0
 11
98.049141886216844
 21
87.040373756503527
 31
0.0
  0
LINE
  5
7B6D
  8
0
 10
118.0491418862168
 20
89.383838499144417
 30
0.0
 11
98.049141886216844
 21
89.383838499144417
 31
0.0
  0
LINE
  5
7B6E
  8
0
 10
98.049141886216844
 20
240.88383849914439
 30
0.0
 11
118.0491418862168
 21
240.88383849914419
 31
0.0
  0
LINE
  5
7B6F
  8
0
 10
115.5491418862168
 20
243.38383849914419
 30
0.0
 11
118.0491418862168
 21
240.88383849914419
 31
0.0
  0
LINE
  5
7B70
  8
0
 10
98.049141886216844
 20
240.88383849914439
 30
0.0
 11
100.5491418862168
 21
243.38383849914439
 31
0.0
  0
LINE
  5
7B71
  8
0
 10
98.049141886216844
 20
85.383838499144417
 30
0.0
 11
98.049141886216844
 21
146.3838384991669
 31
0.0
  0
LINE
  5
7B72
  8
3
 10
99.402141886216882
 20
89.383838499144417
 30
0.0
 11
99.402141886216882
 21
146.38383849916659
 31
0.0
  0
LINE
  5
7B73
  8
3
 10
116.69614188621669
 20
89.383838499144417
 30
0.0
 11
116.69614188621669
 21
146.3838384991669
 31
0.0
  0
LINE
  5
7B74
  8
0
 10
118.0491418862168
 20
85.383838499144417
 30
0.0
 11
118.0491418862168
 21
146.3838384991669
 31
0.0
  0
LINE
  5
7B75
  8
0
 10
100.5491418862168
 20
243.38383849914439
 30
0.0
 11
115.5491418862168
 21
243.38383849914419
 31
0.0
  0
ARC
  5
7B76
  8
0
 10
114.04914188625
 20
67.76503634722701
 30
0.0
 40
17.330127017333279
 50
69.743841997633851
 51
110.25615800236611
  0
LINE
  5
7B77
  8
0
 10
120.04914188626501
 20
85.095163364560364
 30
0.0
 11
119.54914188625
 21
85.38383849916373
 31
0.0
  0
LINE
  5
7B78
  8
0
 10
120.04914188626501
 20
75.672513633690301
 30
0.0
 11
119.54914188625
 21
75.383838499086906
 31
0.0
  0
ARC
  5
7B79
  8
0
 10
114.04914188625
 20
93.002640651023611
 30
0.0
 40
17.330127017333279
 50
249.74384199763389
 51
290.25615800236608
  0
LINE
  5
7B7A
  8
0
 10
120.04914188626501
 20
85.095163364560364
 30
0.0
 11
120.04914188625
 21
75.67251363368166
 31
0.0
  0
LINE
  5
7B7B
  8
0
 10
108.04914188625
 20
76.744310403519535
 30
0.0
 11
108.04914188625
 21
84.023366594731087
 31
0.0
  0
LINE
  5
7B7C
  8
0
 10
96.049141886235049
 20
85.095163364560364
 30
0.0
 11
96.049141886250027
 21
75.67251363368166
 31
0.0
  0
ARC
  5
7B7D
  8
0
 10
102.04914188625
 20
93.002640651023611
 30
0.0
 40
17.330127017333279
 50
249.74384199763389
 51
290.25615800236608
  0
LINE
  5
7B7E
  8
0
 10
96.049141886235049
 20
75.672513633690301
 30
0.0
 11
96.549141886250013
 21
75.383838499086906
 31
0.0
  0
LINE
  5
7B7F
  8
0
 10
96.049141886235049
 20
85.095163364560364
 30
0.0
 11
96.549141886250013
 21
85.38383849916373
 31
0.0
  0
ARC
  5
7B80
  8
0
 10
102.04914188625
 20
67.76503634722701
 30
0.0
 40
17.330127017333279
 50
69.743841997633851
 51
110.25615800236611
  0
LINE
  5
7B81
  8
0
 10
96.549141886183648
 20
85.383838499125304
 30
0.0
 11
119.54914188625
 21
85.38383849916373
 31
0.0
  0
LINE
  5
7B82
  8
0
 10
119.54914188625
 20
75.383838499086906
 30
0.0
 11
96.549141886183648
 21
75.383838499125304
 31
0.0
  0
LINE
  5
7B83
  8
0
 10
99.549141886216844
 20
75.383838499106204
 30
0.0
 11
99.549141886216844
 21
68.883838499120543
 31
0.0
  0
LINE
  5
7B84
  8
0
 10
116.5491418862168
 20
75.383838499106204
 30
0.0
 11
116.5491418862168
 21
68.883838499092121
 31
0.0
  0
LINE
  5
7B85
  8
0
 10
116.5491418862168
 20
68.883838499092121
 30
0.0
 11
99.549141886216844
 21
68.883838499120316
 31
0.0
  0
ARC
  5
7B86
  8
0
 10
108.0491418862139
 20
60.054104680341993
 30
0.0
 40
12.25
 50
133.87987710304881
 51
148.8879791802693
  0
LINE
  5
7B87
  8
0
 10
122.5491418862174
 20
146.3838384991671
 30
0.0
 11
93.549141886217001
 21
146.3838384991669
 31
0.0
  0
LINE
  5
7B88
  8
0
 10
93.549141886217001
 20
162.3838384991675
 30
0.0
 11
122.5491418862177
 21
162.38383849916701
 31
0.0
  0
LINE
  5
7B89
  8
0
 10
122.549141886217
 20
162.3838384991675
 30
0.0
 11
125.36964996190559
 21
160.75541740241721
 31
0.0
  0
ARC
  5
7B8A
  8
0
 10
121.0395229429832
 20
154.42769511929609
 30
0.0
 40
7.6674682452751766
 50
64.384247470460906
 51
124.38424746800609
  0
ARC
  5
7B8B
  8
0
 10
121.0395229429832
 20
154.42769511929609
 30
0.0
 40
7.6674682452751766
 50
55.61575253199382
 51
55.61575253199382
  0
ARC
  5
7B8C
  8
0
 10
121.0395229429832
 20
154.33998187903819
 30
0.0
 40
7.6674682452751766
 50
304.38424746800621
 51
304.38424746800621
  0
ARC
  5
7B8D
  8
0
 10
121.0395229429832
 20
154.33998187903819
 30
0.0
 40
7.6674682452751766
 50
235.61575253199399
 51
295.61575252953912
  0
LINE
  5
7B8E
  8
0
 10
122.549141886217
 20
146.3838384991669
 30
0.0
 11
125.36964996190559
 21
148.0122595959173
 31
0.0
  0
LINE
  5
7B8F
  8
0
 10
125.3696499619054
 20
160.75541740241721
 30
0.0
 11
125.3696499621891
 21
148.01225959608101
 31
0.0
  0
LINE
  5
7B90
  8
0
 10
116.7093959240612
 20
148.01225959594069
 30
0.0
 11
116.70939592390719
 21
160.75541740241721
 31
0.0
  0
ARC
  5
7B91
  8
0
 10
108.0491418862904
 20
175.33276767115541
 30
0.0
 40
28.660254037392811
 50
252.41204622556921
 51
287.58795377413009
  0
LINE
  5
7B92
  8
0
 10
99.388887848372804
 20
148.01225959594069
 30
0.0
 11
99.388887848526721
 21
160.75541740241721
 31
0.0
  0
LINE
  5
7B93
  8
0
 10
90.728633810528606
 20
160.75541740241721
 30
0.0
 11
90.728633810244844
 21
148.01225959608101
 31
0.0
  0
LINE
  5
7B94
  8
0
 10
93.549141886217001
 20
146.3838384991669
 30
0.0
 11
90.728633810528351
 21
148.0122595959173
 31
0.0
  0
ARC
  5
7B95
  8
0
 10
95.058760829450819
 20
154.33998187903819
 30
0.0
 40
7.6674682452751766
 50
244.38424747046091
 51
304.38424746800621
  0
ARC
  5
7B96
  8
0
 10
95.058760829450819
 20
154.33998187903819
 30
0.0
 40
7.6674682452751766
 50
235.61575253199399
 51
235.61575253199399
  0
ARC
  5
7B97
  8
0
 10
108.0491418862904
 20
133.4349093271787
 30
0.0
 40
28.660254037392811
 50
72.412046225870014
 51
107.5879537744307
  0
ARC
  5
7B98
  8
0
 10
95.058760829450819
 20
154.42769511929609
 30
0.0
 40
7.6674682452751766
 50
124.38424746800609
 51
124.38424746800609
  0
ARC
  5
7B99
  8
0
 10
95.058760829450819
 20
154.42769511929609
 30
0.0
 40
7.6674682452751766
 50
55.61575253199382
 51
115.61575252953899
  0
LINE
  5
7B9A
  8
0
 10
93.549141886217001
 20
162.3838384991675
 30
0.0
 11
90.728633810528351
 21
160.75541740241721
 31
0.0
  0
LINE
  5
7B9B
  8
3
 10
116.69614188621669
 20
162.3838384991673
 30
0.0
 11
116.69614188621669
 21
242.23683849914431
 31
0.0
  0
LINE
  5
7B9C
  8
0
 10
118.0491418862168
 20
162.38383849916701
 30
0.0
 11
118.0491418862168
 21
240.88383849914419
 31
0.0
  0
LINE
  5
7B9D
  8
0
 10
98.049141886216844
 20
162.3838384991673
 30
0.0
 11
98.049141886216844
 21
240.88383849914439
 31
0.0
  0
LINE
  5
7B9E
  8
3
 10
99.402141886216882
 20
162.3838384991673
 30
0.0
 11
99.402141886216882
 21
242.23683849914451
 31
0.0
  0
LINE
  5
7B9F
  8
1
 10
135.0491418862168
 20
338.51438598292742
 30
0.0
 11
135.0491418862168
 21
324.01438598292742
 31
0.0
  0
LINE
  5
7BA0
  8
1
 10
81.049141886216816
 20
338.51438598292742
 30
0.0
 11
81.049141886216816
 21
324.01438598292742
 31
0.0
  0
LINE
  5
7BA1
  8
0
 10
96.790811637019047
 20
341.76438598292731
 30
0.0
 11
81.049141886216816
 21
341.76438598292731
 31
0.0
  0
LINE
  5
7BA2
  8
0
 10
96.790811637019374
 20
320.76438598292742
 30
0.0
 11
81.049141886216816
 21
320.76438598292742
 31
0.0
  0
ARC
  5
7BA3
  8
0
 10
81.049141886216816
 20
331.26438598292742
 30
0.0
 40
10.5
 50
90.0
 51
270.0
  0
CIRCLE
  5
7BA4
  8
2
 10
81.049141886216816
 20
331.26438598292742
 30
0.0
 40
4.25
  0
ARC
  5
7BA5
  8
0
 10
108.0491418862168
 20
331.26438598292742
 30
0.0
 40
33.5
 50
15.759509562175911
 51
164.24049043782409
  0
ARC
  5
7BA6
  8
0
 10
108.0491418862168
 20
331.26438598292742
 30
0.0
 40
27.5
 50
202.44635058144991
 51
337.55364941855021
  0
ARC
  5
7BA7
  8
0
 10
108.0491418862168
 20
331.26438598292742
 30
0.0
 40
20.850443051075668
 50
210.2375607467059
 51
329.76243925329419
  0
ARC
  5
7BA8
  8
0
 10
135.0491418862168
 20
331.26438598292742
 30
0.0
 40
10.5
 50
270.0
 51
90.0
  0
LINE
  5
7BA9
  8
0
 10
135.0491418862168
 20
320.76438598292742
 30
0.0
 11
119.3074721354144
 21
320.76438598292742
 31
0.0
  0
LINE
  5
7BAA
  8
0
 10
135.0491418862168
 20
341.76438598292731
 30
0.0
 11
119.3074721354146
 21
341.76438598292731
 31
0.0
  0
CIRCLE
  5
7BAB
  8
2
 10
135.0491418862168
 20
331.26438598292742
 30
0.0
 40
4.25
  0
LINE
  5
7BB2
  8
1
 10
81.049141886216816
 20
66.383838499144176
 30
0.0
 11
81.049141886216816
 21
41.383838499144183
 31
0.0
  0
LINE
  5
7BB3
  8
1
 10
135.0491418862168
 20
66.383838499144176
 30
0.0
 11
135.0491418862168
 21
41.383838499144183
 31
0.0
  0
LINE
  5
7BB4
  8
0
 10
93.049141886216844
 20
65.38383849914419
 30
0.0
 11
70.54914188621683
 21
65.38383849914419
 31
0.0
  0
LINE
  5
7BB5
  8
0
 10
145.5491418862168
 20
52.876880727217241
 30
0.0
 11
145.5491418862168
 21
65.38383849914419
 31
0.0
  0
LINE
  5
7BB6
  8
0
 10
70.54914188621683
 20
52.87688072721722
 30
0.0
 11
70.54914188621683
 21
65.38383849914419
 31
0.0
  0
LINE
  5
7BB7
  8
0
 10
145.5491418862168
 20
65.38383849914419
 30
0.0
 11
123.0491418862168
 21
65.38383849914419
 31
0.0
  0
LINE
  5
7BB8
  8
0
 10
270.32692878940247
 20
42.38383849914419
 30
0.0
 11
190.32692878940239
 21
42.38383849914419
 31
0.0
  0
LINE
  5
7BB9
  8
0
 10
270.32692878940247
 20
42.38383849914419
 30
0.0
 11
270.32692878940247
 21
51.228543167433941
 31
0.0
  0
LINE
  5
7BBB
  8
0
 10
263.82692878940247
 20
54.41534226567876
 30
0.0
 11
239.42553508313429
 21
54.41534226567876
 31
0.0
  0
LINE
  5
7BBC
  8
0
 10
257.82692878940247
 20
58.786367227744101
 30
0.0
 11
240.8269287894025
 21
58.786367227744122
 31
0.0
  0
LINE
  5
7BBD
  8
0
 10
251.1773718404782
 20
61.682577097404298
 30
0.0
 11
240.8269287894025
 21
61.682577097404298
 31
0.0
  0
LINE
  5
7BBE
  8
0
 10
244.32692878940239
 20
66.383838499144176
 30
0.0
 11
216.3269287894025
 21
66.383838499144176
 31
0.0
  0
LINE
  5
7BBF
  8
0
 10
263.82692878940247
 20
54.41534226567876
 30
0.0
 11
263.82692878940247
 21
55.256729346426141
 31
0.0
  0
LINE
  5
7BC0
  8
0
 10
263.82692878940247
 20
54.41534226567876
 30
0.0
 11
269.68590786871152
 21
52.161888773636854
 31
0.0
  0
LINE
  5
7BC1
  8
0
 10
257.82692878940247
 20
58.786367227744101
 30
0.0
 11
263.2624049717906
 21
56.156929598910551
 31
0.0
  0
LINE
  5
7BC2
  8
0
 10
251.1773718404782
 20
61.682577097404298
 30
0.0
 11
257.05502790287062
 21
60.305588678018111
 31
0.0
  0
LINE
  5
7BC3
  8
0
 10
245.32692878940239
 20
64.786367227744094
 30
0.0
 11
240.8269287894025
 21
64.786367227744094
 31
0.0
  0
LINE
  5
7BC4
  8
0
 10
245.3269287894025
 20
64.786367227744094
 30
0.0
 11
250.48709233919249
 21
63.105506942952957
 31
0.0
  0
LINE
  5
7BC5
  8
0
 10
257.82692878940247
 20
58.786367227744101
 30
0.0
 11
257.82692878940247
 21
59.331950760496852
 31
0.0
  0
LINE
  5
7BC6
  8
0
 10
251.1773718404782
 20
61.682577097404298
 30
0.0
 11
251.1773718404782
 21
62.154679296806648
 31
0.0
  0
ARC
  5
7BC7
  8
0
 10
250.17737184047809
 20
62.154679296806648
 30
0.0
 40
1.0
 50
0.0
 51
71.957612741641853
  0
ARC
  5
7BC8
  8
0
 10
256.82692878940247
 20
59.331950760496852
 30
0.0
 40
1.0
 50
0.0
 51
76.814815600247044
  0
ARC
  5
7BC9
  8
0
 10
269.32692878940259
 20
51.228543167433941
 30
0.0
 40
1.0
 50
0.0
 51
68.962488974578235
  0
ARC
  5
7BCA
  8
0
 10
262.82692878940247
 20
55.256729346426141
 30
0.0
 40
1.0
 50
0.0
 51
64.18440202834887
  0
ARC
  5
7BCC
  8
0
 10
197.82692878940239
 20
55.256729346426141
 30
0.0
 40
1.0
 50
115.8155979716511
 51
180.0
  0
ARC
  5
7BCD
  8
0
 10
191.32692878940239
 20
51.228543167433941
 30
0.0
 40
1.0
 50
111.03751102542169
 51
180.0
  0
ARC
  5
7BCE
  8
0
 10
203.82692878940239
 20
59.331950760496852
 30
0.0
 40
1.0
 50
103.1851843997529
 51
180.0
  0
ARC
  5
7BCF
  8
0
 10
210.4764857383268
 20
62.154679296806648
 30
0.0
 40
1.0
 50
108.0423872583581
 51
180.0
  0
ARC
  5
7BD0
  8
0
 10
216.3269287894025
 20
65.38383849914419
 30
0.0
 40
1.0
 50
90.0
 51
180.00000000000099
  0
LINE
  5
7BD1
  8
0
 10
209.4764857383268
 20
61.682577097404298
 30
0.0
 11
209.4764857383268
 21
62.154679296806648
 31
0.0
  0
LINE
  5
7BD2
  8
0
 10
202.82692878940239
 20
58.786367227744101
 30
0.0
 11
202.82692878940239
 21
59.331950760496852
 31
0.0
  0
LINE
  5
7BD3
  8
0
 10
215.3269287894025
 20
65.38383849914419
 30
0.0
 11
215.3269287894025
 21
64.786367227744094
 31
0.0
  0
LINE
  5
7BD4
  8
0
 10
215.3269287894025
 20
64.786367227744094
 30
0.0
 11
210.1667652396124
 21
63.105506942952957
 31
0.0
  0
LINE
  5
7BD5
  8
0
 10
209.4764857383268
 20
61.682577097404298
 30
0.0
 11
203.59882967593441
 21
60.305588678018111
 31
0.0
  0
LINE
  5
7BD6
  8
0
 10
202.8269287894025
 20
58.786367227744101
 30
0.0
 11
197.3914526070144
 21
56.156929598910551
 31
0.0
  0
LINE
  5
7BD7
  8
0
 10
196.82692878940239
 20
54.41534226567876
 30
0.0
 11
190.96794971009351
 21
52.161888773636854
 31
0.0
  0
LINE
  5
7BD8
  8
0
 10
196.82692878940239
 20
54.41534226567876
 30
0.0
 11
196.82692878940239
 21
55.256729346426141
 31
0.0
  0
LINE
  5
7BD9
  8
0
 10
190.32692878940239
 20
42.38383849914419
 30
0.0
 11
190.32692878940239
 21
51.228543167433941
 31
0.0
  0
ARC
  5
7BDB
  8
0
 10
108.0491418862168
 20
331.26438598292742
 30
0.0
 40
20.850443051075668
 50
30.237560746705888
 51
149.7624392532941
  0
ARC
  5
7BDC
  8
0
 10
108.0491418862168
 20
331.26438598292742
 30
0.0
 40
27.5
 50
22.44635058144987
 51
157.55364941855009
  0
ARC
  5
7BDD
  8
0
 10
108.0491418862168
 20
331.26438598292742
 30
0.0
 40
33.5
 50
195.75950956217591
 51
344.24049043782401
  0
LINE
  5
7BDF
  8
0
 10
68.049141886216773
 20
42.38383849914419
 30
0.0
 11
68.049141886216717
 21
51.228543167433941
 31
0.0
  0
LINE
  5
7BE0
  8
0
 10
74.54914188621683
 20
54.41534226567876
 30
0.0
 11
74.54914188621683
 21
55.256729346426141
 31
0.0
  0
LINE
  5
7BE1
  8
0
 10
74.54914188621683
 20
54.41534226567876
 30
0.0
 11
68.690162806907892
 21
52.161888773636854
 31
0.0
  0
LINE
  5
7BE2
  8
0
 10
80.54914188621683
 20
58.786367227744101
 30
0.0
 11
75.11366570382873
 21
56.156929598910551
 31
0.0
  0
LINE
  5
7BE3
  8
0
 10
87.198698835141158
 20
61.682577097404298
 30
0.0
 11
81.321042772748669
 21
60.305588678018111
 31
0.0
  0
LINE
  5
7BE4
  8
0
 10
93.049141886216844
 20
64.786367227744094
 30
0.0
 11
87.888978336426817
 21
63.105506942952957
 31
0.0
  0
LINE
  5
7BE5
  8
0
 10
93.049141886216844
 20
65.38383849914419
 30
0.0
 11
93.049141886216844
 21
64.786367227744094
 31
0.0
  0
LINE
  5
7BE6
  8
0
 10
80.54914188621683
 20
58.786367227744101
 30
0.0
 11
80.54914188621683
 21
59.331950760496852
 31
0.0
  0
LINE
  5
7BE7
  8
0
 10
87.198698835141158
 20
61.682577097404298
 30
0.0
 11
87.198698835141158
 21
62.154679296806648
 31
0.0
  0
ARC
  5
7BE8
  8
0
 10
94.049141886216844
 20
65.38383849914419
 30
0.0
 40
1.0
 50
90.0
 51
180.00000000000099
  0
ARC
  5
7BE9
  8
0
 10
88.198698835141144
 20
62.154679296806648
 30
0.0
 40
1.0
 50
108.0423872583581
 51
180.0
  0
ARC
  5
7BEA
  8
0
 10
81.54914188621683
 20
59.331950760496852
 30
0.0
 40
1.0
 50
103.1851843997529
 51
180.0
  0
ARC
  5
7BEB
  8
0
 10
69.049141886216717
 20
51.228543167433941
 30
0.0
 40
1.0
 50
111.03751102542169
 51
180.0
  0
ARC
  5
7BEC
  8
0
 10
75.54914188621683
 20
55.256729346426141
 30
0.0
 40
1.0
 50
115.8155979716511
 51
180.0
  0
ARC
  5
7BEE
  8
0
 10
140.5491418862168
 20
55.256729346426141
 30
0.0
 40
1.0
 50
0.0
 51
64.18440202834887
  0
ARC
  5
7BEF
  8
0
 10
147.0491418862168
 20
51.228543167433941
 30
0.0
 40
1.0
 50
0.0
 51
68.962488974578235
  0
ARC
  5
7BF0
  8
0
 10
134.5491418862168
 20
59.331950760496852
 30
0.0
 40
1.0
 50
0.0
 51
76.814815600247044
  0
ARC
  5
7BF1
  8
0
 10
127.8995849372925
 20
62.154679296806648
 30
0.0
 40
1.0
 50
0.0
 51
71.957612741641853
  0
ARC
  5
7BF2
  8
0
 10
122.0491418862168
 20
65.38383849914419
 30
0.0
 40
1.0
 50
359.99999999999892
 51
90.0
  0
LINE
  5
7BF3
  8
0
 10
128.8995849372925
 20
61.682577097404298
 30
0.0
 11
128.8995849372925
 21
62.154679296806648
 31
0.0
  0
LINE
  5
7BF4
  8
0
 10
135.5491418862168
 20
58.786367227744101
 30
0.0
 11
135.5491418862168
 21
59.331950760496852
 31
0.0
  0
LINE
  5
7BF5
  8
0
 10
123.0491418862168
 20
65.38383849914419
 30
0.0
 11
123.0491418862168
 21
64.786367227744094
 31
0.0
  0
LINE
  5
7BF6
  8
0
 10
123.0491418862168
 20
64.786367227744094
 30
0.0
 11
128.2093054360069
 21
63.105506942952957
 31
0.0
  0
LINE
  5
7BF7
  8
0
 10
123.0491418862168
 20
64.786367227744094
 30
0.0
 11
93.049141886216844
 21
64.786367227744094
 31
0.0
  0
LINE
  5
7BF8
  8
0
 10
128.8995849372925
 20
61.682577097404298
 30
0.0
 11
134.77724099968481
 21
60.305588678018111
 31
0.0
  0
LINE
  5
7BF9
  8
0
 10
135.5491418862168
 20
58.786367227744101
 30
0.0
 11
140.9846180686049
 21
56.156929598910551
 31
0.0
  0
LINE
  5
7BFA
  8
0
 10
141.5491418862168
 20
54.41534226567876
 30
0.0
 11
147.4081209655258
 21
52.161888773636854
 31
0.0
  0
LINE
  5
7BFB
  8
0
 10
141.5491418862168
 20
54.41534226567876
 30
0.0
 11
141.5491418862168
 21
55.256729346426141
 31
0.0
  0
LINE
  5
7BFC
  8
0
 10
122.0491418862168
 20
66.383838499144176
 30
0.0
 11
94.049141886216844
 21
66.383838499144176
 31
0.0
  0
LINE
  5
7BFD
  8
0
 10
128.8995849372925
 20
61.682577097404298
 30
0.0
 11
87.198698835141158
 21
61.682577097404298
 31
0.0
  0
LINE
  5
7BFE
  8
0
 10
135.5491418862168
 20
58.786367227744101
 30
0.0
 11
80.54914188621683
 21
58.786367227744101
 31
0.0
  0
LINE
  5
7BFF
  8
0
 10
141.5491418862168
 20
54.41534226567876
 30
0.0
 11
74.54914188621683
 21
54.41534226567876
 31
0.0
  0
LINE
  5
7C00
  8
1
 10
153.76342760050261
 20
331.26438598292742
 30
0.0
 11
62.334856171931037
 21
331.26438598292742
 31
0.0
  0
LINE
  5
7C01
  8
1
 10
108.0491418862168
 20
376.9786716972136
 30
0.0
 11
108.0491418862168
 21
285.55010026864181
 31
0.0
  0
CIRCLE
  5
7C02
  8
0
 10
108.0491418862168
 20
331.26438598292742
 30
0.0
 40
40.00000000000005
  0
LINE
  5
7C04
  8
0
 10
148.0491418862168
 20
42.38383849914419
 30
0.0
 11
148.0491418862168
 21
51.228543167433941
 31
0.0
  0
LINE
  5
7C05
  8
0
 10
148.0491418862168
 20
42.38383849914419
 30
0.0
 11
68.049141886216773
 21
42.38383849914419
 31
0.0
  0
POLYLINE
  5
7D49
  8
0
 66
     1
 10
0.0
 20
0.0
 30
0.0
 70
   128
  0
VERTEX
  5
7FC1
  8
0
 10
239.42553508313449
 20
54.415342265678809
 30
0.0
  0
VERTEX
  5
7FC2
  8
0
 10
238.43073319488991
 20
53.978160592183769
 30
0.0
  0
VERTEX
  5
7FC3
  8
0
 10
237.2025243950666
 20
53.605377599283933
 30
0.0
  0
VERTEX
  5
7FC4
  8
0
 10
235.7651136337636
 20
53.303938256305571
 30
0.0
  0
VERTEX
  5
7FC5
  8
0
 10
234.1628224190749
 20
53.079278372745932
 30
0.0
  0
VERTEX
  5
7FC6
  8
0
 10
232.48812544464161
 20
52.939552938921047
 30
0.0
  0
VERTEX
  5
7FC7
  8
0
 10
230.74957688781211
 20
52.879237453785997
 30
0.0
  0
VERTEX
  5
7FC8
  8
0
 10
229.03783461650849
 20
52.899142315570259
 30
0.0
  0
VERTEX
  5
7FC9
  8
0
 10
227.36260679323411
 20
52.99565073062098
 30
0.0
  0
VERTEX
  5
7FCA
  8
0
 10
225.77722052272631
 20
53.167222349415447
 30
0.0
  0
VERTEX
  5
7FCB
  8
0
 10
224.3171314742365
 20
53.41011876074765
 30
0.0
  0
VERTEX
  5
7FCC
  8
0
 10
223.00270350752359
 20
53.7264877475194
 30
0.0
  0
VERTEX
  5
7FCD
  8
0
 10
221.88800974313969
 20
54.1068670345431
 30
0.0
  0
VERTEX
  5
7FCE
  8
0
 10
221.22832249567051
 20
54.415342265678809
 30
0.0
  0
SEQEND
  5
7FCF
  8
0
  0
ARC
  5
7D4A
  8
0
 10
240.64716021571849
 20
55.284390555135012
 30
0.0
 40
1.2219382582717651
 50
134.43366307174659
 51
181.29712437963821
  0
LINE
  5
7D4B
  8
0
 10
239.42553508313449
 20
55.256729346426198
 30
0.0
 11
239.42553508313449
 21
54.415342265678809
 31
0.0
  0
LINE
  5
7D4C
  8
0
 10
221.22832249567051
 20
54.415342265678809
 30
0.0
 11
221.22832249567051
 21
55.256729346426198
 31
0.0
  0
ARC
  5
7D4D
  8
0
 10
220.0304240746874
 20
55.294041671419322
 30
0.0
 40
1.198479385133508
 50
358.21591903931522
 51
46.053293509296253
  0
ARC
  5
7D4E
  8
0
 10
222.27031265904
 20
58.155333325733622
 30
0.0
 40
2.4446930022307041
 50
181.87515281252399
 51
234.82990765753911
  0
LINE
  5
7D4F
  8
0
 10
219.8269287894025
 20
65.38383849914419
 30
0.0
 11
219.8269287894025
 21
58.075338696215219
 31
0.0
  0
LINE
  5
7D50
  8
0
 10
240.8269287894025
 20
65.38383849914419
 30
0.0
 11
219.8269287894025
 21
65.38383849914419
 31
0.0
  0
LINE
  5
7D51
  8
0
 10
240.8269287894025
 20
65.38383849914419
 30
0.0
 11
240.8269287894025
 21
58.075338696215219
 31
0.0
  0
ARC
  5
7D52
  8
0
 10
238.27109296536489
 20
58.216015519952393
 30
0.0
 40
2.5597044220322691
 50
306.44540145010268
 51
356.84953807983788
  0
LINE
  5
7D5A
  8
0
 10
219.8269287894025
 20
64.786367227744094
 30
0.0
 11
215.3269287894025
 21
64.786367227744094
 31
0.0
  0
LINE
  5
7D5D
  8
0
 10
219.8269287894025
 20
61.682577097404298
 30
0.0
 11
209.4764857383268
 21
61.682577097404298
 31
0.0
  0
LINE
  5
7D5E
  8
0
 10
219.8269287894025
 20
58.786367227744122
 30
0.0
 11
202.82692878940239
 21
58.786367227744101
 31
0.0
  0
LINE
  5
7D5F
  8
0
 10
221.2283224956706
 20
54.41534226567876
 30
0.0
 11
196.82692878940239
 21
54.41534226567876
 31
0.0
  0
TEXT
  5
7FA4
  8
0
 62
     3
 10
0.0
 20
0.0
 30
0.0
 40
10.0
  1
LVF80L20C-SUS
  7
STANDARD1
  0
ENDSEC
  0
EOF
