  0
SECTION
  2
HEADER
  9
$ACADVER
  1
AC1009
  9
$INSBASE
 10
0.0
 20
0.0
 30
0.0
  9
$EXTMIN
 10
0.0
 20
-2.960436562073669
 30
0.0
  9
$EXTMAX
 10
283.6694653757346
 20
259.62051982002129
 30
0.0
  9
$LIMMIN
 10
0.0
 20
0.0
  9
$LIMMAX
 10
375.0
 20
270.0
  9
$ORTHOMODE
 70
     1
  9
$REGENMODE
 70
     1
  9
$FILLMODE
 70
     1
  9
$QTEXTMODE
 70
     0
  9
$MIRRTEXT
 70
     0
  9
$DRAGMODE
 70
     2
  9
$LTSCALE
 40
6.0
  9
$OSMODE
 70
  3071
  9
$ATTMODE
 70
     1
  9
$TEXTSIZE
 40
0.2
  9
$TRACEWID
 40
0.05
  9
$TEXTSTYLE
  7
STANDARD
  9
$CLAYER
  8
0
  9
$CELTYPE
  6
BYLAYER
  9
$CECOLOR
 62
   256
  9
$DIMSCALE
 40
1.0
  9
$DIMASZ
 40
3.0
  9
$DIMEXO
 40
1.0
  9
$DIMDLI
 40
6.0
  9
$DIMRND
 40
0.0
  9
$DIMDLE
 40
0.0
  9
$DIMEXE
 40
1.0
  9
$DIMTP
 40
495.0
  9
$DIMTM
 40
0.0
  9
$DIMTXT
 40
3.0
  9
$DIMCEN
 40
0.0
  9
$DIMTSZ
 40
0.0
  9
$DIMTOL
 70
     0
  9
$DIMLIM
 70
     0
  9
$DIMTIH
 70
     0
  9
$DIMTOH
 70
     0
  9
$DIMSE1
 70
     0
  9
$DIMSE2
 70
     0
  9
$DIMTAD
 70
     1
  9
$DIMZIN
 70
     0
  9
$DIMBLK
  1

  9
$DIMASO
 70
     0
  9
$DIMSHO
 70
     0
  9
$DIMPOST
  1

  9
$DIMAPOST
  1

  9
$DIMALT
 70
     0
  9
$DIMALTD
 70
     2
  9
$DIMALTF
 40
25.399999999999999
  9
$DIMLFAC
 40
1.0
  9
$DIMTOFL
 70
     1
  9
$DIMTVP
 40
0.0
  9
$DIMTIX
 70
     1
  9
$DIMSOXD
 70
     0
  9
$DIMSAH
 70
     0
  9
$DIMBLK1
  1

  9
$DIMBLK2
  1

  9
$DIMSTYLE
  2
STANDARD
  9
$DIMCLRD
 70
     0
  9
$DIMCLRE
 70
     0
  9
$DIMCLRT
 70
     4
  9
$DIMTFAC
 40
1.0
  9
$DIMGAP
 40
1.0
  9
$LUNITS
 70
     2
  9
$LUPREC
 70
     4
  9
$SKETCHINC
 40
0.1
  9
$FILLETRAD
 40
2.0
  9
$AUNITS
 70
     0
  9
$AUPREC
 70
     0
  9
$MENU
  1
C:\R13\WIN\SUPPORT\ACAD-I
  9
$ELEVATION
 40
0.0
  9
$PELEVATION
 40
0.0
  9
$THICKNESS
 40
0.0
  9
$LIMCHECK
 70
     0
  9
$BLIPMODE
 70
     0
  9
$CHAMFERA
 40
0.0
  9
$CHAMFERB
 40
0.0
  9
$SKPOLY
 70
     0
  9
$TDCREATE
 40
2451962.47185507
  9
$TDUPDATE
 40
2456597.6176192132
  9
$TDINDWG
 40
0.0327593866
  9
$TDUSRTIMER
 40
2456555.0124203479
  9
$USRTIMER
 70
     1
  9
$ANGBASE
 50
0.0
  9
$ANGDIR
 70
     0
  9
$PDMODE
 70
     0
  9
$PDSIZE
 40
0.0
  9
$PLINEWID
 40
0.0
  9
$COORDS
 70
     1
  9
$SPLFRAME
 70
     0
  9
$SPLINETYPE
 70
     6
  9
$SPLINESEGS
 70
     8
  9
$ATTDIA
 70
     0
  9
$ATTREQ
 70
     1
  9
$HANDLING
 70
     1
  9
$HANDSEED
  5
6E0C
  9
$SURFTAB1
 70
     6
  9
$SURFTAB2
 70
     6
  9
$SURFTYPE
 70
     6
  9
$SURFU
 70
     6
  9
$SURFV
 70
     6
  9
$UCSNAME
  2

  9
$UCSORG
 10
0.0
 20
0.0
 30
0.0
  9
$UCSXDIR
 10
1.0
 20
0.0
 30
0.0
  9
$UCSYDIR
 10
0.0
 20
1.0
 30
0.0
  9
$PUCSNAME
  2

  9
$PUCSORG
 10
0.0
 20
0.0
 30
0.0
  9
$PUCSXDIR
 10
1.0
 20
0.0
 30
0.0
  9
$PUCSYDIR
 10
0.0
 20
1.0
 30
0.0
  9
$USERI1
 70
     4
  9
$USERI2
 70
     1
  9
$USERI3
 70
     0
  9
$USERI4
 70
     0
  9
$USERI5
 70
     0
  9
$USERR1
 40
1.0
  9
$USERR2
 40
3.0
  9
$USERR3
 40
3.0
  9
$USERR4
 40
3.0
  9
$USERR5
 40
10.0
  9
$WORLDVIEW
 70
     1
  9
$SHADEDGE
 70
     3
  9
$SHADEDIF
 70
    70
  9
$TILEMODE
 70
     1
  9
$MAXACTVP
 70
    16
  9
$PLIMCHECK
 70
     0
  9
$PEXTMIN
 10
1.0000000000000000E+020
 20
1.0000000000000000E+020
 30
1.0000000000000000E+020
  9
$PEXTMAX
 10
-1.0000000000000000E+020
 20
-1.0000000000000000E+020
 30
-1.0000000000000000E+020
  9
$PLIMMIN
 10
0.0
 20
0.0
  9
$PLIMMAX
 10
12.0
 20
9.0
  9
$UNITMODE
 70
     0
  9
$VISRETAIN
 70
     0
  9
$PLINEGEN
 70
     0
  9
$PSLTSCALE
 70
     0
  0
ENDSEC
  0
SECTION
  2
TABLES
  0
TABLE
  2
VPORT
 70
     1
  0
VPORT
  2
*ACTIVE
 70
     0
 10
0.0
 20
0.0
 11
1.0
 21
1.0
 12
187.49427839065231
 22
134.10366293909439
 13
0.0
 23
0.0
 14
10.0
 24
10.0
 15
10.0
 25
10.0
 16
0.0
 26
0.0
 36
1.0
 17
0.0
 27
0.0
 37
0.0
 40
277.29405978699532
 41
2.304913294797688
 42
50.0
 43
0.0
 44
0.0
 50
0.0
 51
0.0
 71
    16
 72
   100
 73
     1
 74
     0
 75
     0
 76
     0
 77
     0
 78
     0
  0
ENDTAB
  0
TABLE
  2
LTYPE
 70
     4
  0
LTYPE
  2
CONTINUOUS
 70
     0
  3
Solid Line
 72
    65
 73
     0
 40
0.0
  0
LTYPE
  2
PHANTOM2
 70
     0
  3
___ _ _ ___ _ _ ___ _ _ ___ _ _
 72
    65
 73
     6
 40
1.25
 49
0.625
 49
-0.125
 49
0.125
 49
-0.125
 49
0.125
 49
-0.125
  0
LTYPE
  2
CENTER
 70
     0
  3
____ _ ____ _ ____ _ ____ _ ____ _ ____ _ ____
 72
    65
 73
     4
 40
2.0
 49
1.25
 49
-0.25
 49
0.25
 49
-0.25
  0
LTYPE
  2
HIDDEN
 70
     0
  3
_ _ _ _ _ _ _ _ _ _ _ _ _ _ _ _ _ _ _ _ _ _ _
 72
    65
 73
     2
 40
0.375
 49
0.25
 49
-0.125
  0
ENDTAB
  0
TABLE
  2
LAYER
 70
     5
  0
LAYER
  2
0
 70
     0
 62
     7
  6
CONTINUOUS
  0
LAYER
  2
1
 70
     0
 62
     1
  6
CENTER
  0
LAYER
  2
3
 70
     0
 62
     3
  6
CONTINUOUS
  0
LAYER
  2
2
 70
     0
 62
     2
  6
HIDDEN
  0
LAYER
  2
DEFPOINTS
 70
     0
 62
     7
  6
CONTINUOUS
  0
ENDTAB
  0
TABLE
  2
STYLE
 70
     3
  0
STYLE
  2
STANDARD
 70
     0
 40
0.0
 41
1.0
 50
0.0
 71
     0
 42
0.2
  3
SIMPLEX
  4
BIGFONT
  0
STYLE
  2
ANNOTATIVE
 70
     0
 40
0.0
 41
1.0
 50
0.0
 71
     0
 42
0.2
  3
txt
  4

  0
STYLE
  2
STANDARD1
 70
     0
 40
0.0
 41
1.0
 50
0.0
 71
     0
 42
3.0
  3
txt
  4

  0
ENDTAB
  0
TABLE
  2
VIEW
 70
     0
  0
ENDTAB
  0
TABLE
  2
UCS
 70
     0
  0
ENDTAB
  0
TABLE
  2
APPID
 70
    29
  0
APPID
  2
ACAD
 70
     0
  0
APPID
  2
ACADANNOTATIVE
 70
     0
  0
APPID
  2
GENIUS_GENOREF_13
 70
     0
  0
APPID
  2
GENIUS_GENOENT_13
 70
     0
  0
APPID
  2
GENIUS_GENBH_13
 70
     0
  0
APPID
  2
GENIUS_GENOBJ_13
 70
     0
  0
APPID
  2
GENIUS_GENODEF_13
 70
     0
  0
APPID
  2
GENIUS_GENOLIS_13
 70
     0
  0
APPID
  2
GENIUS_GENOBJ-NBEHI-BHF_13
 70
     0
  0
APPID
  2
GENIUS_GENOBJ-NBEHI-BHB_13
 70
     0
  0
APPID
  2
GENIUS_GENOBJ-F-PART_13
 70
     0
  0
APPID
  2
GENIUS_GEFSTDP_13
 70
     0
  0
APPID
  2
GENIUS_GENOBJ-N-RSSYM_13
 70
     0
  0
APPID
  2
GENIUS_GENSYMENT_13
 70
     0
  0
APPID
  2
GENIUS_GENOBJ-N-TIT_13
 70
     0
  0
APPID
  2
GENIUS_GENTITLE_13
 70
     0
  0
APPID
  2
GENIUS_GENZVEED_13
 70
     0
  0
APPID
  2
GENIUS_GENOBJ-N-LEADER_13
 70
     0
  0
APPID
  2
GENIUS_GENOBJ-N-FIL_13
 70
     0
  0
APPID
  2
GENIUS_GENOBJ-N-SEC_13
 70
     0
  0
APPID
  2
GENIUS_GENOBJ-N-CRS_13
 70
     0
  0
APPID
  2
GENIUS_GENOBJ-N-ZOO_13
 70
     0
  0
APPID
  2
GENIUS_GENZOO_13
 70
     0
  0
APPID
  2
GENIUS_GENOBJ-F-TOL_13
 70
     0
  0
APPID
  2
GENIUS_GENFIL_13
 70
     0
  0
APPID
  2
GENIUS_GENOBJ-N-CHA_13
 70
     0
  0
APPID
  2
ACAD_EXEMPT_FROM_CAD_STANDARDS
 70
     0
  0
APPID
  2
ACAD_MLEADERVER
 70
     0
  0
APPID
  2
ACAD_NAV_VCDISPLAY
 70
     0
  0
ENDTAB
  0
TABLE
  2
DIMSTYLE
 70
     2
  0
DIMSTYLE
  2
STANDARD
 70
     0
  3

  4

  5

  6

  7

 40
1.0
 41
0.18
 42
0.0625
 43
0.38
 44
0.18
 45
0.0
 46
0.0
 47
0.0
 48
0.0
140
0.18
141
0.09
142
0.0
143
25.399999999999999
144
1.0
145
0.0
146
1.0
147
0.09
 71
     0
 72
     0
 73
     1
 74
     1
 75
     0
 76
     0
 77
     0
 78
     0
170
     0
171
     2
172
     0
173
     0
174
     0
175
     0
176
     0
177
     0
178
     0
  0
DIMSTYLE
  2
ANNOTATIVE
 70
     0
  3

  4

  5

  6

  7

 40
1.0
 41
0.18
 42
0.0625
 43
0.38
 44
0.18
 45
0.0
 46
0.0
 47
0.0
 48
0.0
140
0.18
141
0.09
142
0.0
143
25.399999999999999
144
1.0
145
0.0
146
1.0
147
0.09
 71
     0
 72
     0
 73
     1
 74
     1
 75
     0
 76
     0
 77
     0
 78
     0
170
     0
171
     2
172
     0
173
     0
174
     0
175
     0
176
     0
177
     0
178
     0
  0
ENDTAB
  0
ENDSEC
  0
SECTION
  2
BLOCKS
  0
BLOCK
  8
0
  2
$MODEL_SPACE
 70
     0
 10
0.0
 20
0.0
 30
0.0
  3
$MODEL_SPACE
  1

  0
ENDBLK
  5
6D1B
  8
0
  0
BLOCK
 67
     1
  8
0
  2
$PAPER_SPACE
 70
     0
 10
0.0
 20
0.0
 30
0.0
  3
$PAPER_SPACE
  1

  0
ENDBLK
  5
6D17
 67
     1
  8
0
  0
ENDSEC
  0
SECTION
  2
ENTITIES
  0
CIRCLE
  5
684D
  8
0
 10
121.3916784725488
 20
213.90623410573559
 30
0.0
 40
8.25
  0
LINE
  5
684E
  8
0
 10
111.5767238963253
 20
213.90623410573559
 30
0.0
 11
116.484201184437
 21
205.40623410573559
 31
0.0
  0
LINE
  5
684F
  8
0
 10
116.4842011844371
 20
222.40623410573559
 30
0.0
 11
111.5767238963253
 21
213.90623410573559
 31
0.0
  0
LINE
  5
6850
  8
0
 10
126.2991557606607
 20
222.40623410573559
 30
0.0
 11
116.4842011844371
 21
222.40623410573559
 31
0.0
  0
LINE
  5
6851
  8
0
 10
131.20663304877249
 20
213.90623410573559
 30
0.0
 11
126.2991557606607
 21
222.40623410573559
 31
0.0
  0
LINE
  5
6852
  8
0
 10
126.2991557606607
 20
205.40623410573559
 30
0.0
 11
131.20663304877249
 21
213.90623410573559
 31
0.0
  0
LINE
  5
6853
  8
0
 10
116.484201184437
 20
205.40623410573559
 30
0.0
 11
126.2991557606607
 21
205.40623410573559
 31
0.0
  0
CIRCLE
  5
6854
  8
3
 10
121.3916784725488
 20
213.90623410573559
 30
0.0
 40
4.1879999999999979
  0
CIRCLE
  5
6855
  8
0
 10
121.3916784725488
 20
213.90623410573559
 30
0.0
 40
5.0
  0
LINE
  5
6856
  8
0
 10
249.1694653757346
 20
89.800386740285205
 30
0.0
 11
249.1694653757346
 21
93.800386740284708
 31
0.0
  0
LINE
  5
6857
  8
0
 10
238.1694653757346
 20
89.800386740285205
 30
0.0
 11
238.1694653757346
 21
93.800386740284708
 31
0.0
  0
ARC
  5
6858
  8
0
 10
237.60728754924361
 20
95.06679443540196
 30
0.0
 40
3.5781518477924039
 50
55.615752531961313
 51
115.6157525321742
  0
ARC
  5
6859
  8
0
 10
243.66946537573551
 20
85.270161065540549
 30
0.0
 40
13.374785217653811
 50
72.412046225995155
 51
107.5879537740048
  0
LINE
  5
685A
  8
0
 10
235.58656160707969
 20
98.019731500855073
 30
0.0
 11
236.9386961449666
 21
98.800386740284637
 31
0.0
  0
LINE
  5
685B
  8
0
 10
235.58656160707969
 20
94.581041979714243
 30
0.0
 11
236.9386961449666
 21
93.800386740284708
 31
0.0
  0
ARC
  5
685C
  8
0
 10
237.60728754924361
 20
97.533979045167428
 30
0.0
 40
3.5781518477924039
 50
244.3842474678257
 51
304.38424746803872
  0
ARC
  5
685D
  8
0
 10
243.66946537573551
 20
107.3306124150287
 30
0.0
 40
13.374785217653811
 50
252.4120462259952
 51
287.58795377400492
  0
LINE
  5
685E
  8
0
 10
235.58656160707969
 20
98.019731500855073
 30
0.0
 11
235.58656160707969
 21
94.581041979714243
 31
0.0
  0
LINE
  5
685F
  8
0
 10
239.62801349140889
 20
98.019731500853865
 30
0.0
 11
239.62801349140699
 21
94.581041979715962
 31
0.0
  0
LINE
  5
6860
  8
0
 10
247.71091726006011
 20
98.019731500855585
 30
0.0
 11
247.71091726006199
 21
94.581041979715962
 31
0.0
  0
LINE
  5
6861
  8
0
 10
251.75236914438921
 20
98.019731500855144
 30
0.0
 11
251.75236914438921
 21
94.581041979714243
 31
0.0
  0
ARC
  5
6862
  8
0
 10
249.7316432022254
 20
97.533979045167428
 30
0.0
 40
3.5781518477924039
 50
235.61575253196131
 51
295.61575253217421
  0
LINE
  5
6863
  8
0
 10
251.75236914438921
 20
94.581041979714243
 30
0.0
 11
250.40023460650249
 21
93.800386740284708
 31
0.0
  0
LINE
  5
6864
  8
0
 10
251.75236914438921
 20
98.019731500855073
 30
0.0
 11
250.40023460650249
 21
98.800386740284637
 31
0.0
  0
ARC
  5
6865
  8
0
 10
249.7316432022254
 20
95.06679443540196
 30
0.0
 40
3.5781518477924039
 50
64.384247467825773
 51
124.38424746803869
  0
LINE
  5
6866
  8
0
 10
236.93869614496529
 20
98.800386740284637
 30
0.0
 11
250.40023460650229
 21
98.800386740284637
 31
0.0
  0
LINE
  5
6867
  8
0
 10
250.40023460650249
 20
93.800386740284708
 30
0.0
 11
236.9386961449668
 21
93.800386740284708
 31
0.0
  0
ARC
  5
6868
  8
0
 10
247.91946537573449
 20
106.38054253457059
 30
0.0
 40
12.275506638416489
 50
69.743841999604243
 51
110.2561580003957
  0
LINE
  5
6869
  8
0
 10
252.1694653757346
 20
118.6560491729871
 30
0.0
 11
251.91946537573349
 21
118.80038674028511
 31
0.0
  0
LINE
  5
686A
  8
0
 10
252.1694653757346
 20
110.9447243075825
 30
0.0
 11
251.91946537573349
 21
110.8003867402844
 31
0.0
  0
ARC
  5
686B
  8
0
 10
247.91946537573449
 20
123.22023094599901
 30
0.0
 40
12.275506638416489
 50
249.74384199960431
 51
290.25615800039583
  0
LINE
  5
686C
  8
0
 10
252.1694653757346
 20
118.6560491729871
 30
0.0
 11
252.16946537573449
 21
110.9447243075825
 31
0.0
  0
LINE
  5
686D
  8
0
 10
243.66946537573449
 20
117.8968597944328
 30
0.0
 11
243.66946537573449
 21
111.7039136861366
 31
0.0
  0
LINE
  5
686E
  8
0
 10
235.16946537573449
 20
118.6560491729871
 30
0.0
 11
235.16946537573449
 21
110.9447243075825
 31
0.0
  0
LINE
  5
686F
  8
0
 10
235.16946537573449
 20
110.9447243075825
 30
0.0
 11
235.41946537573551
 21
110.8003867402844
 31
0.0
  0
ARC
  5
6870
  8
0
 10
239.41946537573449
 20
123.22023094599901
 30
0.0
 40
12.275506638416489
 50
249.74384199960431
 51
290.25615800039583
  0
LINE
  5
6871
  8
0
 10
235.16946537573449
 20
118.6560491729871
 30
0.0
 11
235.41946537573551
 21
118.80038674028511
 31
0.0
  0
ARC
  5
6872
  8
0
 10
239.41946537573449
 20
106.38054253457059
 30
0.0
 40
12.275506638416489
 50
69.743841999604243
 51
110.2561580003957
  0
LINE
  5
6873
  8
0
 10
251.91946537573349
 20
118.80038674028511
 30
0.0
 11
235.41946537573551
 21
118.80038674028511
 31
0.0
  0
LINE
  5
6874
  8
0
 10
235.41946537573449
 20
110.80038674028511
 30
0.0
 11
251.91946537573449
 21
110.80038674028511
 31
0.0
  0
LINE
  5
6875
  8
0
 10
238.66946537573449
 20
140.30038674028521
 30
0.0
 11
248.66946537573449
 21
140.30038674028501
 31
0.0
  0
LINE
  5
6876
  8
3
 10
247.85746537573451
 20
100.80038674028479
 30
0.0
 11
248.6694653757344
 21
99.393961484539048
 31
0.0
  0
LINE
  5
6877
  8
3
 10
239.48146537573439
 20
100.80038674028479
 30
0.0
 11
238.6694653757344
 21
99.393961484539048
 31
0.0
  0
LINE
  5
6878
  8
0
 10
238.66946537573449
 20
100.80038674028479
 30
0.0
 11
248.66946537573449
 21
100.80038674028469
 31
0.0
  0
LINE
  5
6879
  8
0
 10
247.16946537573449
 20
141.80038674028509
 30
0.0
 11
248.66946537573449
 21
140.30038674028501
 31
0.0
  0
LINE
  5
687A
  8
0
 10
238.66946537573449
 20
140.30038674028521
 30
0.0
 11
240.16946537573449
 21
141.80038674028521
 31
0.0
  0
LINE
  5
687B
  8
3
 10
239.48146537573439
 20
100.80038674028469
 30
0.0
 11
239.4814653757345
 21
110.80038674028511
 31
0.0
  0
LINE
  5
687C
  8
3
 10
247.85746537573471
 20
100.80038674028459
 30
0.0
 11
247.85746537573471
 21
110.80038674028511
 31
0.0
  0
LINE
  5
687D
  8
0
 10
240.16946537573449
 20
141.80038674028521
 30
0.0
 11
247.16946537573449
 21
141.80038674028509
 31
0.0
  0
LINE
  5
687E
  8
0
 10
238.66946537573449
 20
98.800386740284637
 30
0.0
 11
238.66946537573449
 21
110.80038674028511
 31
0.0
  0
LINE
  5
687F
  8
0
 10
248.66946537573449
 20
98.800386740284637
 30
0.0
 11
248.66946537573449
 21
110.80038674028511
 31
0.0
  0
LINE
  5
6880
  8
3
 10
247.85746537573471
 20
118.80038674028511
 30
0.0
 11
247.85746537573459
 21
141.1123867402851
 31
0.0
  0
LINE
  5
6881
  8
0
 10
248.66946537573449
 20
118.80038674028511
 30
0.0
 11
248.66946537573449
 21
140.30038674028501
 31
0.0
  0
LINE
  5
6882
  8
0
 10
238.66946537573449
 20
118.80038674028511
 30
0.0
 11
238.66946537573449
 21
140.30038674028521
 31
0.0
  0
LINE
  5
6883
  8
3
 10
239.48146537573439
 20
118.80038674028511
 30
0.0
 11
239.48146537573439
 21
141.1123867402851
 31
0.0
  0
LINE
  5
6884
  8
0
 10
116.3916784725488
 20
118.8003867402853
 30
0.0
 11
116.3916784725488
 21
140.30038674028521
 31
0.0
  0
LINE
  5
6885
  8
3
 10
117.2036784725487
 20
118.8003867402853
 30
0.0
 11
117.2036784725487
 21
141.1123867402851
 31
0.0
  0
LINE
  5
6886
  8
0
 10
126.3916784725488
 20
118.80038674028521
 30
0.0
 11
126.3916784725488
 21
140.30038674028501
 31
0.0
  0
LINE
  5
6887
  8
3
 10
125.57967847254891
 20
118.80038674028521
 30
0.0
 11
125.57967847254891
 21
141.1123867402851
 31
0.0
  0
LINE
  5
6888
  8
0
 10
116.3916784725488
 20
140.30038674028521
 30
0.0
 11
126.3916784725488
 21
140.30038674028501
 31
0.0
  0
LINE
  5
6889
  8
3
 10
125.57967847254891
 20
100.8003867402853
 30
0.0
 11
126.3916784725488
 21
99.393961484539645
 31
0.0
  0
LINE
  5
688A
  8
3
 10
117.2036784725487
 20
100.8003867402853
 30
0.0
 11
116.3916784725488
 21
99.393961484539645
 31
0.0
  0
LINE
  5
688B
  8
0
 10
116.3916784725488
 20
100.8003867402853
 30
0.0
 11
126.3916784725488
 21
100.80038674028521
 31
0.0
  0
LINE
  5
688C
  8
0
 10
124.8916784725488
 20
141.80038674028509
 30
0.0
 11
126.3916784725488
 21
140.30038674028501
 31
0.0
  0
LINE
  5
688D
  8
0
 10
116.3916784725488
 20
140.30038674028521
 30
0.0
 11
117.8916784725488
 21
141.80038674028521
 31
0.0
  0
LINE
  5
688E
  8
0
 10
116.3916784725488
 20
98.800386740285035
 30
0.0
 11
116.3916784725488
 21
110.80038674028511
 31
0.0
  0
LINE
  5
688F
  8
3
 10
117.2036784725487
 20
100.8003867402854
 30
0.0
 11
117.2036784725487
 21
110.80038674028511
 31
0.0
  0
LINE
  5
6890
  8
3
 10
125.57967847254891
 20
100.80038674028521
 30
0.0
 11
125.57967847254891
 21
110.80038674028511
 31
0.0
  0
LINE
  5
6891
  8
0
 10
126.3916784725488
 20
98.800386740285035
 30
0.0
 11
126.3916784725488
 21
110.80038674028511
 31
0.0
  0
LINE
  5
6892
  8
0
 10
117.8916784725488
 20
141.80038674028521
 30
0.0
 11
124.8916784725488
 21
141.80038674028509
 31
0.0
  0
LINE
  5
6893
  8
0
 10
129.6416784725497
 20
110.80038674028511
 30
0.0
 11
113.141678472549
 21
110.80038674028511
 31
0.0
  0
LINE
  5
6894
  8
0
 10
113.1416784725493
 20
118.8003867402853
 30
0.0
 11
129.64167847254959
 21
118.80038674028511
 31
0.0
  0
ARC
  5
6895
  8
0
 10
128.7528944047171
 20
114.3111505006637
 30
0.0
 40
4.3448986723233833
 50
64.384247467891299
 51
124.3842474680048
  0
LINE
  5
6896
  8
0
 10
131.2066330487728
 20
117.8968597944331
 30
0.0
 11
129.6416784725493
 21
118.8003867402853
 31
0.0
  0
LINE
  5
6897
  8
0
 10
131.2066330487728
 20
111.7039136861371
 30
0.0
 11
129.6416784725493
 21
110.80038674028491
 31
0.0
  0
ARC
  5
6898
  8
0
 10
128.7528944047171
 20
115.2896229799065
 30
0.0
 40
4.3448986723233833
 50
235.61575253199521
 51
295.61575253210867
  0
LINE
  5
6899
  8
0
 10
131.2066330487728
 20
117.8968597944331
 30
0.0
 11
131.2066330487728
 21
111.7039136861372
 31
0.0
  0
LINE
  5
689A
  8
0
 10
126.2991557606622
 20
117.8968597944331
 30
0.0
 11
126.29915576066151
 21
111.7039136861369
 31
0.0
  0
LINE
  5
689B
  8
0
 10
116.4842011844365
 20
117.8968597944331
 30
0.0
 11
116.4842011844371
 21
111.7039136861369
 31
0.0
  0
LINE
  5
689C
  8
0
 10
111.5767238963258
 20
117.8968597944331
 30
0.0
 11
111.5767238963258
 21
111.7039136861372
 31
0.0
  0
ARC
  5
689D
  8
0
 10
121.3916784725488
 20
127.18553492904969
 30
0.0
 40
16.24081062146659
 50
252.4120462260268
 51
287.5879537739724
  0
ARC
  5
689E
  8
0
 10
114.03046254038161
 20
115.2896229799065
 30
0.0
 40
4.3448986723233833
 50
244.3842474678913
 51
304.38424746800479
  0
LINE
  5
689F
  8
0
 10
111.5767238963258
 20
111.7039136861371
 30
0.0
 11
113.1416784725493
 21
110.80038674028491
 31
0.0
  0
LINE
  5
68A0
  8
0
 10
111.5767238963258
 20
117.8968597944331
 30
0.0
 11
113.1416784725493
 21
118.8003867402853
 31
0.0
  0
ARC
  5
68A1
  8
0
 10
121.3916784725488
 20
102.4152385515205
 30
0.0
 40
16.24081062146659
 50
72.412046226026817
 51
107.5879537739724
  0
ARC
  5
68A2
  8
0
 10
114.03046254038161
 20
114.3111505006637
 30
0.0
 40
4.3448986723233833
 50
55.61575253199517
 51
115.6157525321087
  0
LINE
  5
68A3
  8
0
 10
126.89167847254861
 20
89.800386740285205
 30
0.0
 11
126.89167847254861
 21
93.800386740285035
 31
0.0
  0
LINE
  5
68A4
  8
0
 10
115.8916784725487
 20
89.800386740285205
 30
0.0
 11
115.8916784725487
 21
93.800386740285035
 31
0.0
  0
LINE
  5
68A5
  8
0
 10
121.39167847254851
 20
98.019731500855585
 30
0.0
 11
121.39167847254851
 21
94.581041979714414
 31
0.0
  0
LINE
  5
68A6
  8
0
 10
114.39167847254851
 20
98.644946283194756
 30
0.0
 11
114.39167847254851
 21
93.955827197375228
 31
0.0
  0
LINE
  5
68A7
  8
0
 10
128.39167847254851
 20
98.644946283194756
 30
0.0
 11
128.39167847254851
 21
93.955827197375228
 31
0.0
  0
LINE
  5
68A8
  8
0
 10
128.1224477033166
 20
98.800386740285035
 30
0.0
 11
114.6609092417805
 21
98.800386740285035
 31
0.0
  0
ARC
  5
68A9
  8
0
 10
117.8916784725487
 20
88.535705522157414
 30
0.0
 40
10.10924076103746
 50
69.743841999583083
 51
110.2561580004169
  0
LINE
  5
68AA
  8
0
 10
114.39167847254851
 20
98.644946283194756
 30
0.0
 11
114.6609092417805
 21
98.800386740285035
 31
0.0
  0
LINE
  5
68AB
  8
0
 10
128.39167847254851
 20
98.644946283194756
 30
0.0
 11
128.1224477033166
 21
98.800386740285035
 31
0.0
  0
ARC
  5
68AC
  8
0
 10
124.89167847254841
 20
88.535705522157414
 30
0.0
 40
10.10924076103746
 50
69.743841999583083
 51
110.2561580004169
  0
LINE
  5
68AD
  8
0
 10
128.1224477033166
 20
93.800386740285035
 30
0.0
 11
114.6609092417805
 21
93.800386740285035
 31
0.0
  0
ARC
  5
68AE
  8
0
 10
117.8916784725487
 20
104.0650679584126
 30
0.0
 40
10.10924076103746
 50
249.74384199958311
 51
290.25615800041692
  0
LINE
  5
68AF
  8
0
 10
114.39167847254851
 20
93.955827197375228
 30
0.0
 11
114.6609092417805
 21
93.800386740285035
 31
0.0
  0
LINE
  5
68B0
  8
0
 10
128.39167847254851
 20
93.955827197375228
 30
0.0
 11
128.1224477033166
 21
93.800386740285035
 31
0.0
  0
ARC
  5
68B1
  8
0
 10
124.89167847254841
 20
104.0650679584126
 30
0.0
 40
10.10924076103746
 50
249.74384199958311
 51
290.25615800041692
  0
LINE
  5
68C1
  8
0
 10
161.3916784725489
 20
65.800386740285205
 30
0.0
 11
81.391678472548804
 21
65.800386740285205
 31
0.0
  0
LINE
  5
68C2
  8
0
 10
161.3916784725489
 20
65.800386740285205
 30
0.0
 11
161.3916784725489
 21
74.645091408574842
 31
0.0
  0
CIRCLE
  5
68C4
  8
0
 10
121.3916784725488
 20
213.90623410573559
 30
0.0
 40
40.00000000000005
  0
LINE
  5
68C5
  8
1
 10
121.3916784725488
 20
259.62051982002129
 30
0.0
 11
121.3916784725488
 21
168.19194839144961
 31
0.0
  0
LINE
  5
68C6
  8
1
 10
167.1059641868346
 20
213.90623410573559
 30
0.0
 11
75.677392758263068
 21
213.90623410573559
 31
0.0
  0
LINE
  5
68C7
  8
0
 10
154.89167847254879
 20
77.831890506819789
 30
0.0
 11
87.891678472548833
 21
77.831890506819789
 31
0.0
  0
LINE
  5
68C8
  8
0
 10
148.89167847254879
 20
82.202915468885124
 30
0.0
 11
93.891678472548804
 21
82.202915468885124
 31
0.0
  0
LINE
  5
68C9
  8
0
 10
142.2421215236246
 20
85.099125338545306
 30
0.0
 11
100.5412354214731
 21
85.099125338545306
 31
0.0
  0
LINE
  5
68CA
  8
0
 10
135.39167847254879
 20
89.800386740285205
 30
0.0
 11
107.3916784725488
 21
89.800386740285205
 31
0.0
  0
LINE
  5
68CB
  8
0
 10
154.89167847254879
 20
77.831890506819789
 30
0.0
 11
154.89167847254879
 21
78.673277587567213
 31
0.0
  0
LINE
  5
68CC
  8
0
 10
154.89167847254879
 20
77.831890506819789
 30
0.0
 11
160.75065755185781
 21
75.578437014777933
 31
0.0
  0
LINE
  5
68CD
  8
0
 10
148.89167847254879
 20
82.202915468885124
 30
0.0
 11
154.32715465493681
 21
79.573477840051453
 31
0.0
  0
LINE
  5
68CE
  8
0
 10
142.24212152362449
 20
85.099125338545306
 30
0.0
 11
148.11977758601691
 21
83.722136919159055
 31
0.0
  0
LINE
  5
68CF
  8
0
 10
136.39167847254879
 20
88.202915468885124
 30
0.0
 11
106.3916784725488
 21
88.202915468885053
 31
0.0
  0
LINE
  5
68D0
  8
0
 10
136.39167847254879
 20
88.202915468885124
 30
0.0
 11
141.5518420223388
 21
86.522055184093972
 31
0.0
  0
LINE
  5
68D1
  8
0
 10
136.39167847254879
 20
88.800386740285148
 30
0.0
 11
136.39167847254879
 21
88.202915468885152
 31
0.0
  0
LINE
  5
68D2
  8
0
 10
148.89167847254879
 20
82.202915468885124
 30
0.0
 11
148.89167847254879
 21
82.748499001637811
 31
0.0
  0
LINE
  5
68D3
  8
0
 10
142.24212152362449
 20
85.099125338545306
 30
0.0
 11
142.24212152362449
 21
85.571227537947706
 31
0.0
  0
ARC
  5
68D4
  8
0
 10
135.39167847254879
 20
88.800386740285205
 30
0.0
 40
1.0
 50
359.99999999999892
 51
90.0
  0
ARC
  5
68D5
  8
0
 10
141.24212152362449
 20
85.571227537947706
 30
0.0
 40
1.0
 50
0.0
 51
71.957612741641853
  0
ARC
  5
68D6
  8
0
 10
147.89167847254879
 20
82.748499001637811
 30
0.0
 40
1.0
 50
0.0
 51
76.814815600247044
  0
ARC
  5
68D7
  8
0
 10
160.3916784725489
 20
74.645091408574842
 30
0.0
 40
1.0
 50
0.0
 51
68.962488974578235
  0
ARC
  5
68D8
  8
0
 10
153.89167847254879
 20
78.673277587567213
 30
0.0
 40
1.0
 50
0.0
 51
64.18440202834887
  0
ARC
  5
68DA
  8
0
 10
88.891678472548833
 20
78.673277587567213
 30
0.0
 40
1.0
 50
115.8155979716511
 51
180.0
  0
ARC
  5
68DB
  8
0
 10
82.391678472548762
 20
74.645091408574842
 30
0.0
 40
1.0
 50
111.03751102542169
 51
180.0
  0
ARC
  5
68DC
  8
0
 10
94.89167847254879
 20
82.748499001637811
 30
0.0
 40
1.0
 50
103.1851843997529
 51
180.0
  0
ARC
  5
68DD
  8
0
 10
101.5412354214731
 20
85.571227537947706
 30
0.0
 40
1.0
 50
108.0423872583581
 51
180.0
  0
ARC
  5
68DE
  8
0
 10
107.3916784725488
 20
88.800386740285205
 30
0.0
 40
1.0
 50
90.0
 51
180.00000000000099
  0
LINE
  5
68DF
  8
0
 10
100.5412354214731
 20
85.099125338545306
 30
0.0
 11
100.5412354214731
 21
85.571227537947706
 31
0.0
  0
LINE
  5
68E0
  8
0
 10
93.891678472548804
 20
82.202915468885124
 30
0.0
 11
93.891678472548804
 21
82.748499001637811
 31
0.0
  0
LINE
  5
68E1
  8
0
 10
106.3916784725488
 20
88.800386740285148
 30
0.0
 11
106.3916784725488
 21
88.202915468885152
 31
0.0
  0
LINE
  5
68E2
  8
0
 10
106.3916784725488
 20
88.202915468885124
 30
0.0
 11
101.23151492275881
 21
86.522055184093972
 31
0.0
  0
LINE
  5
68E3
  8
0
 10
100.5412354214731
 20
85.099125338545306
 30
0.0
 11
94.663579359080728
 21
83.722136919159055
 31
0.0
  0
LINE
  5
68E4
  8
0
 10
93.891678472548847
 20
82.202915468885124
 30
0.0
 11
88.456202290160775
 21
79.573477840051453
 31
0.0
  0
LINE
  5
68E5
  8
0
 10
87.891678472548833
 20
77.831890506819789
 30
0.0
 11
82.032699393239881
 21
75.578437014777933
 31
0.0
  0
LINE
  5
68E6
  8
0
 10
87.891678472548833
 20
77.831890506819789
 30
0.0
 11
87.891678472548833
 21
78.673277587567213
 31
0.0
  0
LINE
  5
68E7
  8
0
 10
81.391678472548804
 20
65.800386740285205
 30
0.0
 11
81.391678472548762
 21
74.645091408574842
 31
0.0
  0
ARC
  5
68E9
  8
0
 10
121.3916784725488
 20
213.90623410573559
 30
0.0
 40
33.5
 50
195.75950956217591
 51
344.24049043782401
  0
ARC
  5
68EA
  8
0
 10
121.3916784725488
 20
213.90623410573559
 30
0.0
 40
27.5
 50
22.44635058144987
 51
157.55364941855009
  0
ARC
  5
68EB
  8
0
 10
121.3916784725488
 20
213.90623410573559
 30
0.0
 40
20.850443051075668
 50
30.237560746705888
 51
149.7624392532941
  0
LINE
  5
68EC
  8
1
 10
121.3916784725488
 20
60.800386740285212
 30
0.0
 11
121.3916784725488
 21
146.80038674028509
 31
0.0
  0
LINE
  5
68ED
  8
1
 10
243.66946537573449
 20
60.800386740285212
 30
0.0
 11
243.66946537573449
 21
146.80038674028509
 31
0.0
  0
LINE
  5
68EF
  8
0
 10
203.6694653757344
 20
65.800386740285205
 30
0.0
 11
203.6694653757344
 21
74.645091408574842
 31
0.0
  0
LINE
  5
68F0
  8
0
 10
210.16946537573449
 20
77.831890506819789
 30
0.0
 11
210.16946537573449
 21
78.673277587567213
 31
0.0
  0
LINE
  5
68F1
  8
0
 10
210.16946537573449
 20
77.831890506819789
 30
0.0
 11
204.31048629642549
 21
75.578437014777933
 31
0.0
  0
LINE
  5
68F2
  8
0
 10
216.16946537573449
 20
82.202915468885124
 30
0.0
 11
210.73398919334639
 21
79.573477840051453
 31
0.0
  0
LINE
  5
68F3
  8
0
 10
222.81902232465879
 20
85.099125338545306
 30
0.0
 11
216.9413662622664
 21
83.722136919159055
 31
0.0
  0
LINE
  5
68F4
  8
0
 10
228.66946537573449
 20
88.202915468885124
 30
0.0
 11
223.5093018259445
 21
86.522055184093972
 31
0.0
  0
LINE
  5
68F5
  8
0
 10
228.66946537573449
 20
88.800386740285148
 30
0.0
 11
228.66946537573449
 21
88.202915468885152
 31
0.0
  0
LINE
  5
68F6
  8
0
 10
216.1694653757344
 20
82.202915468885124
 30
0.0
 11
216.1694653757344
 21
82.748499001637811
 31
0.0
  0
LINE
  5
68F7
  8
0
 10
222.81902232465879
 20
85.099125338545306
 30
0.0
 11
222.81902232465879
 21
85.571227537947706
 31
0.0
  0
ARC
  5
68F8
  8
0
 10
229.66946537573449
 20
88.800386740285205
 30
0.0
 40
1.0
 50
90.0
 51
180.00000000000099
  0
ARC
  5
68F9
  8
0
 10
223.81902232465879
 20
85.571227537947706
 30
0.0
 40
1.0
 50
108.0423872583581
 51
180.0
  0
ARC
  5
68FA
  8
0
 10
217.16946537573449
 20
82.748499001637811
 30
0.0
 40
1.0
 50
103.1851843997529
 51
180.0
  0
ARC
  5
68FB
  8
0
 10
204.6694653757344
 20
74.645091408574842
 30
0.0
 40
1.0
 50
111.03751102542169
 51
180.0
  0
ARC
  5
68FC
  8
0
 10
211.16946537573449
 20
78.673277587567213
 30
0.0
 40
1.0
 50
115.8155979716511
 51
180.0
  0
ARC
  5
68FE
  8
0
 10
276.16946537573449
 20
78.673277587567213
 30
0.0
 40
1.0
 50
0.0
 51
64.18440202834887
  0
ARC
  5
68FF
  8
0
 10
282.66946537573472
 20
74.645091408574842
 30
0.0
 40
1.0
 50
0.0
 51
68.962488974578235
  0
ARC
  5
6900
  8
0
 10
270.16946537573449
 20
82.748499001637811
 30
0.0
 40
1.0
 50
0.0
 51
76.814815600247044
  0
ARC
  5
6901
  8
0
 10
263.5199084268101
 20
85.571227537947706
 30
0.0
 40
1.0
 50
0.0
 51
71.957612741641853
  0
ARC
  5
6902
  8
0
 10
257.66946537573449
 20
88.800386740285205
 30
0.0
 40
1.0
 50
359.99999999999892
 51
90.0
  0
LINE
  5
6903
  8
0
 10
264.51990842681028
 20
85.099125338545306
 30
0.0
 11
264.51990842681028
 21
85.571227537947706
 31
0.0
  0
LINE
  5
6904
  8
0
 10
271.16946537573449
 20
82.202915468885124
 30
0.0
 11
271.16946537573449
 21
82.748499001637811
 31
0.0
  0
LINE
  5
6905
  8
0
 10
258.66946537573449
 20
88.800386740285148
 30
0.0
 11
258.66946537573449
 21
88.202915468885152
 31
0.0
  0
LINE
  5
6906
  8
0
 10
258.66946537573449
 20
88.202915468885124
 30
0.0
 11
263.8296289255245
 21
86.522055184093972
 31
0.0
  0
LINE
  5
6907
  8
0
 10
258.66946537573438
 20
88.202915468885124
 30
0.0
 11
254.1694653757346
 21
88.202915468885152
 31
0.0
  0
LINE
  5
6908
  8
0
 10
264.51990842681028
 20
85.099125338545306
 30
0.0
 11
270.39756448920258
 21
83.722136919159055
 31
0.0
  0
LINE
  5
6909
  8
0
 10
271.16946537573449
 20
82.202915468885124
 30
0.0
 11
276.60494155812262
 21
79.573477840051453
 31
0.0
  0
LINE
  5
690A
  8
0
 10
277.16946537573449
 20
77.831890506819789
 30
0.0
 11
283.02844445504343
 21
75.578437014777933
 31
0.0
  0
LINE
  5
690B
  8
0
 10
277.16946537573449
 20
77.831890506819789
 30
0.0
 11
277.16946537573449
 21
78.673277587567213
 31
0.0
  0
LINE
  5
690C
  8
0
 10
257.66946537573449
 20
89.800386740285205
 30
0.0
 11
229.66946537573449
 21
89.800386740285205
 31
0.0
  0
LINE
  5
690D
  8
0
 10
264.51990842681028
 20
85.099125338545306
 30
0.0
 11
254.16946537573449
 21
85.099125338545335
 31
0.0
  0
LINE
  5
690E
  8
0
 10
271.16946537573449
 20
82.202915468885124
 30
0.0
 11
254.16946537573449
 21
82.202915468885124
 31
0.0
  0
LINE
  5
690F
  8
0
 10
277.16946537573449
 20
77.831890506819789
 30
0.0
 11
252.76807166946651
 21
77.831890506819789
 31
0.0
  0
LINE
  5
6911
  8
0
 10
283.6694653757346
 20
65.800386740285205
 30
0.0
 11
283.6694653757346
 21
74.645091408574842
 31
0.0
  0
LINE
  5
6912
  8
0
 10
283.6694653757346
 20
65.800386740285205
 30
0.0
 11
203.6694653757344
 21
65.800386740285205
 31
0.0
  0
LINE
  5
6913
  8
0
 10
158.89167847254879
 20
88.800386740285205
 30
0.0
 11
136.39167847254879
 21
88.800386740285205
 31
0.0
  0
LINE
  5
6914
  8
0
 10
83.891678472548833
 20
76.29342896835827
 30
0.0
 11
83.891678472548833
 21
88.800386740285205
 31
0.0
  0
LINE
  5
6915
  8
0
 10
158.89167847254879
 20
76.29342896835827
 30
0.0
 11
158.89167847254879
 21
88.800386740285205
 31
0.0
  0
LINE
  5
6916
  8
0
 10
106.3916784725488
 20
88.800386740285205
 30
0.0
 11
83.891678472548833
 21
88.800386740285205
 31
0.0
  0
LINE
  5
6917
  8
1
 10
148.39167847254879
 20
89.800386740285205
 30
0.0
 11
148.39167847254879
 21
64.800386740285219
 31
0.0
  0
LINE
  5
6918
  8
1
 10
94.391678472548847
 20
89.800386740285205
 30
0.0
 11
94.391678472548847
 21
64.800386740285219
 31
0.0
  0
LINE
  5
6920
  8
0
 10
148.39167847254879
 20
224.40623410573559
 30
0.0
 11
132.10382111536299
 21
224.40623410573559
 31
0.0
  0
LINE
  5
6921
  8
0
 10
148.39167847254879
 20
203.40623410573559
 30
0.0
 11
132.10382111536299
 21
203.40623410573559
 31
0.0
  0
ARC
  5
6922
  8
0
 10
148.39167847254879
 20
213.90623410573559
 30
0.0
 40
10.5
 50
270.0
 51
90.0
  0
ARC
  5
6923
  8
0
 10
121.3916784725488
 20
213.90623410573559
 30
0.0
 40
20.850443051075668
 50
210.2375607467059
 51
329.76243925329419
  0
ARC
  5
6924
  8
0
 10
121.3916784725488
 20
213.90623410573559
 30
0.0
 40
27.5
 50
202.44635058144991
 51
337.55364941855021
  0
ARC
  5
6925
  8
0
 10
121.3916784725488
 20
213.90623410573559
 30
0.0
 40
33.5
 50
15.759509562175911
 51
164.24049043782409
  0
ARC
  5
6927
  8
0
 10
94.391678472548847
 20
213.90623410573559
 30
0.0
 40
10.5
 50
90.0
 51
270.0
  0
LINE
  5
6928
  8
0
 10
110.6795358297346
 20
203.40623410573559
 30
0.0
 11
94.391678472548847
 21
203.40623410573559
 31
0.0
  0
LINE
  5
6929
  8
0
 10
110.6795358297346
 20
224.40623410573559
 30
0.0
 11
94.391678472548847
 21
224.40623410573559
 31
0.0
  0
CIRCLE
  5
692A
  8
0
 10
121.3916784725488
 20
213.90623410573559
 30
0.0
 40
15.0
  0
LINE
  5
692B
  8
1
 10
94.391678472548847
 20
221.15623410573551
 30
0.0
 11
94.391678472548847
 21
206.65623410573551
 31
0.0
  0
LINE
  5
692C
  8
1
 10
148.39167847254879
 20
221.15623410573551
 30
0.0
 11
148.39167847254879
 21
206.65623410573551
 31
0.0
  0
CIRCLE
  5
69E6
  8
2
 10
94.391678472548847
 20
213.90623410573559
 30
0.0
 40
4.25
  0
CIRCLE
  5
69E7
  8
2
 10
148.39167847254879
 20
213.90623410573559
 30
0.0
 40
4.25
  0
LINE
  5
6B39
  8
0
 10
233.16946537573449
 20
88.800386740285177
 30
0.0
 11
254.16946537573449
 21
88.800386740285177
 31
0.0
  0
POLYLINE
  5
6B3A
  8
0
 66
     1
 10
0.0
 20
0.0
 30
0.0
 70
   128
  0
VERTEX
  5
6DBD
  8
0
 10
252.76807166946651
 20
77.831890506819803
 30
0.0
  0
VERTEX
  5
6DBE
  8
0
 10
251.77326978122201
 20
77.394708833324742
 30
0.0
  0
VERTEX
  5
6DBF
  8
0
 10
250.54506098139871
 20
77.021925840424942
 30
0.0
  0
VERTEX
  5
6DC0
  8
0
 10
249.10765022009591
 20
76.720486497446544
 30
0.0
  0
VERTEX
  5
6DC1
  8
0
 10
247.5053590054072
 20
76.495826613886905
 30
0.0
  0
VERTEX
  5
6DC2
  8
0
 10
245.8306620309736
 20
76.356101180062012
 30
0.0
  0
VERTEX
  5
6DC3
  8
0
 10
244.0921134741441
 20
76.295785694926934
 30
0.0
  0
VERTEX
  5
6DC4
  8
0
 10
242.38037120284051
 20
76.31569055671126
 30
0.0
  0
VERTEX
  5
6DC5
  8
0
 10
240.70514337956641
 20
76.412198971761924
 30
0.0
  0
VERTEX
  5
6DC6
  8
0
 10
239.1197571090585
 20
76.583770590556426
 30
0.0
  0
VERTEX
  5
6DC7
  8
0
 10
237.65966806056849
 20
76.826667001888623
 30
0.0
  0
VERTEX
  5
6DC8
  8
0
 10
236.34524009385589
 20
77.143035988660273
 30
0.0
  0
VERTEX
  5
6DC9
  8
0
 10
235.23054632947191
 20
77.523415275684002
 30
0.0
  0
VERTEX
  5
6DCA
  8
0
 10
234.5708590820025
 20
77.831890506819803
 30
0.0
  0
SEQEND
  5
6DCB
  8
0
  0
ARC
  5
6B3B
  8
0
 10
253.98969680204991
 20
78.700938796276347
 30
0.0
 40
1.2219382582710441
 50
134.43366307173761
 51
181.2971243796529
  0
LINE
  5
6B3C
  8
0
 10
252.76807166946651
 20
78.673277587567199
 30
0.0
 11
252.76807166946651
 21
77.831890506819803
 31
0.0
  0
LINE
  5
6B3D
  8
0
 10
234.5708590820025
 20
77.831890506819803
 30
0.0
 11
234.5708590820025
 21
78.673277587567199
 31
0.0
  0
ARC
  5
6B3E
  8
0
 10
233.3729606610186
 20
78.710589912559954
 30
0.0
 40
1.1984793851343281
 50
358.21591903933722
 51
46.053293509278397
  0
ARC
  5
6B3F
  8
0
 10
235.6128492453725
 20
81.571881566874779
 30
0.0
 40
2.4446930022312561
 50
181.87515281252641
 51
234.82990765753141
  0
LINE
  5
6B40
  8
0
 10
233.16946537573449
 20
88.800386740285177
 30
0.0
 11
233.16946537573449
 21
81.491886937356284
 31
0.0
  0
LINE
  5
6B41
  8
0
 10
254.16946537573449
 20
88.800386740285177
 30
0.0
 11
254.16946537573449
 21
81.491886937356284
 31
0.0
  0
ARC
  5
6B42
  8
0
 10
251.6136295516965
 20
81.632563761093365
 30
0.0
 40
2.559704422032516
 50
306.44540145010711
 51
356.84953807984039
  0
LINE
  5
6B4D
  8
0
 10
234.5708590820025
 20
77.831890506819789
 30
0.0
 11
210.16946537573449
 21
77.831890506819789
 31
0.0
  0
LINE
  5
6B4E
  8
0
 10
233.16946537573449
 20
82.202915468885124
 30
0.0
 11
216.1694653757344
 21
82.202915468885124
 31
0.0
  0
LINE
  5
6B4F
  8
0
 10
233.16946537573449
 20
85.099125338545335
 30
0.0
 11
222.81902232465879
 21
85.099125338545306
 31
0.0
  0
LINE
  5
6B50
  8
0
 10
233.16946537573449
 20
88.202915468885095
 30
0.0
 11
228.66946537573449
 21
88.202915468885053
 31
0.0
  0
TEXT
  5
6DA0
  8
0
 62
     3
 10
0.0
 20
0.0
 30
0.0
 40
10.0
  1
LVF80S10A-SUS
  7
STANDARD1
  0
ENDSEC
  0
EOF
