  0
SECTION
  2
HEADER
  9
$ACADVER
  1
AC1009
  9
$INSBASE
 10
0.0
 20
0.0
 30
0.0
  9
$EXTMIN
 10
0.0
 20
-2.960436562073669
 30
0.0
  9
$EXTMAX
 10
380.54479552457531
 20
429.34343469540011
 30
0.0
  9
$LIMMIN
 10
0.0
 20
0.0
  9
$LIMMAX
 10
375.0
 20
270.0
  9
$ORTHOMODE
 70
     1
  9
$REGENMODE
 70
     1
  9
$FILLMODE
 70
     1
  9
$QTEXTMODE
 70
     0
  9
$MIRRTEXT
 70
     0
  9
$DRAGMODE
 70
     2
  9
$LTSCALE
 40
10.0
  9
$OSMODE
 70
  3071
  9
$ATTMODE
 70
     1
  9
$TEXTSIZE
 40
0.2
  9
$TRACEWID
 40
0.05
  9
$TEXTSTYLE
  7
STANDARD
  9
$CLAYER
  8
0
  9
$CELTYPE
  6
BYLAYER
  9
$CECOLOR
 62
   256
  9
$DIMSCALE
 40
1.0
  9
$DIMASZ
 40
3.0
  9
$DIMEXO
 40
1.0
  9
$DIMDLI
 40
6.0
  9
$DIMRND
 40
0.0
  9
$DIMDLE
 40
0.0
  9
$DIMEXE
 40
1.0
  9
$DIMTP
 40
495.0
  9
$DIMTM
 40
0.0
  9
$DIMTXT
 40
3.0
  9
$DIMCEN
 40
0.0
  9
$DIMTSZ
 40
0.0
  9
$DIMTOL
 70
     0
  9
$DIMLIM
 70
     0
  9
$DIMTIH
 70
     0
  9
$DIMTOH
 70
     0
  9
$DIMSE1
 70
     0
  9
$DIMSE2
 70
     0
  9
$DIMTAD
 70
     1
  9
$DIMZIN
 70
     0
  9
$DIMBLK
  1

  9
$DIMASO
 70
     0
  9
$DIMSHO
 70
     0
  9
$DIMPOST
  1

  9
$DIMAPOST
  1

  9
$DIMALT
 70
     0
  9
$DIMALTD
 70
     2
  9
$DIMALTF
 40
25.399999999999999
  9
$DIMLFAC
 40
1.0
  9
$DIMTOFL
 70
     1
  9
$DIMTVP
 40
0.0
  9
$DIMTIX
 70
     1
  9
$DIMSOXD
 70
     0
  9
$DIMSAH
 70
     0
  9
$DIMBLK1
  1

  9
$DIMBLK2
  1

  9
$DIMSTYLE
  2
STANDARD
  9
$DIMCLRD
 70
     0
  9
$DIMCLRE
 70
     0
  9
$DIMCLRT
 70
     4
  9
$DIMTFAC
 40
1.0
  9
$DIMGAP
 40
1.0
  9
$LUNITS
 70
     2
  9
$LUPREC
 70
     4
  9
$SKETCHINC
 40
0.1
  9
$FILLETRAD
 40
2.0
  9
$AUNITS
 70
     0
  9
$AUPREC
 70
     0
  9
$MENU
  1
C:\R13\WIN\SUPPORT\ACAD-I
  9
$ELEVATION
 40
0.0
  9
$PELEVATION
 40
0.0
  9
$THICKNESS
 40
0.0
  9
$LIMCHECK
 70
     0
  9
$BLIPMODE
 70
     0
  9
$CHAMFERA
 40
0.0
  9
$CHAMFERB
 40
0.0
  9
$SKPOLY
 70
     0
  9
$TDCREATE
 40
2451963.471444028
  9
$TDUPDATE
 40
2456597.6181160999
  9
$TDINDWG
 40
0.0420523032
  9
$TDUSRTIMER
 40
2456553.293992593
  9
$USRTIMER
 70
     1
  9
$ANGBASE
 50
0.0
  9
$ANGDIR
 70
     0
  9
$PDMODE
 70
     0
  9
$PDSIZE
 40
0.0
  9
$PLINEWID
 40
0.0
  9
$COORDS
 70
     1
  9
$SPLFRAME
 70
     0
  9
$SPLINETYPE
 70
     6
  9
$SPLINESEGS
 70
     8
  9
$ATTDIA
 70
     0
  9
$ATTREQ
 70
     1
  9
$HANDLING
 70
     1
  9
$HANDSEED
  5
BDE7
  9
$SURFTAB1
 70
     6
  9
$SURFTAB2
 70
     6
  9
$SURFTYPE
 70
     6
  9
$SURFU
 70
     6
  9
$SURFV
 70
     6
  9
$UCSNAME
  2

  9
$UCSORG
 10
0.0
 20
0.0
 30
0.0
  9
$UCSXDIR
 10
1.0
 20
0.0
 30
0.0
  9
$UCSYDIR
 10
0.0
 20
1.0
 30
0.0
  9
$PUCSNAME
  2

  9
$PUCSORG
 10
0.0
 20
0.0
 30
0.0
  9
$PUCSXDIR
 10
1.0
 20
0.0
 30
0.0
  9
$PUCSYDIR
 10
0.0
 20
1.0
 30
0.0
  9
$USERI1
 70
     4
  9
$USERI2
 70
     1
  9
$USERI3
 70
     0
  9
$USERI4
 70
     0
  9
$USERI5
 70
     0
  9
$USERR1
 40
1.0
  9
$USERR2
 40
3.0
  9
$USERR3
 40
3.0
  9
$USERR4
 40
3.0
  9
$USERR5
 40
10.0
  9
$WORLDVIEW
 70
     1
  9
$SHADEDGE
 70
     3
  9
$SHADEDIF
 70
    70
  9
$TILEMODE
 70
     1
  9
$MAXACTVP
 70
    16
  9
$PLIMCHECK
 70
     0
  9
$PEXTMIN
 10
1.0000000000000000E+020
 20
1.0000000000000000E+020
 30
1.0000000000000000E+020
  9
$PEXTMAX
 10
-1.0000000000000000E+020
 20
-1.0000000000000000E+020
 30
-1.0000000000000000E+020
  9
$PLIMMIN
 10
0.0
 20
0.0
  9
$PLIMMAX
 10
12.0
 20
9.0
  9
$UNITMODE
 70
     0
  9
$VISRETAIN
 70
     0
  9
$PLINEGEN
 70
     0
  9
$PSLTSCALE
 70
     0
  0
ENDSEC
  0
SECTION
  2
TABLES
  0
TABLE
  2
VPORT
 70
     1
  0
VPORT
  2
*ACTIVE
 70
     0
 10
0.0
 20
0.0
 11
1.0
 21
1.0
 12
190.27239864831239
 22
214.13356838287319
 13
0.0
 23
0.0
 14
10.0
 24
10.0
 15
10.0
 25
10.0
 16
0.0
 26
0.0
 36
1.0
 17
0.0
 27
0.0
 37
0.0
 40
439.15864367952412
 41
2.304913294797688
 42
50.0
 43
0.0
 44
0.0
 50
0.0
 51
0.0
 71
    16
 72
   100
 73
     1
 74
     0
 75
     0
 76
     0
 77
     0
 78
     0
  0
ENDTAB
  0
TABLE
  2
LTYPE
 70
     4
  0
LTYPE
  2
CONTINUOUS
 70
     0
  3
Solid Line
 72
    65
 73
     0
 40
0.0
  0
LTYPE
  2
PHANTOM2
 70
     0
  3
___ _ _ ___ _ _ ___ _ _ ___ _ _
 72
    65
 73
     6
 40
1.25
 49
0.625
 49
-0.125
 49
0.125
 49
-0.125
 49
0.125
 49
-0.125
  0
LTYPE
  2
CENTER
 70
     0
  3
____ _ ____ _ ____ _ ____ _ ____ _ ____ _ ____
 72
    65
 73
     4
 40
2.0
 49
1.25
 49
-0.25
 49
0.25
 49
-0.25
  0
LTYPE
  2
HIDDEN
 70
     0
  3
_ _ _ _ _ _ _ _ _ _ _ _ _ _ _ _ _ _ _ _ _ _ _
 72
    65
 73
     2
 40
0.375
 49
0.25
 49
-0.125
  0
ENDTAB
  0
TABLE
  2
LAYER
 70
     5
  0
LAYER
  2
0
 70
     0
 62
     7
  6
CONTINUOUS
  0
LAYER
  2
1
 70
     0
 62
     1
  6
CENTER
  0
LAYER
  2
3
 70
     0
 62
     3
  6
CONTINUOUS
  0
LAYER
  2
2
 70
     0
 62
     2
  6
HIDDEN
  0
LAYER
  2
DEFPOINTS
 70
     0
 62
     7
  6
CONTINUOUS
  0
ENDTAB
  0
TABLE
  2
STYLE
 70
     3
  0
STYLE
  2
STANDARD
 70
     0
 40
0.0
 41
1.0
 50
0.0
 71
     0
 42
0.2
  3
SIMPLEX
  4
BIGFONT
  0
STYLE
  2
ANNOTATIVE
 70
     0
 40
0.0
 41
1.0
 50
0.0
 71
     0
 42
0.2
  3
txt
  4

  0
STYLE
  2
STANDARD1
 70
     0
 40
0.0
 41
1.0
 50
0.0
 71
     0
 42
3.0
  3
txt
  4

  0
ENDTAB
  0
TABLE
  2
VIEW
 70
     0
  0
ENDTAB
  0
TABLE
  2
UCS
 70
     0
  0
ENDTAB
  0
TABLE
  2
APPID
 70
    29
  0
APPID
  2
ACAD
 70
     0
  0
APPID
  2
ACADANNOTATIVE
 70
     0
  0
APPID
  2
GENIUS_GENOREF_13
 70
     0
  0
APPID
  2
GENIUS_GENOENT_13
 70
     0
  0
APPID
  2
GENIUS_GENBH_13
 70
     0
  0
APPID
  2
GENIUS_GENOBJ_13
 70
     0
  0
APPID
  2
GENIUS_GENODEF_13
 70
     0
  0
APPID
  2
GENIUS_GENOLIS_13
 70
     0
  0
APPID
  2
GENIUS_GENOBJ-NBEHI-BHF_13
 70
     0
  0
APPID
  2
GENIUS_GENOBJ-NBEHI-BHB_13
 70
     0
  0
APPID
  2
GENIUS_GENOBJ-F-PART_13
 70
     0
  0
APPID
  2
GENIUS_GEFSTDP_13
 70
     0
  0
APPID
  2
GENIUS_GENOBJ-N-RSSYM_13
 70
     0
  0
APPID
  2
GENIUS_GENSYMENT_13
 70
     0
  0
APPID
  2
GENIUS_GENOBJ-N-TIT_13
 70
     0
  0
APPID
  2
GENIUS_GENTITLE_13
 70
     0
  0
APPID
  2
GENIUS_GENZVEED_13
 70
     0
  0
APPID
  2
GENIUS_GENOBJ-N-LEADER_13
 70
     0
  0
APPID
  2
GENIUS_GENOBJ-N-FIL_13
 70
     0
  0
APPID
  2
GENIUS_GENOBJ-N-SEC_13
 70
     0
  0
APPID
  2
GENIUS_GENOBJ-N-CRS_13
 70
     0
  0
APPID
  2
GENIUS_GENOBJ-N-ZOO_13
 70
     0
  0
APPID
  2
GENIUS_GENZOO_13
 70
     0
  0
APPID
  2
GENIUS_GENOBJ-F-TOL_13
 70
     0
  0
APPID
  2
GENIUS_GENFIL_13
 70
     0
  0
APPID
  2
GENIUS_GENOBJ-N-CHA_13
 70
     0
  0
APPID
  2
ACAD_EXEMPT_FROM_CAD_STANDARDS
 70
     0
  0
APPID
  2
ACAD_MLEADERVER
 70
     0
  0
APPID
  2
ACAD_NAV_VCDISPLAY
 70
     0
  0
ENDTAB
  0
TABLE
  2
DIMSTYLE
 70
     2
  0
DIMSTYLE
  2
STANDARD
 70
     0
  3

  4

  5

  6

  7

 40
1.0
 41
0.18
 42
0.0625
 43
0.38
 44
0.18
 45
0.0
 46
0.0
 47
0.0
 48
0.0
140
0.18
141
0.09
142
0.0
143
25.399999999999999
144
1.0
145
0.0
146
1.0
147
0.09
 71
     0
 72
     0
 73
     1
 74
     1
 75
     0
 76
     0
 77
     0
 78
     0
170
     0
171
     2
172
     0
173
     0
174
     0
175
     0
176
     0
177
     0
178
     0
  0
DIMSTYLE
  2
ANNOTATIVE
 70
     0
  3

  4

  5

  6

  7

 40
1.0
 41
0.18
 42
0.0625
 43
0.38
 44
0.18
 45
0.0
 46
0.0
 47
0.0
 48
0.0
140
0.18
141
0.09
142
0.0
143
25.399999999999999
144
1.0
145
0.0
146
1.0
147
0.09
 71
     0
 72
     0
 73
     1
 74
     1
 75
     0
 76
     0
 77
     0
 78
     0
170
     0
171
     2
172
     0
173
     0
174
     0
175
     0
176
     0
177
     0
178
     0
  0
ENDTAB
  0
ENDSEC
  0
SECTION
  2
BLOCKS
  0
BLOCK
  8
0
  2
$MODEL_SPACE
 70
     0
 10
0.0
 20
0.0
 30
0.0
  3
$MODEL_SPACE
  1

  0
ENDBLK
  5
BCFB
  8
0
  0
BLOCK
 67
     1
  8
0
  2
$PAPER_SPACE
 70
     0
 10
0.0
 20
0.0
 30
0.0
  3
$PAPER_SPACE
  1

  0
ENDBLK
  5
BCF7
 67
     1
  8
0
  0
ENDSEC
  0
SECTION
  2
ENTITIES
  0
ARC
  5
B893
  8
0
 10
148.07482870781641
 20
356.84343469540022
 30
0.0
 40
55.499999999999503
 50
11.453741223643149
 51
168.54625877635681
  0
ARC
  5
B894
  8
0
 10
148.07482870781661
 20
356.84343469540022
 30
0.0
 40
48.499999999999901
 50
15.547742233147559
 51
164.4522577668524
  0
ARC
  5
B895
  8
0
 10
148.07482870781661
 20
356.84343469540022
 30
0.0
 40
41.499999999999901
 50
18.255381895566082
 51
161.7446181044339
  0
LINE
  5
B896
  8
1
 10
195.57482870781641
 20
368.09343469540022
 30
0.0
 11
195.57482870781641
 21
345.59343469540022
 31
0.0
  0
CIRCLE
  5
B897
  8
2
 10
195.57482870781641
 20
356.84343469540022
 30
0.0
 40
6.25
  0
ARC
  5
B898
  8
0
 10
195.57482870781641
 20
356.84343469540022
 30
0.0
 40
13.0
 50
270.0
 51
90.0
  0
LINE
  5
B899
  8
0
 10
180.57098232636011
 20
343.84343469540022
 30
0.0
 11
195.57482870781641
 21
343.84343469540022
 31
0.0
  0
LINE
  5
B89A
  8
0
 10
180.57098232636011
 20
369.84343469540022
 30
0.0
 11
195.57482870781641
 21
369.84343469540022
 31
0.0
  0
LINE
  5
B89B
  8
0
 10
115.57867508927291
 20
369.84343469540022
 30
0.0
 11
100.57482870781659
 21
369.84343469540022
 31
0.0
  0
LINE
  5
B89C
  8
0
 10
115.57867508927291
 20
343.84343469540022
 30
0.0
 11
100.57482870781659
 21
343.84343469540022
 31
0.0
  0
ARC
  5
B89D
  8
0
 10
100.57482870781659
 20
356.84343469540022
 30
0.0
 40
13.0
 50
90.0
 51
270.0
  0
CIRCLE
  5
B89E
  8
2
 10
100.57482870781649
 20
356.84343469540022
 30
0.0
 40
6.25
  0
LINE
  5
B89F
  8
1
 10
100.57482870781649
 20
368.09343469540022
 30
0.0
 11
100.57482870781649
 21
345.59343469540022
 31
0.0
  0
CIRCLE
  5
B8A2
  8
3
 10
148.07482870781641
 20
356.84343469540022
 30
0.0
 40
10.375999999999999
  0
CIRCLE
  5
B8A3
  8
0
 10
148.07482870781641
 20
356.84343469540022
 30
0.0
 40
12.0
  0
CIRCLE
  5
B8A4
  8
0
 10
148.07482870781641
 20
356.84343469540022
 30
0.0
 40
17.0
  0
LINE
  5
B8A5
  8
0
 10
137.68252387085619
 20
374.84343468074923
 30
0.0
 11
158.46713356168141
 21
374.84343468074923
 31
0.0
  0
LINE
  5
B8A6
  8
0
 10
158.4671335447739
 20
374.8434346807345
 30
0.0
 11
168.85943839019009
 21
356.84343468074928
 31
0.0
  0
LINE
  5
B8A7
  8
0
 10
168.85943838171721
 20
356.84343469540289
 30
0.0
 11
158.4671335363083
 21
338.843434695403
 31
0.0
  0
LINE
  5
B8A8
  8
0
 10
158.46713354476299
 20
338.84343471005678
 30
0.0
 11
137.68252385393779
 21
338.84343471005678
 31
0.0
  0
LINE
  5
B8A9
  8
0
 10
137.68252387085801
 20
338.84343471005678
 30
0.0
 11
127.2902190254418
 21
356.84343471005678
 31
0.0
  0
LINE
  5
B8AA
  8
0
 10
127.2902190339147
 20
356.84343469540289
 30
0.0
 11
137.68252387932361
 21
374.84343469540289
 31
0.0
  0
ARC
  5
B8AB
  8
0
 10
318.04479552457531
 20
106.2334009519336
 30
0.0
 40
12.25
 50
20.655369424004022
 51
46.062160114254262
  0
ARC
  5
B8AC
  8
0
 10
318.04479552457531
 20
106.2334009519336
 30
0.0
 40
12.25
 50
133.93783988574569
 51
159.34463057599589
  0
LINE
  5
B8AD
  8
0
 10
309.54479552457531
 20
121.55454033413611
 30
0.0
 11
309.54479552457531
 21
115.0545403341502
 31
0.0
  0
LINE
  5
B8AE
  8
0
 10
326.54479552457531
 20
121.55454033413611
 30
0.0
 11
326.54479552457531
 21
115.05454033412209
 31
0.0
  0
LINE
  5
B8AF
  8
0
 10
309.04479552457519
 20
229.55454033419369
 30
0.0
 11
327.04479552457531
 21
229.55454033419349
 31
0.0
  0
LINE
  5
B8B0
  8
0
 10
330.04479552457519
 20
131.26586519954839
 30
0.0
 11
330.04479552457519
 21
155.5545403341934
 31
0.0
  0
LINE
  5
B8B1
  8
3
 10
328.42079552457523
 20
136.5545403341934
 30
0.0
 11
328.42079552457523
 21
155.55454033419309
 31
0.0
  0
LINE
  5
B8B2
  8
3
 10
307.66879552457522
 20
136.5545403341934
 30
0.0
 11
307.66879552457522
 21
155.5545403341934
 31
0.0
  0
LINE
  5
B8B3
  8
0
 10
306.04479552457531
 20
131.26586519948631
 30
0.0
 11
306.04479552457531
 21
155.5545403341934
 31
0.0
  0
LINE
  5
B8B4
  8
0
 10
306.04479552457531
 20
226.55454033419389
 30
0.0
 11
309.04479552457519
 21
229.55454033419369
 31
0.0
  0
LINE
  5
B8B5
  8
0
 10
327.04479552457531
 20
229.55454033419349
 30
0.0
 11
330.04479552457519
 21
226.55454033419349
 31
0.0
  0
LINE
  5
B8B6
  8
0
 10
306.04479552457531
 20
226.55454033419389
 30
0.0
 11
330.04479552457519
 21
226.55454033419349
 31
0.0
  0
LINE
  5
B8B7
  8
0
 10
330.04479552457519
 20
136.5545403341934
 30
0.0
 11
306.04479552457531
 21
136.5545403341934
 31
0.0
  0
LINE
  5
B8B8
  8
3
 10
307.66879552457522
 20
136.5545403341934
 30
0.0
 11
306.04479552457531
 21
133.7416898227016
 31
0.0
  0
LINE
  5
B8B9
  8
3
 10
328.42079552457523
 20
136.5545403341934
 30
0.0
 11
330.04479552457519
 21
133.7416898227016
 31
0.0
  0
LINE
  5
B8BA
  8
0
 10
329.54479552452142
 20
121.5545403341746
 30
0.0
 11
306.54479552473691
 21
121.5545403341746
 31
0.0
  0
LINE
  5
B8BB
  8
0
 10
306.54479552462919
 20
131.55454033417459
 30
0.0
 11
329.54479552452142
 21
131.55454033417459
 31
0.0
  0
ARC
  5
B8BC
  8
0
 10
328.43710037004257
 20
125.13189060388891
 30
0.0
 40
6.1339745957208196
 50
64.384247469840446
 51
124.3842474712085
  0
LINE
  5
B8BD
  8
0
 10
331.90120198520208
 20
130.1940684297804
 30
0.0
 11
329.54479552452142
 21
131.55454033417459
 31
0.0
  0
LINE
  5
B8BE
  8
0
 10
331.90120198520208
 20
122.91501223856881
 30
0.0
 11
329.54479552452142
 21
121.5545403341746
 31
0.0
  0
ARC
  5
B8BF
  8
0
 10
328.43710037004257
 20
127.9771900644602
 30
0.0
 40
6.1339745957208196
 50
235.6157525287887
 51
295.61575253015963
  0
LINE
  5
B8C0
  8
0
 10
331.90120198518031
 20
130.1940684297804
 30
0.0
 11
331.90120198518031
 21
122.915012238556
 31
0.0
  0
LINE
  5
B8C1
  8
0
 10
324.97299875490449
 20
130.1940684297804
 30
0.0
 11
324.97299875490449
 21
122.91501223856881
 31
0.0
  0
LINE
  5
B8C2
  8
0
 10
311.11659229435378
 20
130.1940684297804
 30
0.0
 11
311.11659229435378
 21
122.91501223856881
 31
0.0
  0
LINE
  5
B8C3
  8
0
 10
304.18838906407802
 20
130.1940684297804
 30
0.0
 11
304.18838906407802
 21
122.915012238556
 31
0.0
  0
ARC
  5
B8C4
  8
0
 10
318.04479552462908
 20
144.77141869687901
 30
0.0
 40
22.928203228139491
 50
252.41204622431411
 51
287.58795377568589
  0
ARC
  5
B8C5
  8
0
 10
307.65249067921559
 20
127.9771900644602
 30
0.0
 40
6.1339745957208196
 50
244.3842474698404
 51
304.38424747121132
  0
LINE
  5
B8C6
  8
0
 10
304.1883890640562
 20
122.91501223856881
 30
0.0
 11
306.54479552473691
 21
121.5545403341746
 31
0.0
  0
LINE
  5
B8C7
  8
0
 10
304.1883890640562
 20
130.1940684297804
 30
0.0
 11
306.54479552473691
 21
131.55454033417459
 31
0.0
  0
ARC
  5
B8C8
  8
0
 10
307.65249067921559
 20
125.13189060388891
 30
0.0
 40
6.1339745957208196
 50
55.615752528791369
 51
115.6157525301595
  0
ARC
  5
B8C9
  8
0
 10
318.04479552462908
 20
108.3376619714701
 30
0.0
 40
22.928203228139491
 50
72.412046224314139
 51
107.5879537756858
  0
LINE
  5
B8CA
  8
0
 10
309.54479552457531
 20
115.05454033412209
 30
0.0
 11
326.54479552457531
 21
115.05454033412209
 31
0.0
  0
LINE
  5
B8CB
  8
0
 10
300.04479553922607
 20
173.9771900734622
 30
0.0
 11
300.04479553922607
 21
156.13189059492419
 31
0.0
  0
LINE
  5
B8CC
  8
0
 10
301.04479552457542
 20
174.55454033419321
 30
0.0
 11
300.04479553922607
 21
173.9771900734622
 31
0.0
  0
ARC
  5
B8CD
  8
0
 10
309.04479553190049
 20
147.98199956614999
 30
0.0
 40
25.995190507312159
 50
69.743841999652659
 51
110.2561580003473
  0
ARC
  5
B8CE
  8
0
 10
309.04479553190049
 20
182.12708110223639
 30
0.0
 40
25.995190507312159
 50
249.74384199965269
 51
290.2561580003474
  0
LINE
  5
B8CF
  8
0
 10
301.04479552457542
 20
155.55454033419309
 30
0.0
 11
300.04479553922607
 21
156.13189059492419
 31
0.0
  0
LINE
  5
B8D0
  8
0
 10
335.04479552457508
 20
155.55454033419309
 30
0.0
 11
336.0447955099242
 21
156.13189059492419
 31
0.0
  0
ARC
  5
B8D1
  8
0
 10
327.04479551724961
 20
182.12708110223639
 30
0.0
 40
25.995190507312159
 50
249.74384199965269
 51
290.2561580003474
  0
ARC
  5
B8D2
  8
0
 10
327.04479551724961
 20
147.98199956614999
 30
0.0
 40
25.995190507312159
 50
69.743841999652659
 51
110.2561580003473
  0
LINE
  5
B8D3
  8
0
 10
335.04479552457508
 20
174.55454033419321
 30
0.0
 11
336.0447955099242
 21
173.9771900734622
 31
0.0
  0
LINE
  5
B8D4
  8
0
 10
301.04479552457542
 20
174.55454033419321
 30
0.0
 11
335.04479552457508
 21
174.55454033419321
 31
0.0
  0
LINE
  5
B8D5
  8
0
 10
336.0447955099242
 20
173.9771900734622
 30
0.0
 11
336.0447955099242
 21
156.13189059492419
 31
0.0
  0
LINE
  5
B8D6
  8
0
 10
301.04479552457542
 20
155.55454033419309
 30
0.0
 11
335.04479552457508
 21
155.55454033419309
 31
0.0
  0
LINE
  5
B8D7
  8
0
 10
318.04479552457531
 20
172.36949492018991
 30
0.0
 11
318.04479552457531
 21
157.7395857481967
 31
0.0
  0
LINE
  5
B8D8
  8
0
 10
330.04479552457519
 20
174.55454033419321
 30
0.0
 11
330.04479552457519
 21
226.55454033419349
 31
0.0
  0
LINE
  5
B8D9
  8
3
 10
328.42079552457523
 20
174.55454033419321
 30
0.0
 11
328.42079552457523
 21
228.1785403341936
 31
0.0
  0
LINE
  5
B8DA
  8
0
 10
306.04479552457531
 20
174.55454033419321
 30
0.0
 11
306.04479552457531
 21
226.55454033419389
 31
0.0
  0
LINE
  5
B8DB
  8
3
 10
307.66879552457522
 20
174.55454033419301
 30
0.0
 11
307.66879552457522
 21
228.17854033419371
 31
0.0
  0
ARC
  5
B8DC
  8
0
 10
148.07482870781661
 20
106.2334009519336
 30
0.0
 40
12.25
 50
20.655369424003919
 51
46.062160114254262
  0
LINE
  5
B8DD
  8
3
 10
158.4508287078165
 20
136.5545403341934
 30
0.0
 11
160.07482870781641
 21
133.7416898227016
 31
0.0
  0
LINE
  5
B8DE
  8
3
 10
137.6988287078166
 20
136.5545403341934
 30
0.0
 11
136.07482870781661
 21
133.7416898227016
 31
0.0
  0
LINE
  5
B8DF
  8
0
 10
160.07482870781661
 20
136.5545403341934
 30
0.0
 11
136.07482870781661
 21
136.5545403341934
 31
0.0
  0
LINE
  5
B8E0
  8
0
 10
136.07482870781661
 20
226.55454033419389
 30
0.0
 11
160.07482870781661
 21
226.55454033419349
 31
0.0
  0
LINE
  5
B8E1
  8
0
 10
157.07482870781661
 20
229.55454033419349
 30
0.0
 11
160.07482870781661
 21
226.55454033419349
 31
0.0
  0
LINE
  5
B8E2
  8
0
 10
136.07482870781661
 20
226.55454033419389
 30
0.0
 11
139.07482870781661
 21
229.55454033419369
 31
0.0
  0
LINE
  5
B8E3
  8
0
 10
136.07482870781661
 20
131.26586519957979
 30
0.0
 11
136.07482870781661
 21
155.55454033419301
 31
0.0
  0
LINE
  5
B8E4
  8
3
 10
137.6988287078166
 20
136.5545403341934
 30
0.0
 11
137.6988287078166
 21
155.55454033419309
 31
0.0
  0
LINE
  5
B8E5
  8
3
 10
158.45082870781661
 20
136.5545403341934
 30
0.0
 11
158.45082870781661
 21
155.55454033419301
 31
0.0
  0
LINE
  5
B8E6
  8
0
 10
160.07482870781661
 20
131.2658651996181
 30
0.0
 11
160.07482870781661
 21
155.55454033419301
 31
0.0
  0
LINE
  5
B8E7
  8
0
 10
139.07482870781661
 20
229.55454033419369
 30
0.0
 11
157.07482870781661
 21
229.55454033419349
 31
0.0
  0
LINE
  5
B8E8
  8
0
 10
156.57482870781661
 20
121.55454033413611
 30
0.0
 11
156.57482870781661
 21
115.05454033412209
 31
0.0
  0
LINE
  5
B8E9
  8
0
 10
139.57482870781661
 20
121.55454033413611
 30
0.0
 11
139.57482870781661
 21
115.0545403341502
 31
0.0
  0
LINE
  5
B8EA
  8
0
 10
159.5748287078498
 20
121.55454033411679
 30
0.0
 11
136.57482870778341
 21
121.55454033415521
 31
0.0
  0
LINE
  5
B8EB
  8
0
 10
136.57482870778341
 20
131.55454033415521
 30
0.0
 11
159.5748287078498
 21
131.55454033419369
 31
0.0
  0
ARC
  5
B8EC
  8
0
 10
142.0748287078498
 20
113.9357381822565
 30
0.0
 40
17.330127017333279
 50
69.743841997633055
 51
110.2561580023669
  0
LINE
  5
B8ED
  8
0
 10
136.0748287078348
 20
131.26586519959031
 30
0.0
 11
136.5748287078498
 21
131.55454033419369
 31
0.0
  0
LINE
  5
B8EE
  8
0
 10
136.0748287078348
 20
121.8432154687202
 30
0.0
 11
136.5748287078498
 21
121.55454033411679
 31
0.0
  0
ARC
  5
B8EF
  8
0
 10
142.0748287078498
 20
139.17334248605351
 30
0.0
 40
17.330127017333279
 50
249.7438419976331
 51
290.25615800236699
  0
LINE
  5
B8F0
  8
0
 10
136.0748287078348
 20
131.26586519959031
 30
0.0
 11
136.07482870784969
 21
121.84321546871161
 31
0.0
  0
LINE
  5
B8F1
  8
0
 10
148.0748287078498
 20
122.91501223854949
 30
0.0
 11
148.0748287078498
 21
130.19406842976099
 31
0.0
  0
LINE
  5
B8F2
  8
0
 10
160.07482870786481
 20
131.26586519959031
 30
0.0
 11
160.0748287078498
 21
121.84321546871161
 31
0.0
  0
ARC
  5
B8F3
  8
0
 10
154.0748287078498
 20
139.17334248605351
 30
0.0
 40
17.330127017333279
 50
249.7438419976331
 51
290.25615800236699
  0
LINE
  5
B8F4
  8
0
 10
160.07482870786481
 20
121.8432154687202
 30
0.0
 11
159.5748287078498
 21
121.55454033411679
 31
0.0
  0
LINE
  5
B8F5
  8
0
 10
160.07482870786481
 20
131.26586519959031
 30
0.0
 11
159.5748287078498
 21
131.55454033419369
 31
0.0
  0
ARC
  5
B8F6
  8
0
 10
154.0748287078498
 20
113.9357381822565
 30
0.0
 40
17.330127017333279
 50
69.743841997633055
 51
110.2561580023669
  0
ARC
  5
B8F7
  8
0
 10
148.07482870781661
 20
106.2334009519336
 30
0.0
 40
12.25
 50
133.9378398855568
 51
159.34463057599609
  0
LINE
  5
B8F8
  8
0
 10
139.57482870781661
 20
115.0545403341502
 30
0.0
 11
156.57482870781661
 21
115.05454033412209
 31
0.0
  0
LINE
  5
B8F9
  8
0
 10
168.85943838171571
 20
172.36949492018991
 30
0.0
 11
168.85943838171571
 21
157.7395857481967
 31
0.0
  0
LINE
  5
B8FA
  8
0
 10
165.07482870781641
 20
174.55454033419321
 30
0.0
 11
168.85943838171571
 21
172.36949492018991
 31
0.0
  0
ARC
  5
B8FB
  8
0
 10
163.66328596324081
 20
164.77622818660871
 30
0.0
 40
9.2009618868538041
 50
64.384247467929242
 51
124.38424746793839
  0
ARC
  5
B8FC
  8
0
 10
163.66328596324081
 20
165.33285248177799
 30
0.0
 40
9.2009618868538041
 50
235.61575253206149
 51
295.6157525320707
  0
LINE
  5
B8FD
  8
0
 10
165.07482870781641
 20
155.55454033419309
 30
0.0
 11
168.85943838171571
 21
157.7395857481967
 31
0.0
  0
LINE
  5
B8FE
  8
0
 10
131.07482870781661
 20
155.55454033419309
 30
0.0
 11
127.2902190339174
 21
157.7395857481967
 31
0.0
  0
ARC
  5
B8FF
  8
0
 10
132.48637145239221
 20
165.33285248177799
 30
0.0
 40
9.2009618868538041
 50
244.38424746792921
 51
304.38424746793839
  0
ARC
  5
B900
  8
0
 10
148.0748287078186
 20
190.524195412441
 30
0.0
 40
34.392304817516766
 50
252.41204622606631
 51
287.58795377393369
  0
ARC
  5
B901
  8
0
 10
132.48637145239221
 20
164.77622818660871
 30
0.0
 40
9.2009618868538041
 50
55.615752532061599
 51
115.6157525320707
  0
ARC
  5
B902
  8
0
 10
148.0748287078186
 20
139.58488525594541
 30
0.0
 40
34.392304817516766
 50
72.412046226066266
 51
107.58795377393371
  0
LINE
  5
B903
  8
0
 10
158.46713354476981
 20
172.36949492018991
 30
0.0
 11
158.46713354476981
 21
157.7395857481967
 31
0.0
  0
LINE
  5
B904
  8
0
 10
137.6825238708675
 20
172.36949492018991
 30
0.0
 11
137.6825238708675
 21
157.7395857481967
 31
0.0
  0
LINE
  5
B905
  8
0
 10
131.07482870781661
 20
174.55454033419321
 30
0.0
 11
127.2902190339174
 21
172.36949492018991
 31
0.0
  0
LINE
  5
B906
  8
0
 10
127.2902190339174
 20
172.36949492018991
 30
0.0
 11
127.2902190339174
 21
157.7395857481967
 31
0.0
  0
LINE
  5
B907
  8
0
 10
131.07482870781661
 20
155.55454033419309
 30
0.0
 11
165.07482870781641
 21
155.55454033419309
 31
0.0
  0
LINE
  5
B908
  8
0
 10
131.07482870781669
 20
174.55454033419321
 30
0.0
 11
165.07482870781641
 21
174.55454033419321
 31
0.0
  0
LINE
  5
B909
  8
0
 10
160.07482870781661
 20
174.55454033419321
 30
0.0
 11
160.07482870781661
 21
226.55454033419349
 31
0.0
  0
LINE
  5
B90A
  8
3
 10
158.45082870781661
 20
174.55454033419321
 30
0.0
 11
158.45082870781661
 21
228.1785403341936
 31
0.0
  0
LINE
  5
B90B
  8
3
 10
137.6988287078166
 20
174.55454033419321
 30
0.0
 11
137.6988287078166
 21
228.17854033419371
 31
0.0
  0
LINE
  5
B90C
  8
0
 10
136.07482870781661
 20
174.55454033419301
 30
0.0
 11
136.07482870781661
 21
226.55454033419389
 31
0.0
  0
LINE
  5
B91C
  8
0
 10
210.57482870781641
 20
64.55454033419359
 30
0.0
 11
85.574828707816593
 21
64.554540334193689
 31
0.0
  0
LINE
  5
B91D
  8
0
 10
210.57482870781641
 20
64.55454033419359
 30
0.0
 11
210.57482870781661
 21
80.673746423238754
 31
0.0
  0
LINE
  5
B91E
  8
0
 10
203.07482870781649
 20
64.55454033419359
 30
0.0
 11
203.07482870781649
 21
61.554540334193568
 31
0.0
  0
LINE
  5
B920
  8
0
 10
169.07482870781661
 20
110.5545403341936
 30
0.0
 11
127.07482870781649
 21
110.5545403341936
 31
0.0
  0
LINE
  5
B921
  8
0
 10
169.07482870781641
 20
110.5545403341936
 30
0.0
 11
183.07482870781641
 21
88.554540334193547
 31
0.0
  0
LINE
  5
B922
  8
0
 10
183.07482870781641
 20
88.554540334193547
 30
0.0
 11
188.8215079884514
 21
87.091749244577372
 31
0.0
  0
LINE
  5
B923
  8
0
 10
203.57482870781649
 20
82.445449425102623
 30
0.0
 11
203.57482870781649
 21
82.455564605056907
 31
0.0
  0
LINE
  5
B924
  8
0
 10
196.57482870781641
 20
84.22726760692079
 30
0.0
 11
196.57482870781641
 21
84.237382786875074
 31
0.0
  0
LINE
  5
B925
  8
0
 10
189.57482870781649
 20
86.009085788739071
 30
0.0
 11
189.57482870781649
 21
86.122652070654453
 31
0.0
  0
LINE
  5
B926
  8
0
 10
209.70108298749059
 20
81.665744334962355
 30
0.0
 11
203.57482870781649
 21
82.445449425102623
 31
0.0
  0
LINE
  5
B927
  8
0
 10
202.70108298749039
 20
83.447562516780522
 30
0.0
 11
196.57482870781641
 21
84.22726760692079
 31
0.0
  0
LINE
  5
B928
  8
0
 10
195.70108298749039
 20
85.229380698598675
 30
0.0
 11
189.57482870781649
 21
86.009085788739071
 31
0.0
  0
ARC
  5
B929
  8
0
 10
188.57482870781649
 20
86.122652070654453
 30
0.0
 40
1.0
 50
0.0
 51
75.718904264029092
  0
ARC
  5
B92A
  8
0
 10
195.57482870781641
 20
84.237382786875074
 30
0.0
 40
1.0
 50
0.0
 51
82.746805387274705
  0
ARC
  5
B92B
  8
0
 10
202.57482870781649
 20
82.455564605056907
 30
0.0
 40
1.0
 50
0.000000000001832
 51
82.746805387274634
  0
ARC
  5
B92C
  8
0
 10
209.57482870781661
 20
80.673746423238754
 30
0.0
 40
1.0
 50
359.9999999999996
 51
82.746805387274634
  0
LINE
  5
B92D
  8
0
 10
203.57482870781649
 20
82.445449425102623
 30
0.0
 11
92.574828707817517
 21
82.445449425102751
 31
0.0
  0
LINE
  5
B92E
  8
0
 10
196.57482870781641
 20
84.22726760692079
 30
0.0
 11
99.574828707817403
 21
84.227267606920904
 31
0.0
  0
LINE
  5
B92F
  8
0
 10
189.57482870781649
 20
86.009085788739071
 30
0.0
 11
106.5748287078172
 21
86.009085788739071
 31
0.0
  0
LINE
  5
B930
  8
0
 10
183.07482870781641
 20
88.554540334193547
 30
0.0
 11
113.07482870781681
 21
88.554540334193646
 31
0.0
  0
ARC
  5
B931
  8
0
 10
86.574828707816508
 20
80.673746423238754
 30
0.0
 40
1.0
 50
97.253194612725352
 51
180.00000000000051
  0
ARC
  5
B932
  8
0
 10
93.574828707816607
 20
82.455564605056907
 30
0.0
 40
1.0
 50
97.253194612725352
 51
179.99999999999821
  0
ARC
  5
B933
  8
0
 10
100.57482870781659
 20
84.237382786875074
 30
0.0
 40
1.0
 50
97.253194612725281
 51
180.0
  0
ARC
  5
B934
  8
0
 10
107.57482870781659
 20
86.122652070654453
 30
0.0
 40
1.0
 50
104.28109573597089
 51
180.0
  0
LINE
  5
B935
  8
0
 10
100.44857442814261
 20
85.229380698598675
 30
0.0
 11
106.57482870781659
 21
86.009085788739071
 31
0.0
  0
LINE
  5
B936
  8
0
 10
93.448574428142635
 20
83.447562516780522
 30
0.0
 11
99.574828707816593
 21
84.22726760692079
 31
0.0
  0
LINE
  5
B937
  8
0
 10
86.448574428142535
 20
81.665744334962355
 30
0.0
 11
92.574828707816607
 21
82.445449425102623
 31
0.0
  0
LINE
  5
B938
  8
0
 10
106.57482870781659
 20
86.009085788739071
 30
0.0
 11
106.57482870781659
 21
86.122652070654453
 31
0.0
  0
LINE
  5
B939
  8
0
 10
99.574828707816593
 20
84.22726760692079
 30
0.0
 11
99.574828707816593
 21
84.237382786875074
 31
0.0
  0
LINE
  5
B93A
  8
0
 10
92.574828707816607
 20
82.445449425102623
 30
0.0
 11
92.574828707816607
 21
82.455564605056907
 31
0.0
  0
LINE
  5
B93B
  8
0
 10
113.07482870781659
 20
88.554540334193547
 30
0.0
 11
107.3281494271817
 21
87.091749244577372
 31
0.0
  0
LINE
  5
B93C
  8
0
 10
127.07482870781649
 20
110.5545403341936
 30
0.0
 11
113.07482870781659
 21
88.554540334193547
 31
0.0
  0
LINE
  5
B93D
  8
0
 10
93.074828707816593
 20
64.55454033419359
 30
0.0
 11
93.074828707816593
 21
61.554540334193568
 31
0.0
  0
LINE
  5
B93E
  8
0
 10
85.574828707816593
 20
64.55454033419359
 30
0.0
 11
85.574828707816494
 21
80.673746423238754
 31
0.0
  0
LINE
  5
B93F
  8
0
 10
93.074828707816593
 20
61.554540334193568
 30
0.0
 11
203.07482870781649
 21
61.554540334193568
 31
0.0
  0
LINE
  5
B940
  8
1
 10
148.07482870781641
 20
51.554540334193568
 30
0.0
 11
148.07482870781661
 21
239.55454033419369
 31
0.0
  0
LINE
  5
B941
  8
1
 10
318.04479552457531
 20
51.554540334193568
 30
0.0
 11
318.04479552457531
 21
239.55454033419369
 31
0.0
  0
LINE
  5
B942
  8
0
 10
263.04479552457519
 20
61.554540334193568
 30
0.0
 11
373.04479552457508
 21
61.554540334193568
 31
0.0
  0
LINE
  5
B943
  8
0
 10
255.54479552457531
 20
64.55454033419359
 30
0.0
 11
255.54479552457511
 21
80.673746423238754
 31
0.0
  0
LINE
  5
B944
  8
0
 10
263.04479552457519
 20
64.55454033419359
 30
0.0
 11
263.04479552457519
 21
61.554540334193568
 31
0.0
  0
LINE
  5
B945
  8
0
 10
297.04479552457519
 20
110.5545403341936
 30
0.0
 11
283.04479552457519
 21
88.554540334193547
 31
0.0
  0
LINE
  5
B946
  8
0
 10
283.04479552457519
 20
88.554540334193547
 30
0.0
 11
277.29811624394029
 21
87.091749244577372
 31
0.0
  0
LINE
  5
B947
  8
0
 10
262.54479552457531
 20
82.445449425102623
 30
0.0
 11
262.54479552457519
 21
82.455564605056907
 31
0.0
  0
LINE
  5
B948
  8
0
 10
269.54479552457519
 20
84.22726760692079
 30
0.0
 11
269.54479552457519
 21
84.237382786875074
 31
0.0
  0
LINE
  5
B949
  8
0
 10
276.54479552457531
 20
86.009085788739071
 30
0.0
 11
276.54479552457531
 21
86.122652070654453
 31
0.0
  0
LINE
  5
B94A
  8
0
 10
256.41854124490118
 20
81.665744334962355
 30
0.0
 11
262.54479552457531
 21
82.445449425102623
 31
0.0
  0
LINE
  5
B94B
  8
0
 10
263.41854124490129
 20
83.447562516780522
 30
0.0
 11
269.54479552457519
 21
84.22726760692079
 31
0.0
  0
LINE
  5
B94C
  8
0
 10
270.41854124490129
 20
85.229380698598675
 30
0.0
 11
276.54479552457531
 21
86.009085788739071
 31
0.0
  0
ARC
  5
B94D
  8
0
 10
277.54479552457519
 20
86.122652070654453
 30
0.0
 40
1.0
 50
104.28109573597089
 51
180.0
  0
ARC
  5
B94E
  8
0
 10
270.54479552457519
 20
84.237382786875074
 30
0.0
 40
1.0
 50
97.253194612725281
 51
180.0
  0
ARC
  5
B94F
  8
0
 10
263.54479552457519
 20
82.455564605056907
 30
0.0
 40
1.0
 50
97.253194612725352
 51
179.99999999999821
  0
ARC
  5
B950
  8
0
 10
256.54479552457508
 20
80.673746423238754
 30
0.0
 40
1.0
 50
97.253194612725352
 51
180.00000000000051
  0
LINE
  5
B951
  8
0
 10
353.04479552457519
 20
88.554540334193547
 30
0.0
 11
283.04479552457548
 21
88.554540334193646
 31
0.0
  0
LINE
  5
B952
  8
0
 10
359.54479552457502
 20
86.009085788739071
 30
0.0
 11
331.0447955245757
 21
86.009085788739071
 31
0.0
  0
LINE
  5
B953
  8
0
 10
366.54479552457508
 20
84.22726760692079
 30
0.0
 11
331.0447955245757
 21
84.227267606920861
 31
0.0
  0
LINE
  5
B954
  8
0
 10
373.54479552457519
 20
82.445449425102623
 30
0.0
 11
329.06570181916089
 21
82.445449425102638
 31
0.0
  0
ARC
  5
B955
  8
0
 10
379.54479552457519
 20
80.673746423238754
 30
0.0
 40
1.0
 50
359.9999999999996
 51
82.746805387274634
  0
ARC
  5
B956
  8
0
 10
372.54479552457531
 20
82.455564605056907
 30
0.0
 40
1.0
 50
0.000000000001832
 51
82.746805387274634
  0
ARC
  5
B957
  8
0
 10
365.54479552457519
 20
84.237382786875074
 30
0.0
 40
1.0
 50
0.0
 51
82.746805387274705
  0
ARC
  5
B958
  8
0
 10
358.54479552457502
 20
86.122652070654453
 30
0.0
 40
1.0
 50
0.0
 51
75.718904264029092
  0
LINE
  5
B959
  8
0
 10
365.67104980424898
 20
85.229380698598675
 30
0.0
 11
359.54479552457502
 21
86.009085788739071
 31
0.0
  0
LINE
  5
B95A
  8
0
 10
372.67104980424898
 20
83.447562516780522
 30
0.0
 11
366.54479552457508
 21
84.22726760692079
 31
0.0
  0
LINE
  5
B95B
  8
0
 10
379.67104980424921
 20
81.665744334962355
 30
0.0
 11
373.54479552457519
 21
82.445449425102623
 31
0.0
  0
LINE
  5
B95C
  8
0
 10
359.54479552457502
 20
86.009085788739071
 30
0.0
 11
359.54479552457502
 21
86.122652070654453
 31
0.0
  0
LINE
  5
B95D
  8
0
 10
366.54479552457531
 20
84.22726760692079
 30
0.0
 11
366.54479552457531
 21
84.237382786875074
 31
0.0
  0
LINE
  5
B95E
  8
0
 10
373.54479552457519
 20
82.445449425102623
 30
0.0
 11
373.54479552457519
 21
82.455564605056907
 31
0.0
  0
LINE
  5
B95F
  8
0
 10
353.04479552457519
 20
88.554540334193547
 30
0.0
 11
358.79147480520999
 21
87.091749244577372
 31
0.0
  0
LINE
  5
B960
  8
0
 10
339.04479552457531
 20
110.5545403341936
 30
0.0
 11
353.04479552457519
 21
88.554540334193547
 31
0.0
  0
LINE
  5
B961
  8
0
 10
339.04479552457531
 20
110.5545403341936
 30
0.0
 11
297.04479552457519
 21
110.5545403341936
 31
0.0
  0
LINE
  5
B962
  8
0
 10
373.04479552457502
 20
64.55454033419359
 30
0.0
 11
373.04479552457508
 21
61.554540334193568
 31
0.0
  0
LINE
  5
B963
  8
0
 10
380.54479552457508
 20
64.55454033419359
 30
0.0
 11
380.54479552457531
 21
80.673746423238754
 31
0.0
  0
LINE
  5
B964
  8
0
 10
380.54479552457508
 20
64.55454033419359
 30
0.0
 11
255.54479552457531
 21
64.554540334193689
 31
0.0
  0
CIRCLE
  5
B965
  8
0
 10
148.07482870781641
 20
356.84343469540022
 30
0.0
 40
62.499999999999929
  0
ARC
  5
B966
  8
0
 10
148.07482870781641
 20
356.84343469540022
 30
0.0
 40
55.499999999999503
 50
191.45374122364299
 51
348.54625877635698
  0
ARC
  5
B967
  8
0
 10
148.07482870781661
 20
356.84343469540022
 30
0.0
 40
48.499999999999901
 50
195.54774223314729
 51
344.4522577668526
  0
ARC
  5
B968
  8
0
 10
148.07482870781661
 20
356.84343469540022
 30
0.0
 40
41.499999999999901
 50
198.2553818955659
 51
341.74461810443421
  0
CIRCLE
  5
B969
  8
0
 10
148.07482870781641
 20
356.84343469540022
 30
0.0
 40
34.999999999999829
  0
CIRCLE
  5
B96A
  8
0
 10
148.07482870781641
 20
356.84343469540022
 30
0.0
 40
20.999999999999879
  0
LINE
  5
B96B
  8
1
 10
148.07482870781641
 20
429.34343469540011
 30
0.0
 11
148.07482870781641
 21
284.34343469540022
 31
0.0
  0
LINE
  5
B96C
  8
1
 10
220.57482870781649
 20
356.84343469540022
 30
0.0
 11
75.574828707816607
 21
356.84343469540022
 31
0.0
  0
ARC
  5
BAC9
  8
0
 10
318.04479552551749
 20
171.79391375759889
 30
0.0
 40
90.025598882254684
 50
262.96800700511932
 51
277.03199299073611
  0
ARC
  5
BACA
  8
0
 10
306.06910184282231
 20
82.56532092702723
 30
0.0
 40
0.9615654688432545
 50
353.14234411221292
 51
66.564082695046039
  0
POLYLINE
  5
BACB
  8
0
 66
     1
 10
0.0
 20
0.0
 30
0.0
 70
   128
  0
VERTEX
  5
BD9D
  8
0
 10
306.45153867098799
 20
83.447562517149152
 30
0.0
  0
VERTEX
  5
BD9E
  8
0
 10
305.63422220764261
 20
83.673887780657594
 30
0.0
  0
VERTEX
  5
BD9F
  8
0
 10
305.15509201382599
 20
83.9280992896675
 30
0.0
  0
VERTEX
  5
BDA0
  8
0
 10
305.04479552457519
 20
84.132216858417706
 30
0.0
  0
SEQEND
  5
BDA1
  8
0
  0
LINE
  5
BACC
  8
0
 10
305.04479552457519
 20
84.132216858642337
 30
0.0
 11
305.04479552457519
 21
87.554540334193817
 31
0.0
  0
LINE
  5
BACD
  8
0
 10
331.0447955245757
 20
87.554540334193817
 30
0.0
 11
305.04479552457519
 21
87.554540334193817
 31
0.0
  0
LINE
  5
BACE
  8
0
 10
331.0447955245757
 20
84.132216871535206
 30
0.0
 11
331.0447955245757
 21
87.554540334193817
 31
0.0
  0
POLYLINE
  5
BACF
  8
0
 66
     1
 10
0.0
 20
0.0
 30
0.0
 70
   128
  0
VERTEX
  5
BDA2
  8
0
 10
329.63805237817741
 20
83.447562517152349
 30
0.0
  0
VERTEX
  5
BDA3
  8
0
 10
330.45536884158929
 20
83.673887780687267
 30
0.0
  0
VERTEX
  5
BDA4
  8
0
 10
330.93449903539369
 20
83.928099289730284
 30
0.0
  0
VERTEX
  5
BDA5
  8
0
 10
331.0447955245757
 20
84.132216884581979
 30
0.0
  0
SEQEND
  5
BDA6
  8
0
  0
ARC
  5
BAD0
  8
0
 10
330.02048920638453
 20
82.565320926955962
 30
0.0
 40
0.9615654689281507
 50
113.43591730545459
 51
186.85765590176879
  0
LINE
  5
BAD1
  8
0
 10
305.04479552457519
 20
86.009085788739071
 30
0.0
 11
276.54479552457587
 21
86.009085788739071
 31
0.0
  0
LINE
  5
BAD4
  8
0
 10
305.04479552457519
 20
84.227267606920861
 30
0.0
 11
269.54479552457599
 21
84.227267606920904
 31
0.0
  0
LINE
  5
BAD5
  8
0
 10
307.02388923187402
 20
82.445449425102694
 30
0.0
 11
262.5447955245761
 21
82.445449425102751
 31
0.0
  0
LINE
  5
BAD6
  8
0
 10
208.57482870781641
 20
87.554540334193646
 30
0.0
 11
187.0034001363876
 21
87.554540334193646
 31
0.0
  0
LINE
  5
BAD7
  8
0
 10
208.57482870781641
 20
81.809085788739097
 30
0.0
 11
208.57482870781641
 21
87.554540334193632
 31
0.0
  0
LINE
  5
BAD8
  8
1
 10
195.57482870781641
 20
92.554540334193675
 30
0.0
 11
195.57482870781641
 21
56.554540334193632
 31
0.0
  0
LINE
  5
BAD9
  8
1
 10
100.57482870781659
 20
92.554540334193675
 30
0.0
 11
100.57482870781659
 21
56.554540334193632
 31
0.0
  0
LINE
  5
BADA
  8
0
 10
87.574828707816664
 20
87.554540334193646
 30
0.0
 11
109.1462572792454
 21
87.554540334193646
 31
0.0
  0
LINE
  5
BADB
  8
0
 10
87.574828707816664
 20
81.809085788739097
 30
0.0
 11
87.574828707816664
 21
87.554540334193632
 31
0.0
  0
TEXT
  5
BD80
  8
0
 62
     3
 10
0.0
 20
0.0
 30
0.0
 40
10.0
  1
LVFR125L24A
  7
STANDARD1
  0
ENDSEC
  0
EOF
