  0
SECTION
  2
HEADER
  9
$ACADVER
  1
AC1009
  9
$INSBASE
 10
0.0
 20
0.0
 30
0.0
  9
$EXTMIN
 10
0.0
 20
-2.960436562073669
 30
0.0
  9
$EXTMAX
 10
270.65650579726992
 20
324.77565417412609
 30
0.0
  9
$LIMMIN
 10
0.0
 20
0.0
  9
$LIMMAX
 10
375.0
 20
270.0
  9
$ORTHOMODE
 70
     0
  9
$REGENMODE
 70
     1
  9
$FILLMODE
 70
     1
  9
$QTEXTMODE
 70
     0
  9
$MIRRTEXT
 70
     0
  9
$DRAGMODE
 70
     2
  9
$LTSCALE
 40
6.0
  9
$OSMODE
 70
  3071
  9
$ATTMODE
 70
     1
  9
$TEXTSIZE
 40
0.2
  9
$TRACEWID
 40
0.05
  9
$TEXTSTYLE
  7
STANDARD
  9
$CLAYER
  8
0
  9
$CELTYPE
  6
BYLAYER
  9
$CECOLOR
 62
   256
  9
$DIMSCALE
 40
1.0
  9
$DIMASZ
 40
3.0
  9
$DIMEXO
 40
1.0
  9
$DIMDLI
 40
6.0
  9
$DIMRND
 40
0.0
  9
$DIMDLE
 40
0.0
  9
$DIMEXE
 40
1.0
  9
$DIMTP
 40
495.0
  9
$DIMTM
 40
0.0
  9
$DIMTXT
 40
3.0
  9
$DIMCEN
 40
0.0
  9
$DIMTSZ
 40
0.0
  9
$DIMTOL
 70
     0
  9
$DIMLIM
 70
     0
  9
$DIMTIH
 70
     0
  9
$DIMTOH
 70
     0
  9
$DIMSE1
 70
     0
  9
$DIMSE2
 70
     0
  9
$DIMTAD
 70
     1
  9
$DIMZIN
 70
     0
  9
$DIMBLK
  1

  9
$DIMASO
 70
     0
  9
$DIMSHO
 70
     0
  9
$DIMPOST
  1

  9
$DIMAPOST
  1

  9
$DIMALT
 70
     0
  9
$DIMALTD
 70
     2
  9
$DIMALTF
 40
25.399999999999999
  9
$DIMLFAC
 40
1.0
  9
$DIMTOFL
 70
     1
  9
$DIMTVP
 40
0.0
  9
$DIMTIX
 70
     1
  9
$DIMSOXD
 70
     0
  9
$DIMSAH
 70
     0
  9
$DIMBLK1
  1

  9
$DIMBLK2
  1

  9
$DIMSTYLE
  2
STANDARD
  9
$DIMCLRD
 70
     0
  9
$DIMCLRE
 70
     0
  9
$DIMCLRT
 70
     4
  9
$DIMTFAC
 40
1.0
  9
$DIMGAP
 40
1.0
  9
$LUNITS
 70
     2
  9
$LUPREC
 70
     4
  9
$SKETCHINC
 40
0.1
  9
$FILLETRAD
 40
2.0
  9
$AUNITS
 70
     0
  9
$AUPREC
 70
     0
  9
$MENU
  1
C:\R13\WIN\SUPPORT\ACAD-I
  9
$ELEVATION
 40
0.0
  9
$PELEVATION
 40
0.0
  9
$THICKNESS
 40
0.0
  9
$LIMCHECK
 70
     0
  9
$BLIPMODE
 70
     0
  9
$CHAMFERA
 40
0.0
  9
$CHAMFERB
 40
0.0
  9
$SKPOLY
 70
     0
  9
$TDCREATE
 40
2451962.5992021179
  9
$TDUPDATE
 40
2456597.6182387038
  9
$TDINDWG
 40
0.0490331944
  9
$TDUSRTIMER
 40
2456555.244809398
  9
$USRTIMER
 70
     1
  9
$ANGBASE
 50
0.0
  9
$ANGDIR
 70
     0
  9
$PDMODE
 70
     0
  9
$PDSIZE
 40
0.0
  9
$PLINEWID
 40
0.0
  9
$COORDS
 70
     1
  9
$SPLFRAME
 70
     0
  9
$SPLINETYPE
 70
     6
  9
$SPLINESEGS
 70
     8
  9
$ATTDIA
 70
     0
  9
$ATTREQ
 70
     1
  9
$HANDLING
 70
     1
  9
$HANDSEED
  5
882D
  9
$SURFTAB1
 70
     6
  9
$SURFTAB2
 70
     6
  9
$SURFTYPE
 70
     6
  9
$SURFU
 70
     6
  9
$SURFV
 70
     6
  9
$UCSNAME
  2

  9
$UCSORG
 10
0.0
 20
0.0
 30
0.0
  9
$UCSXDIR
 10
1.0
 20
0.0
 30
0.0
  9
$UCSYDIR
 10
0.0
 20
1.0
 30
0.0
  9
$PUCSNAME
  2

  9
$PUCSORG
 10
0.0
 20
0.0
 30
0.0
  9
$PUCSXDIR
 10
1.0
 20
0.0
 30
0.0
  9
$PUCSYDIR
 10
0.0
 20
1.0
 30
0.0
  9
$USERI1
 70
     4
  9
$USERI2
 70
     1
  9
$USERI3
 70
     0
  9
$USERI4
 70
     0
  9
$USERI5
 70
     0
  9
$USERR1
 40
1.0
  9
$USERR2
 40
3.0
  9
$USERR3
 40
3.0
  9
$USERR4
 40
3.0
  9
$USERR5
 40
10.0
  9
$WORLDVIEW
 70
     1
  9
$SHADEDGE
 70
     3
  9
$SHADEDIF
 70
    70
  9
$TILEMODE
 70
     1
  9
$MAXACTVP
 70
    16
  9
$PLIMCHECK
 70
     0
  9
$PEXTMIN
 10
1.0000000000000000E+020
 20
1.0000000000000000E+020
 30
1.0000000000000000E+020
  9
$PEXTMAX
 10
-1.0000000000000000E+020
 20
-1.0000000000000000E+020
 30
-1.0000000000000000E+020
  9
$PLIMMIN
 10
0.0
 20
0.0
  9
$PLIMMAX
 10
12.0
 20
9.0
  9
$UNITMODE
 70
     0
  9
$VISRETAIN
 70
     0
  9
$PLINEGEN
 70
     0
  9
$PSLTSCALE
 70
     0
  0
ENDSEC
  0
SECTION
  2
TABLES
  0
TABLE
  2
VPORT
 70
     1
  0
VPORT
  2
*ACTIVE
 70
     0
 10
0.0
 20
0.0
 11
1.0
 21
1.0
 12
187.49427839065231
 22
161.61067876354889
 13
0.0
 23
0.0
 14
10.0
 24
10.0
 15
10.0
 25
10.0
 16
0.0
 26
0.0
 36
1.0
 17
0.0
 27
0.0
 37
0.0
 40
332.95545706341522
 41
2.304913294797688
 42
50.0
 43
0.0
 44
0.0
 50
0.0
 51
0.0
 71
    16
 72
   100
 73
     1
 74
     0
 75
     0
 76
     0
 77
     0
 78
     0
  0
ENDTAB
  0
TABLE
  2
LTYPE
 70
     4
  0
LTYPE
  2
CONTINUOUS
 70
     0
  3
Solid Line
 72
    65
 73
     0
 40
0.0
  0
LTYPE
  2
PHANTOM2
 70
     0
  3
___ _ _ ___ _ _ ___ _ _ ___ _ _
 72
    65
 73
     6
 40
1.25
 49
0.625
 49
-0.125
 49
0.125
 49
-0.125
 49
0.125
 49
-0.125
  0
LTYPE
  2
CENTER
 70
     0
  3
____ _ ____ _ ____ _ ____ _ ____ _ ____ _ ____
 72
    65
 73
     4
 40
2.0
 49
1.25
 49
-0.25
 49
0.25
 49
-0.25
  0
LTYPE
  2
HIDDEN
 70
     0
  3
_ _ _ _ _ _ _ _ _ _ _ _ _ _ _ _ _ _ _ _ _ _ _
 72
    65
 73
     2
 40
0.375
 49
0.25
 49
-0.125
  0
ENDTAB
  0
TABLE
  2
LAYER
 70
     5
  0
LAYER
  2
0
 70
     0
 62
     7
  6
CONTINUOUS
  0
LAYER
  2
1
 70
     0
 62
     1
  6
CENTER
  0
LAYER
  2
3
 70
     0
 62
     3
  6
CONTINUOUS
  0
LAYER
  2
2
 70
     0
 62
     2
  6
HIDDEN
  0
LAYER
  2
DEFPOINTS
 70
     0
 62
     7
  6
CONTINUOUS
  0
ENDTAB
  0
TABLE
  2
STYLE
 70
     3
  0
STYLE
  2
STANDARD
 70
     0
 40
0.0
 41
1.0
 50
0.0
 71
     0
 42
0.2
  3
SIMPLEX
  4
BIGFONT
  0
STYLE
  2
ANNOTATIVE
 70
     0
 40
0.0
 41
1.0
 50
0.0
 71
     0
 42
0.2
  3
txt
  4

  0
STYLE
  2
STANDARD1
 70
     0
 40
0.0
 41
1.0
 50
0.0
 71
     0
 42
3.0
  3
txt
  4

  0
ENDTAB
  0
TABLE
  2
VIEW
 70
     0
  0
ENDTAB
  0
TABLE
  2
UCS
 70
     0
  0
ENDTAB
  0
TABLE
  2
APPID
 70
    29
  0
APPID
  2
ACAD
 70
     0
  0
APPID
  2
ACADANNOTATIVE
 70
     0
  0
APPID
  2
GENIUS_GENOREF_13
 70
     0
  0
APPID
  2
GENIUS_GENOENT_13
 70
     0
  0
APPID
  2
GENIUS_GENBH_13
 70
     0
  0
APPID
  2
GENIUS_GENOBJ_13
 70
     0
  0
APPID
  2
GENIUS_GENODEF_13
 70
     0
  0
APPID
  2
GENIUS_GENOLIS_13
 70
     0
  0
APPID
  2
GENIUS_GENOBJ-NBEHI-BHF_13
 70
     0
  0
APPID
  2
GENIUS_GENOBJ-NBEHI-BHB_13
 70
     0
  0
APPID
  2
GENIUS_GENOBJ-F-PART_13
 70
     0
  0
APPID
  2
GENIUS_GEFSTDP_13
 70
     0
  0
APPID
  2
GENIUS_GENOBJ-N-RSSYM_13
 70
     0
  0
APPID
  2
GENIUS_GENSYMENT_13
 70
     0
  0
APPID
  2
GENIUS_GENOBJ-N-TIT_13
 70
     0
  0
APPID
  2
GENIUS_GENTITLE_13
 70
     0
  0
APPID
  2
GENIUS_GENZVEED_13
 70
     0
  0
APPID
  2
GENIUS_GENOBJ-N-LEADER_13
 70
     0
  0
APPID
  2
GENIUS_GENOBJ-N-FIL_13
 70
     0
  0
APPID
  2
GENIUS_GENOBJ-N-SEC_13
 70
     0
  0
APPID
  2
GENIUS_GENOBJ-N-CRS_13
 70
     0
  0
APPID
  2
GENIUS_GENOBJ-N-ZOO_13
 70
     0
  0
APPID
  2
GENIUS_GENZOO_13
 70
     0
  0
APPID
  2
GENIUS_GENOBJ-F-TOL_13
 70
     0
  0
APPID
  2
GENIUS_GENFIL_13
 70
     0
  0
APPID
  2
GENIUS_GENOBJ-N-CHA_13
 70
     0
  0
APPID
  2
ACAD_EXEMPT_FROM_CAD_STANDARDS
 70
     0
  0
APPID
  2
ACAD_MLEADERVER
 70
     0
  0
APPID
  2
ACAD_NAV_VCDISPLAY
 70
     0
  0
ENDTAB
  0
TABLE
  2
DIMSTYLE
 70
     2
  0
DIMSTYLE
  2
STANDARD
 70
     0
  3

  4

  5

  6

  7

 40
1.0
 41
0.18
 42
0.0625
 43
0.38
 44
0.18
 45
0.0
 46
0.0
 47
0.0
 48
0.0
140
0.18
141
0.09
142
0.0
143
25.399999999999999
144
1.0
145
0.0
146
1.0
147
0.09
 71
     0
 72
     0
 73
     1
 74
     1
 75
     0
 76
     0
 77
     0
 78
     0
170
     0
171
     2
172
     0
173
     0
174
     0
175
     0
176
     0
177
     0
178
     0
  0
DIMSTYLE
  2
ANNOTATIVE
 70
     0
  3

  4

  5

  6

  7

 40
1.0
 41
0.18
 42
0.0625
 43
0.38
 44
0.18
 45
0.0
 46
0.0
 47
0.0
 48
0.0
140
0.18
141
0.09
142
0.0
143
25.399999999999999
144
1.0
145
0.0
146
1.0
147
0.09
 71
     0
 72
     0
 73
     1
 74
     1
 75
     0
 76
     0
 77
     0
 78
     0
170
     0
171
     2
172
     0
173
     0
174
     0
175
     0
176
     0
177
     0
178
     0
  0
ENDTAB
  0
ENDSEC
  0
SECTION
  2
BLOCKS
  0
BLOCK
  8
0
  2
$MODEL_SPACE
 70
     0
 10
0.0
 20
0.0
 30
0.0
  3
$MODEL_SPACE
  1

  0
ENDBLK
  5
873C
  8
0
  0
BLOCK
 67
     1
  8
0
  2
$PAPER_SPACE
 70
     0
 10
0.0
 20
0.0
 30
0.0
  3
$PAPER_SPACE
  1

  0
ENDBLK
  5
8738
 67
     1
  8
0
  0
ENDSEC
  0
SECTION
  2
ENTITIES
  0
ARC
  5
8337
  8
0
 10
230.6565057972698
 20
67.859681593796381
 30
0.0
 40
12.25
 50
31.065080896357031
 51
46.062160114263293
  0
ARC
  5
8338
  8
0
 10
230.6565057972698
 20
67.859681593796381
 30
0.0
 40
12.25
 50
133.93783988573671
 51
148.93491910364301
  0
LINE
  5
8339
  8
0
 10
222.1565057972698
 20
83.180820975998913
 30
0.0
 11
222.1565057972698
 21
76.68082097601301
 31
0.0
  0
LINE
  5
833A
  8
0
 10
239.1565057972698
 20
83.180820975998913
 30
0.0
 11
239.1565057972698
 21
76.68082097598483
 31
0.0
  0
LINE
  5
833B
  8
0
 10
221.6565057972698
 20
191.18082097605611
 30
0.0
 11
239.6565057972698
 21
191.18082097605611
 31
0.0
  0
LINE
  5
833C
  8
0
 10
242.6565057972698
 20
92.892145841430306
 30
0.0
 11
242.6565057972698
 21
132.1808209760562
 31
0.0
  0
LINE
  5
833D
  8
3
 10
241.03250579726981
 20
98.180820976056211
 30
0.0
 11
241.03250579726981
 21
132.1808209760562
 31
0.0
  0
LINE
  5
833E
  8
3
 10
220.2805057972698
 20
98.180820976056211
 30
0.0
 11
220.2805057972698
 21
132.1808209760562
 31
0.0
  0
LINE
  5
833F
  8
0
 10
218.6565057972698
 20
92.892145841367565
 30
0.0
 11
218.6565057972698
 21
132.1808209760562
 31
0.0
  0
LINE
  5
8340
  8
0
 10
218.6565057972698
 20
188.18082097605671
 30
0.0
 11
221.6565057972698
 21
191.18082097605611
 31
0.0
  0
LINE
  5
8341
  8
0
 10
239.6565057972698
 20
191.18082097605611
 30
0.0
 11
242.6565057972698
 21
188.1808209760562
 31
0.0
  0
LINE
  5
8342
  8
0
 10
218.6565057972698
 20
188.18082097605671
 30
0.0
 11
242.6565057972696
 21
188.1808209760562
 31
0.0
  0
LINE
  5
8343
  8
0
 10
242.6565057972698
 20
98.180820976056211
 30
0.0
 11
218.6565057972698
 21
98.180820976056211
 31
0.0
  0
LINE
  5
8344
  8
3
 10
220.2805057972698
 20
98.180820976056211
 30
0.0
 11
218.6565057972698
 21
95.367970464564308
 31
0.0
  0
LINE
  5
8345
  8
3
 10
241.03250579726969
 20
98.180820976056211
 30
0.0
 11
242.6565057972696
 21
95.367970464564308
 31
0.0
  0
LINE
  5
8346
  8
0
 10
242.15650579721591
 20
83.180820976056225
 30
0.0
 11
219.15650579743149
 21
83.180820976056225
 31
0.0
  0
LINE
  5
8347
  8
0
 10
219.15650579732369
 20
93.180820976056211
 30
0.0
 11
242.15650579721591
 21
93.180820976056211
 31
0.0
  0
ARC
  5
8348
  8
0
 10
241.04881064273721
 20
86.758171245770555
 30
0.0
 40
6.1339745957208196
 50
64.384247469840446
 51
124.38424747120121
  0
LINE
  5
8349
  8
0
 10
244.51291225789669
 20
91.820349071662008
 30
0.0
 11
242.15650579721591
 21
93.180820976056211
 31
0.0
  0
LINE
  5
834A
  8
0
 10
244.51291225789669
 20
84.541292880450428
 30
0.0
 11
242.15650579721591
 21
83.180820976056225
 31
0.0
  0
ARC
  5
834B
  8
0
 10
241.04881064273721
 20
89.603470706341895
 30
0.0
 40
6.1339745957208196
 50
235.61575252879609
 51
295.61575253015963
  0
LINE
  5
834C
  8
0
 10
244.51291225787489
 20
91.820349071662008
 30
0.0
 11
244.51291225787489
 21
84.541292880437695
 31
0.0
  0
LINE
  5
834D
  8
0
 10
237.58470902759899
 20
91.820349071662008
 30
0.0
 11
237.58470902759899
 21
84.541292880450428
 31
0.0
  0
LINE
  5
834E
  8
0
 10
223.7283025670483
 20
91.820349071662008
 30
0.0
 11
223.7283025670483
 21
84.541292880450428
 31
0.0
  0
LINE
  5
834F
  8
0
 10
216.80009933677249
 20
91.820349071662008
 30
0.0
 11
216.80009933677249
 21
84.541292880437695
 31
0.0
  0
ARC
  5
8350
  8
0
 10
230.65650579732369
 20
106.3976993387606
 30
0.0
 40
22.928203228139491
 50
252.41204622431411
 51
287.58795377568589
  0
ARC
  5
8351
  8
0
 10
220.2642009519102
 20
89.603470706341895
 30
0.0
 40
6.1339745957208196
 50
244.3842474698404
 51
304.38424747120399
  0
LINE
  5
8352
  8
0
 10
216.80009933675069
 20
84.541292880450428
 30
0.0
 11
219.15650579743149
 21
83.180820976056225
 31
0.0
  0
LINE
  5
8353
  8
0
 10
216.80009933675069
 20
91.820349071662008
 30
0.0
 11
219.15650579743149
 21
93.180820976056211
 31
0.0
  0
ARC
  5
8354
  8
0
 10
220.2642009519102
 20
86.758171245770555
 30
0.0
 40
6.1339745957208196
 50
55.615752528798723
 51
115.6157525301595
  0
ARC
  5
8355
  8
0
 10
230.65650579732369
 20
69.963942613351833
 30
0.0
 40
22.928203228139491
 50
72.412046224314139
 51
107.5879537756858
  0
LINE
  5
8356
  8
0
 10
222.1565057972698
 20
76.68082097598483
 30
0.0
 11
239.1565057972698
 21
76.68082097598483
 31
0.0
  0
LINE
  5
8357
  8
0
 10
212.6565058119206
 20
150.60347071532499
 30
0.0
 11
212.6565058119206
 21
132.75817123678701
 31
0.0
  0
LINE
  5
8358
  8
0
 10
213.65650579726989
 20
151.1808209760562
 30
0.0
 11
212.6565058119206
 21
150.60347071532499
 31
0.0
  0
ARC
  5
8359
  8
0
 10
221.6565058045951
 20
124.6082802080128
 30
0.0
 40
25.995190507312159
 50
69.743841999652659
 51
110.2561580003473
  0
ARC
  5
835A
  8
0
 10
221.6565058045951
 20
158.7533617440991
 30
0.0
 40
25.995190507312159
 50
249.74384199965269
 51
290.2561580003474
  0
LINE
  5
835B
  8
0
 10
213.65650579726989
 20
132.1808209760562
 30
0.0
 11
212.6565058119206
 21
132.75817123678701
 31
0.0
  0
LINE
  5
835C
  8
0
 10
247.65650579726949
 20
132.1808209760562
 30
0.0
 11
248.65650578261869
 21
132.75817123678701
 31
0.0
  0
ARC
  5
835D
  8
0
 10
239.6565057899443
 20
158.7533617440991
 30
0.0
 40
25.995190507312159
 50
249.74384199965269
 51
290.2561580003474
  0
ARC
  5
835E
  8
0
 10
239.6565057899443
 20
124.6082802080128
 30
0.0
 40
25.995190507312159
 50
69.743841999652659
 51
110.2561580003473
  0
LINE
  5
835F
  8
0
 10
247.65650579726949
 20
151.1808209760562
 30
0.0
 11
248.65650578261869
 21
150.60347071532499
 31
0.0
  0
LINE
  5
8360
  8
0
 10
213.65650579726989
 20
151.1808209760562
 30
0.0
 11
247.6565057972696
 21
151.1808209760562
 31
0.0
  0
LINE
  5
8361
  8
0
 10
248.65650578261869
 20
150.60347071532499
 30
0.0
 11
248.65650578261869
 21
132.75817123678701
 31
0.0
  0
LINE
  5
8362
  8
0
 10
213.65650579726989
 20
132.1808209760562
 30
0.0
 11
247.6565057972696
 21
132.1808209760562
 31
0.0
  0
LINE
  5
8363
  8
0
 10
230.65650579726969
 20
148.9957755620527
 30
0.0
 11
230.65650579726969
 21
134.3658663900593
 31
0.0
  0
LINE
  5
8364
  8
0
 10
242.6565057972698
 20
151.1808209760562
 30
0.0
 11
242.6565057972698
 21
188.1808209760562
 31
0.0
  0
LINE
  5
8365
  8
3
 10
241.03250579726981
 20
151.1808209760562
 30
0.0
 11
241.03250579726981
 21
189.80482097605599
 31
0.0
  0
LINE
  5
8366
  8
0
 10
218.6565057972698
 20
151.1808209760562
 30
0.0
 11
218.6565057972698
 21
188.18082097605671
 31
0.0
  0
LINE
  5
8367
  8
3
 10
220.2805057972698
 20
151.18082097605571
 30
0.0
 11
220.2805057972698
 21
189.8048209760565
 31
0.0
  0
CIRCLE
  5
8368
  8
3
 10
108.3787188940841
 20
279.0613684598398
 30
0.0
 40
10.375999999999999
  0
CIRCLE
  5
8369
  8
0
 10
108.3787188940841
 20
279.0613684598398
 30
0.0
 40
12.0
  0
CIRCLE
  5
836A
  8
0
 10
108.3787188940841
 20
279.0613684598398
 30
0.0
 40
17.0
  0
LINE
  5
836B
  8
0
 10
97.986414057123923
 20
297.0613684451888
 30
0.0
 11
118.7710237479491
 21
297.0613684451888
 31
0.0
  0
LINE
  5
836C
  8
0
 10
118.7710237310415
 20
297.06136844517431
 30
0.0
 11
129.16332857645779
 21
279.0613684451888
 31
0.0
  0
LINE
  5
836D
  8
0
 10
129.16332856798491
 20
279.06136845984258
 30
0.0
 11
118.771023722576
 21
261.06136845984258
 31
0.0
  0
LINE
  5
836E
  8
0
 10
118.7710237310306
 20
261.06136847449642
 30
0.0
 11
97.986414040205503
 21
261.06136847449642
 31
0.0
  0
LINE
  5
836F
  8
0
 10
97.986414057125714
 20
261.06136847449642
 30
0.0
 11
87.594109211709494
 21
279.06136847449642
 31
0.0
  0
LINE
  5
8370
  8
0
 10
87.594109220182375
 20
279.06136845984258
 30
0.0
 11
97.986414065591291
 21
297.06136845984258
 31
0.0
  0
ARC
  5
8371
  8
0
 10
108.3787188940841
 20
67.859681593796381
 30
0.0
 40
12.25
 50
31.06508089635723
 51
46.062160114264479
  0
LINE
  5
8372
  8
3
 10
118.75471889408411
 20
98.180820976056211
 30
0.0
 11
120.3787188940841
 21
95.367970464564308
 31
0.0
  0
LINE
  5
8373
  8
3
 10
98.002718894084211
 20
98.180820976056211
 30
0.0
 11
96.378718894084145
 21
95.367970464564308
 31
0.0
  0
LINE
  5
8374
  8
0
 10
120.3787188940841
 20
98.180820976056211
 30
0.0
 11
96.378718894084145
 21
98.180820976056211
 31
0.0
  0
LINE
  5
8375
  8
0
 10
96.378718894084145
 20
188.18082097605671
 30
0.0
 11
120.3787188940841
 21
188.1808209760562
 31
0.0
  0
LINE
  5
8376
  8
0
 10
117.3787188940841
 20
191.18082097605611
 30
0.0
 11
120.3787188940841
 21
188.1808209760562
 31
0.0
  0
LINE
  5
8377
  8
0
 10
96.378718894084145
 20
188.18082097605671
 30
0.0
 11
99.378718894084201
 21
191.18082097605611
 31
0.0
  0
LINE
  5
8378
  8
0
 10
96.378718894084145
 20
92.892145841442542
 30
0.0
 11
96.378718894084145
 21
132.18082097605571
 31
0.0
  0
LINE
  5
8379
  8
3
 10
98.002718894084211
 20
98.180820976056211
 30
0.0
 11
98.002718894084211
 21
132.1808209760562
 31
0.0
  0
LINE
  5
837A
  8
3
 10
118.75471889408421
 20
98.180820976056211
 30
0.0
 11
118.75471889408421
 21
132.18082097605571
 31
0.0
  0
LINE
  5
837B
  8
0
 10
120.3787188940841
 20
92.892145841480868
 30
0.0
 11
120.3787188940841
 21
132.18082097605571
 31
0.0
  0
LINE
  5
837C
  8
0
 10
99.378718894084201
 20
191.18082097605611
 30
0.0
 11
117.3787188940841
 21
191.18082097605611
 31
0.0
  0
LINE
  5
837D
  8
0
 10
116.8787188940841
 20
83.180820975998913
 30
0.0
 11
116.8787188940841
 21
76.68082097598483
 31
0.0
  0
LINE
  5
837E
  8
0
 10
99.878718894084145
 20
83.180820975998913
 30
0.0
 11
99.878718894084145
 21
76.68082097601301
 31
0.0
  0
LINE
  5
837F
  8
0
 10
119.8787188941173
 20
83.180820975979813
 30
0.0
 11
96.878718894050962
 21
83.180820976017998
 31
0.0
  0
LINE
  5
8380
  8
0
 10
96.878718894050962
 20
93.180820976017998
 30
0.0
 11
119.8787188941173
 21
93.180820976056211
 31
0.0
  0
ARC
  5
8381
  8
0
 10
102.3787188941173
 20
75.562018824119264
 30
0.0
 40
17.330127017333279
 50
69.74384199763081
 51
110.2561580023692
  0
LINE
  5
8382
  8
0
 10
96.378718894102306
 20
92.892145841453043
 30
0.0
 11
96.878718894117355
 21
93.180820976056211
 31
0.0
  0
LINE
  5
8383
  8
0
 10
96.378718894102306
 20
83.469496110583023
 30
0.0
 11
96.878718894117355
 21
83.180820975979813
 31
0.0
  0
ARC
  5
8384
  8
0
 10
102.3787188941173
 20
100.79962312791631
 30
0.0
 40
17.330127017333279
 50
249.7438419976308
 51
290.2561580023692
  0
LINE
  5
8385
  8
0
 10
96.378718894102306
 20
92.892145841453043
 30
0.0
 11
96.378718894117355
 21
83.469496110574369
 31
0.0
  0
LINE
  5
8386
  8
0
 10
108.3787188941173
 20
84.541292880412215
 30
0.0
 11
108.3787188941173
 21
91.820349071623795
 31
0.0
  0
LINE
  5
8387
  8
0
 10
120.37871889413231
 20
92.892145841453043
 30
0.0
 11
120.3787188941173
 21
83.469496110574369
 31
0.0
  0
ARC
  5
8388
  8
0
 10
114.3787188941173
 20
100.79962312791631
 30
0.0
 40
17.330127017333279
 50
249.7438419976308
 51
290.2561580023692
  0
LINE
  5
8389
  8
0
 10
120.37871889413231
 20
83.469496110583023
 30
0.0
 11
119.8787188941173
 21
83.180820975979813
 31
0.0
  0
LINE
  5
838A
  8
0
 10
120.37871889413231
 20
92.892145841453043
 30
0.0
 11
119.8787188941173
 21
93.180820976056211
 31
0.0
  0
ARC
  5
838B
  8
0
 10
114.3787188941173
 20
75.562018824119264
 30
0.0
 40
17.330127017333279
 50
69.74384199763081
 51
110.2561580023692
  0
ARC
  5
838C
  8
0
 10
108.3787188940841
 20
67.859681593796381
 30
0.0
 40
12.25
 50
133.93783988554779
 51
148.93491910364281
  0
LINE
  5
838D
  8
0
 10
99.878718894084145
 20
76.68082097601301
 30
0.0
 11
116.8787188940841
 21
76.68082097598483
 31
0.0
  0
LINE
  5
838E
  8
0
 10
129.16332856798331
 20
148.9957755620527
 30
0.0
 11
129.16332856798331
 21
134.3658663900593
 31
0.0
  0
LINE
  5
838F
  8
0
 10
125.3787188940841
 20
151.1808209760562
 30
0.0
 11
129.16332856798331
 21
148.9957755620527
 31
0.0
  0
ARC
  5
8390
  8
0
 10
123.9671761495083
 20
141.40250882847121
 30
0.0
 40
9.2009618868538041
 50
64.384247467924951
 51
124.38424746794441
  0
ARC
  5
8391
  8
0
 10
123.9671761495083
 20
141.9591331236407
 30
0.0
 40
9.2009618868538041
 50
235.61575253205561
 51
295.61575253207508
  0
LINE
  5
8392
  8
0
 10
125.3787188940841
 20
132.1808209760562
 30
0.0
 11
129.16332856798331
 21
134.3658663900593
 31
0.0
  0
LINE
  5
8393
  8
0
 10
91.378718894084145
 20
132.1808209760562
 30
0.0
 11
87.594109220185004
 21
134.3658663900593
 31
0.0
  0
ARC
  5
8394
  8
0
 10
92.790261638659871
 20
141.9591331236407
 30
0.0
 40
9.2009618868538041
 50
244.38424746792489
 51
304.38424746794442
  0
ARC
  5
8395
  8
0
 10
108.37871889408611
 20
167.1504760543036
 30
0.0
 40
34.392304817516766
 50
252.41204622606429
 51
287.58795377393722
  0
ARC
  5
8396
  8
0
 10
92.790261638659871
 20
141.40250882847121
 30
0.0
 40
9.2009618868538041
 50
55.615752532055602
 51
115.61575253207501
  0
ARC
  5
8397
  8
0
 10
108.37871889408611
 20
116.2111658978079
 30
0.0
 40
34.392304817516766
 50
72.412046226062699
 51
107.5879537739373
  0
LINE
  5
8398
  8
0
 10
118.7710237310373
 20
148.9957755620527
 30
0.0
 11
118.7710237310373
 21
134.3658663900593
 31
0.0
  0
LINE
  5
8399
  8
0
 10
97.986414057135093
 20
148.9957755620527
 30
0.0
 11
97.986414057135093
 21
134.3658663900593
 31
0.0
  0
LINE
  5
839A
  8
0
 10
91.378718894084145
 20
151.1808209760562
 30
0.0
 11
87.594109220185004
 21
148.9957755620527
 31
0.0
  0
LINE
  5
839B
  8
0
 10
87.594109220185004
 20
148.9957755620527
 30
0.0
 11
87.594109220185004
 21
134.3658663900593
 31
0.0
  0
LINE
  5
839C
  8
0
 10
91.378718894084145
 20
132.1808209760562
 30
0.0
 11
125.3787188940841
 21
132.1808209760562
 31
0.0
  0
LINE
  5
839D
  8
0
 10
91.378718894084287
 20
151.1808209760562
 30
0.0
 11
125.3787188940841
 21
151.1808209760562
 31
0.0
  0
LINE
  5
839E
  8
0
 10
120.3787188940841
 20
151.1808209760562
 30
0.0
 11
120.3787188940841
 21
188.1808209760562
 31
0.0
  0
LINE
  5
839F
  8
3
 10
118.75471889408421
 20
151.1808209760562
 30
0.0
 11
118.75471889408421
 21
189.80482097605599
 31
0.0
  0
LINE
  5
83A0
  8
3
 10
98.002718894084211
 20
151.1808209760562
 30
0.0
 11
98.002718894084211
 21
189.8048209760565
 31
0.0
  0
LINE
  5
83A1
  8
0
 10
96.378718894084145
 20
151.18082097605571
 30
0.0
 11
96.378718894084145
 21
188.18082097605671
 31
0.0
  0
LINE
  5
83A2
  8
1
 10
230.6565057972698
 20
196.1808209760562
 30
0.0
 11
230.6565057972698
 21
42.180820976056232
 31
0.0
  0
ARC
  5
83A3
  8
0
 10
135.3787188940841
 20
279.0613684598398
 30
0.0
 40
10.5
 50
270.0
 51
90.0
  0
ARC
  5
83A4
  8
0
 10
108.3787188940841
 20
279.0613684598398
 30
0.0
 40
20.850443051075668
 50
210.2375607467059
 51
329.76243925329419
  0
ARC
  5
83A5
  8
0
 10
108.3787188940841
 20
279.0613684598398
 30
0.0
 40
27.5
 50
202.44635058144991
 51
337.55364941855021
  0
ARC
  5
83A6
  8
0
 10
108.3787188940841
 20
279.0613684598398
 30
0.0
 40
33.5
 50
15.759509562175911
 51
164.24049043782409
  0
CIRCLE
  5
83A7
  8
2
 10
81.378718894084145
 20
279.0613684598398
 30
0.0
 40
4.25
  0
ARC
  5
83A8
  8
0
 10
81.378718894084145
 20
279.0613684598398
 30
0.0
 40
10.5
 50
90.0
 51
270.0
  0
LINE
  5
83A9
  8
0
 10
93.656287046664232
 20
268.5613684598398
 30
0.0
 11
81.378718894084145
 21
268.5613684598398
 31
0.0
  0
LINE
  5
83AA
  8
0
 10
93.656287046669277
 20
289.5613684598398
 30
0.0
 11
81.378718894084145
 21
289.5613684598398
 31
0.0
  0
LINE
  5
83AB
  8
1
 10
81.378718894084145
 20
286.31136845983991
 30
0.0
 11
81.378718894084145
 21
271.81136845983991
 31
0.0
  0
LINE
  5
83AC
  8
1
 10
135.3787188940841
 20
286.31136845983991
 30
0.0
 11
135.3787188940841
 21
271.81136845983991
 31
0.0
  0
LINE
  5
83BC
  8
0
 10
148.37871889408419
 20
50.180820976056218
 30
0.0
 11
68.378718894084102
 21
50.180820976056218
 31
0.0
  0
LINE
  5
83BD
  8
0
 10
148.37871889408419
 20
50.180820976056218
 30
0.0
 11
148.37871889408419
 21
59.025525644346189
 31
0.0
  0
LINE
  5
83BE
  8
0
 10
141.8787188940841
 20
50.180820976056218
 30
0.0
 11
141.8787188940841
 21
47.180820976056232
 31
0.0
  0
CIRCLE
  5
83BF
  8
0
 10
108.3787188940841
 20
279.0613684598398
 30
0.0
 40
40.00000000000005
  0
LINE
  5
83C0
  8
1
 10
108.3787188940841
 20
324.77565417412609
 30
0.0
 11
108.3787188940841
 21
233.3470827455541
 31
0.0
  0
LINE
  5
83C1
  8
1
 10
154.09300460836991
 20
279.0613684598398
 30
0.0
 11
62.66443317979838
 21
279.0613684598398
 31
0.0
  0
LINE
  5
83C2
  8
0
 10
141.8787188940841
 20
62.212324742591242
 30
0.0
 11
74.878718894084159
 21
62.212324742591242
 31
0.0
  0
LINE
  5
83C3
  8
0
 10
135.8787188940841
 20
66.583349704656584
 30
0.0
 11
80.878718894084159
 21
66.583349704656584
 31
0.0
  0
LINE
  5
83C4
  8
0
 10
129.22916194515989
 20
69.479559574316795
 30
0.0
 11
87.528275843008487
 21
69.479559574316795
 31
0.0
  0
LINE
  5
83C5
  8
0
 10
122.3787188940841
 20
74.180820976056225
 30
0.0
 11
94.378718894084173
 21
74.180820976056225
 31
0.0
  0
LINE
  5
83C6
  8
0
 10
141.8787188940841
 20
62.212324742591242
 30
0.0
 11
141.8787188940841
 21
63.053711823338389
 31
0.0
  0
LINE
  5
83C7
  8
0
 10
141.8787188940841
 20
62.212324742591242
 30
0.0
 11
147.7376979733931
 21
59.958871250548881
 31
0.0
  0
LINE
  5
83C8
  8
0
 10
135.8787188940841
 20
66.583349704656584
 30
0.0
 11
141.3141950764722
 21
63.953912075822821
 31
0.0
  0
LINE
  5
83C9
  8
0
 10
129.2291619451598
 20
69.479559574316795
 30
0.0
 11
135.10681800755231
 21
68.102571154930615
 31
0.0
  0
LINE
  5
83CA
  8
0
 10
123.3787188940841
 20
72.583349704656612
 30
0.0
 11
93.378718894084173
 21
72.583349704656612
 31
0.0
  0
LINE
  5
83CB
  8
0
 10
123.3787188940841
 20
72.583349704656612
 30
0.0
 11
128.5388824438742
 21
70.902489419865219
 31
0.0
  0
LINE
  5
83CC
  8
0
 10
123.3787188940841
 20
73.180820976056225
 30
0.0
 11
123.3787188940841
 21
72.583349704656612
 31
0.0
  0
LINE
  5
83CD
  8
0
 10
135.8787188940841
 20
66.583349704656584
 30
0.0
 11
135.8787188940841
 21
67.128933237409115
 31
0.0
  0
LINE
  5
83CE
  8
0
 10
129.2291619451598
 20
69.479559574316795
 30
0.0
 11
129.2291619451598
 21
69.951661773718683
 31
0.0
  0
ARC
  5
83CF
  8
0
 10
122.3787188940841
 20
73.180820976056225
 30
0.0
 40
1.0
 50
359.99999999999892
 51
90.0
  0
ARC
  5
83D0
  8
0
 10
128.2291619451598
 20
69.951661773718683
 30
0.0
 40
1.0
 50
0.0
 51
71.957612741641853
  0
ARC
  5
83D1
  8
0
 10
134.8787188940841
 20
67.128933237409115
 30
0.0
 40
1.0
 50
0.0
 51
76.814815600247044
  0
ARC
  5
83D2
  8
0
 10
147.37871889408419
 20
59.025525644346189
 30
0.0
 40
1.0
 50
0.0
 51
68.962488974578235
  0
ARC
  5
83D3
  8
0
 10
140.8787188940841
 20
63.053711823338389
 30
0.0
 40
1.0
 50
0.0
 51
64.18440202834887
  0
LINE
  5
83D4
  8
0
 10
141.8787188940841
 20
47.180820976056232
 30
0.0
 11
74.878718894084159
 21
47.180820976056232
 31
0.0
  0
ARC
  5
83D5
  8
0
 10
75.878718894084159
 20
63.053711823338389
 30
0.0
 40
1.0
 50
115.8155979716511
 51
180.0
  0
ARC
  5
83D6
  8
0
 10
69.378718894084045
 20
59.025525644346189
 30
0.0
 40
1.0
 50
111.03751102542169
 51
180.0
  0
ARC
  5
83D7
  8
0
 10
81.878718894084159
 20
67.128933237409115
 30
0.0
 40
1.0
 50
103.1851843997529
 51
180.0
  0
ARC
  5
83D8
  8
0
 10
88.528275843008487
 20
69.951661773718683
 30
0.0
 40
1.0
 50
108.0423872583581
 51
180.0
  0
ARC
  5
83D9
  8
0
 10
94.378718894084173
 20
73.180820976056225
 30
0.0
 40
1.0
 50
90.0
 51
180.00000000000099
  0
LINE
  5
83DA
  8
0
 10
87.528275843008487
 20
69.479559574316795
 30
0.0
 11
87.528275843008487
 21
69.951661773718683
 31
0.0
  0
LINE
  5
83DB
  8
0
 10
80.878718894084159
 20
66.583349704656584
 30
0.0
 11
80.878718894084159
 21
67.128933237409115
 31
0.0
  0
LINE
  5
83DC
  8
0
 10
93.378718894084173
 20
73.180820976056225
 30
0.0
 11
93.378718894084173
 21
72.583349704656612
 31
0.0
  0
LINE
  5
83DD
  8
0
 10
93.378718894084173
 20
72.583349704656612
 30
0.0
 11
88.218555344294145
 21
70.902489419865219
 31
0.0
  0
LINE
  5
83DE
  8
0
 10
87.528275843008487
 20
69.479559574316795
 30
0.0
 11
81.650619780616012
 21
68.102571154930615
 31
0.0
  0
LINE
  5
83DF
  8
0
 10
80.878718894084159
 20
66.583349704656584
 30
0.0
 11
75.443242711696087
 21
63.953912075822821
 31
0.0
  0
LINE
  5
83E0
  8
0
 10
74.878718894084159
 20
62.212324742591242
 30
0.0
 11
69.019739814775221
 21
59.958871250548881
 31
0.0
  0
LINE
  5
83E1
  8
0
 10
74.878718894084159
 20
62.212324742591242
 30
0.0
 11
74.878718894084159
 21
63.053711823338389
 31
0.0
  0
LINE
  5
83E2
  8
0
 10
68.378718894084102
 20
50.180820976056218
 30
0.0
 11
68.378718894084045
 21
59.025525644346189
 31
0.0
  0
LINE
  5
83E3
  8
0
 10
74.878718894084159
 20
50.180820976056218
 30
0.0
 11
74.878718894084159
 21
47.180820976056232
 31
0.0
  0
ARC
  5
83E4
  8
0
 10
108.3787188940841
 20
279.0613684598398
 30
0.0
 40
33.5
 50
195.75950956217591
 51
344.24049043782401
  0
ARC
  5
83E5
  8
0
 10
108.3787188940841
 20
279.0613684598398
 30
0.0
 40
27.5
 50
22.44635058144987
 51
157.55364941855009
  0
ARC
  5
83E6
  8
0
 10
108.3787188940841
 20
279.0613684598398
 30
0.0
 40
20.850443051075668
 50
30.237560746705888
 51
149.7624392532941
  0
LINE
  5
83E7
  8
0
 10
197.1565057972698
 20
50.180820976056218
 30
0.0
 11
197.1565057972698
 21
47.180820976056232
 31
0.0
  0
LINE
  5
83E8
  8
0
 10
190.65650579726969
 20
50.180820976056218
 30
0.0
 11
190.65650579726969
 21
59.025525644346189
 31
0.0
  0
LINE
  5
83E9
  8
0
 10
197.1565057972698
 20
62.212324742591242
 30
0.0
 11
197.1565057972698
 21
63.053711823338389
 31
0.0
  0
LINE
  5
83EA
  8
0
 10
197.1565057972698
 20
62.212324742591242
 30
0.0
 11
191.29752671796081
 21
59.958871250548881
 31
0.0
  0
LINE
  5
83EB
  8
0
 10
203.1565057972698
 20
66.583349704656584
 30
0.0
 11
197.7210296148817
 21
63.953912075822821
 31
0.0
  0
LINE
  5
83EC
  8
0
 10
209.8060627461941
 20
69.479559574316795
 30
0.0
 11
203.92840668380171
 21
68.102571154930615
 31
0.0
  0
LINE
  5
83ED
  8
0
 10
215.6565057972698
 20
72.583349704656612
 30
0.0
 11
210.4963422474797
 21
70.902489419865219
 31
0.0
  0
LINE
  5
83EE
  8
0
 10
215.65650579726989
 20
73.180820976056225
 30
0.0
 11
215.65650579726989
 21
72.583349704656612
 31
0.0
  0
LINE
  5
83EF
  8
0
 10
203.1565057972696
 20
66.583349704656584
 30
0.0
 11
203.1565057972696
 21
67.128933237409115
 31
0.0
  0
LINE
  5
83F0
  8
0
 10
209.8060627461941
 20
69.479559574316795
 30
0.0
 11
209.8060627461941
 21
69.951661773718683
 31
0.0
  0
ARC
  5
83F1
  8
0
 10
216.6565057972698
 20
73.180820976056225
 30
0.0
 40
1.0
 50
90.0
 51
180.00000000000099
  0
ARC
  5
83F2
  8
0
 10
210.8060627461941
 20
69.951661773718683
 30
0.0
 40
1.0
 50
108.0423872583581
 51
180.0
  0
ARC
  5
83F3
  8
0
 10
204.1565057972698
 20
67.128933237409115
 30
0.0
 40
1.0
 50
103.1851843997529
 51
180.0
  0
ARC
  5
83F4
  8
0
 10
191.6565057972696
 20
59.025525644346189
 30
0.0
 40
1.0
 50
111.03751102542169
 51
180.0
  0
ARC
  5
83F5
  8
0
 10
198.1565057972698
 20
63.053711823338389
 30
0.0
 40
1.0
 50
115.8155979716511
 51
180.0
  0
LINE
  5
83F6
  8
0
 10
264.1565057972698
 20
47.180820976056232
 30
0.0
 11
197.1565057972698
 21
47.180820976056232
 31
0.0
  0
ARC
  5
83F7
  8
0
 10
263.1565057972698
 20
63.053711823338389
 30
0.0
 40
1.0
 50
0.0
 51
64.18440202834887
  0
ARC
  5
83F8
  8
0
 10
269.65650579726992
 20
59.025525644346189
 30
0.0
 40
1.0
 50
0.0
 51
68.962488974578235
  0
ARC
  5
83F9
  8
0
 10
257.1565057972698
 20
67.128933237409115
 30
0.0
 40
1.0
 50
0.0
 51
76.814815600247044
  0
ARC
  5
83FA
  8
0
 10
250.5069488483455
 20
69.951661773718683
 30
0.0
 40
1.0
 50
0.0
 51
71.957612741641853
  0
LINE
  5
83FB
  8
0
 10
251.5069488483455
 20
69.479559574316795
 30
0.0
 11
251.5069488483455
 21
69.951661773718683
 31
0.0
  0
LINE
  5
83FC
  8
0
 10
258.1565057972698
 20
66.583349704656584
 30
0.0
 11
258.1565057972698
 21
67.128933237409115
 31
0.0
  0
LINE
  5
83FD
  8
0
 10
245.6565057972698
 20
72.583349704656612
 30
0.0
 11
250.8166693470599
 21
70.902489419865219
 31
0.0
  0
LINE
  5
83FE
  8
0
 10
245.6565057972698
 20
72.583349704656612
 30
0.0
 11
241.15650579726989
 21
72.583349704656612
 31
0.0
  0
LINE
  5
83FF
  8
0
 10
251.5069488483455
 20
69.479559574316795
 30
0.0
 11
257.38460491073789
 21
68.102571154930615
 31
0.0
  0
LINE
  5
8400
  8
0
 10
258.1565057972698
 20
66.583349704656584
 30
0.0
 11
263.59198197965787
 21
63.953912075822821
 31
0.0
  0
LINE
  5
8401
  8
0
 10
264.1565057972698
 20
62.212324742591242
 30
0.0
 11
270.01548487657891
 21
59.958871250548881
 31
0.0
  0
LINE
  5
8402
  8
0
 10
264.1565057972698
 20
62.212324742591242
 30
0.0
 11
264.1565057972698
 21
63.053711823338389
 31
0.0
  0
LINE
  5
8403
  8
0
 10
244.6565057972696
 20
74.180820976056225
 30
0.0
 11
216.6565057972698
 21
74.180820976056225
 31
0.0
  0
LINE
  5
8404
  8
0
 10
251.5069488483455
 20
69.479559574316795
 30
0.0
 11
241.1565057972698
 21
69.479559574316795
 31
0.0
  0
LINE
  5
8405
  8
0
 10
258.1565057972698
 20
66.583349704656584
 30
0.0
 11
241.1565057972698
 21
66.583349704656584
 31
0.0
  0
LINE
  5
8406
  8
0
 10
264.1565057972698
 20
62.212324742591242
 30
0.0
 11
239.7551120910027
 21
62.212324742591242
 31
0.0
  0
LINE
  5
8407
  8
0
 10
264.1565057972698
 20
50.180820976056218
 30
0.0
 11
264.1565057972698
 21
47.180820976056232
 31
0.0
  0
LINE
  5
8408
  8
0
 10
270.6565057972698
 20
50.180820976056218
 30
0.0
 11
270.6565057972698
 21
59.025525644346189
 31
0.0
  0
LINE
  5
8409
  8
0
 10
270.6565057972698
 20
50.180820976056218
 30
0.0
 11
190.65650579726969
 21
50.180820976056218
 31
0.0
  0
LINE
  5
840A
  8
0
 10
145.8787188940841
 20
73.180820976056225
 30
0.0
 11
123.3787188940841
 21
73.180820976056239
 31
0.0
  0
LINE
  5
840B
  8
0
 10
70.878718894084159
 20
60.67386320412939
 30
0.0
 11
70.878718894084159
 21
73.180820976056225
 31
0.0
  0
LINE
  5
840C
  8
0
 10
145.8787188940841
 20
60.673863204129411
 30
0.0
 11
145.8787188940841
 21
73.180820976056225
 31
0.0
  0
LINE
  5
840D
  8
0
 10
93.378718894084173
 20
73.180820976056225
 30
0.0
 11
70.878718894084159
 21
73.180820976056225
 31
0.0
  0
LINE
  5
840E
  8
1
 10
135.3787188940841
 20
74.180820976056225
 30
0.0
 11
135.3787188940841
 21
46.180820976056218
 31
0.0
  0
LINE
  5
840F
  8
1
 10
81.378718894084145
 20
74.180820976056225
 30
0.0
 11
81.378718894084145
 21
46.180820976056218
 31
0.0
  0
CIRCLE
  5
8416
  8
2
 10
135.3787188940841
 20
279.0613684598398
 30
0.0
 40
4.25
  0
LINE
  5
8417
  8
0
 10
135.3787188940841
 20
289.5613684598398
 30
0.0
 11
123.1011507415014
 21
289.5613684598398
 31
0.0
  0
LINE
  5
8418
  8
0
 10
135.3787188940841
 20
268.5613684598398
 30
0.0
 11
123.10115074149471
 21
268.5613684598398
 31
0.0
  0
LINE
  5
8419
  8
1
 10
108.3787188940841
 20
196.1808209760562
 30
0.0
 11
108.3787188940841
 21
42.180820976056232
 31
0.0
  0
ARC
  5
841A
  8
0
 10
244.6565057972696
 20
73.180820976056225
 30
0.0
 40
1.0
 50
359.99999999999892
 51
90.0
  0
LINE
  5
841B
  8
0
 10
245.6565057972698
 20
73.180820976056225
 30
0.0
 11
245.6565057972698
 21
72.583349704656612
 31
0.0
  0
POLYLINE
  5
8552
  8
0
 66
     1
 10
0.0
 20
0.0
 30
0.0
 70
   128
  0
VERTEX
  5
87DE
  8
0
 10
239.75511209100171
 20
62.212324742590837
 30
0.0
  0
VERTEX
  5
87DF
  8
0
 10
238.76031020275721
 20
61.77514306909579
 30
0.0
  0
VERTEX
  5
87E0
  8
0
 10
237.5321014029339
 20
61.402360076195983
 30
0.0
  0
VERTEX
  5
87E1
  8
0
 10
236.0946906416309
 20
61.100920733217599
 30
0.0
  0
VERTEX
  5
87E2
  8
0
 10
234.49239942694209
 20
60.876260849657967
 30
0.0
  0
VERTEX
  5
87E3
  8
0
 10
232.81770245250891
 20
60.736535415833089
 30
0.0
  0
VERTEX
  5
87E4
  8
0
 10
231.07915389567941
 20
60.676219930698039
 30
0.0
  0
VERTEX
  5
87E5
  8
0
 10
229.36741162437571
 20
60.69612479248228
 30
0.0
  0
VERTEX
  5
87E6
  8
0
 10
227.69218380110141
 20
60.792633207533022
 30
0.0
  0
VERTEX
  5
87E7
  8
0
 10
226.1067975305937
 20
60.964204826327489
 30
0.0
  0
VERTEX
  5
87E8
  8
0
 10
224.6467084821038
 20
61.207101237659678
 30
0.0
  0
VERTEX
  5
87E9
  8
0
 10
223.33228051539101
 20
61.523470224431442
 30
0.0
  0
VERTEX
  5
87EA
  8
0
 10
222.21758675100699
 20
61.903849511455107
 30
0.0
  0
VERTEX
  5
87EB
  8
0
 10
221.55789950353781
 20
62.212324742590837
 30
0.0
  0
SEQEND
  5
87EC
  8
0
  0
ARC
  5
8553
  8
0
 10
240.9767372235857
 20
63.081373032047061
 30
0.0
 40
1.2219382582717651
 50
134.43366307174659
 51
181.29712437963821
  0
LINE
  5
8554
  8
0
 10
239.75511209100171
 20
63.053711823338219
 30
0.0
 11
239.75511209100171
 21
62.212324742590837
 31
0.0
  0
LINE
  5
8555
  8
0
 10
221.55789950353781
 20
62.212324742590837
 30
0.0
 11
221.55789950353781
 21
63.053711823338219
 31
0.0
  0
ARC
  5
8556
  8
0
 10
220.3600010825549
 20
63.091024148331357
 30
0.0
 40
1.198479385133508
 50
358.21591903931522
 51
46.053293509296253
  0
ARC
  5
8557
  8
0
 10
222.5998896669073
 20
65.952315802645671
 30
0.0
 40
2.4446930022307041
 50
181.87515281252399
 51
234.82990765753911
  0
LINE
  5
8558
  8
0
 10
220.1565057972698
 20
73.180820976056225
 30
0.0
 11
220.1565057972698
 21
65.872321173127261
 31
0.0
  0
LINE
  5
8559
  8
0
 10
241.1565057972698
 20
73.180820976056225
 30
0.0
 11
220.1565057972698
 21
73.180820976056225
 31
0.0
  0
LINE
  5
855A
  8
0
 10
241.1565057972698
 20
73.180820976056225
 30
0.0
 11
241.1565057972698
 21
65.872321173127261
 31
0.0
  0
ARC
  5
855B
  8
0
 10
238.6006699732321
 20
66.012997996864428
 30
0.0
 40
2.5597044220322691
 50
306.44540145010268
 51
356.84953807983788
  0
LINE
  5
8563
  8
0
 10
221.5578995035369
 20
62.212324742591242
 30
0.0
 11
197.1565057972698
 21
62.212324742591242
 31
0.0
  0
LINE
  5
8566
  8
0
 10
220.1565057972698
 20
66.583349704656584
 30
0.0
 11
203.1565057972696
 21
66.583349704656584
 31
0.0
  0
LINE
  5
8567
  8
0
 10
220.1565057972698
 20
69.479559574316795
 30
0.0
 11
209.8060627461941
 21
69.479559574316795
 31
0.0
  0
LINE
  5
8568
  8
0
 10
220.15650579726989
 20
72.583349704656612
 30
0.0
 11
215.6565057972698
 21
72.583349704656612
 31
0.0
  0
TEXT
  5
87C1
  8
0
 62
     3
 10
0.0
 20
0.0
 30
0.0
 40
10.0
  1
LVFR80L24A
  7
STANDARD1
  0
ENDSEC
  0
EOF
