  0
SECTION
  2
HEADER
  9
$ACADVER
  1
AC1009
  9
$INSBASE
 10
0.0
 20
0.0
 30
0.0
  9
$EXTMIN
 10
0.0
 20
-2.960436562073669
 30
0.0
  9
$EXTMAX
 10
283.6694653757346
 20
284.62051982002129
 30
0.0
  9
$LIMMIN
 10
0.0
 20
0.0
  9
$LIMMAX
 10
375.0
 20
270.0
  9
$ORTHOMODE
 70
     1
  9
$REGENMODE
 70
     1
  9
$FILLMODE
 70
     1
  9
$QTEXTMODE
 70
     0
  9
$MIRRTEXT
 70
     0
  9
$DRAGMODE
 70
     2
  9
$LTSCALE
 40
6.0
  9
$OSMODE
 70
  3071
  9
$ATTMODE
 70
     1
  9
$TEXTSIZE
 40
0.2
  9
$TRACEWID
 40
0.05
  9
$TEXTSTYLE
  7
STANDARD
  9
$CLAYER
  8
0
  9
$CELTYPE
  6
BYLAYER
  9
$CECOLOR
 62
   256
  9
$DIMSCALE
 40
1.0
  9
$DIMASZ
 40
3.0
  9
$DIMEXO
 40
1.0
  9
$DIMDLI
 40
6.0
  9
$DIMRND
 40
0.0
  9
$DIMDLE
 40
0.0
  9
$DIMEXE
 40
1.0
  9
$DIMTP
 40
495.0
  9
$DIMTM
 40
0.0
  9
$DIMTXT
 40
3.0
  9
$DIMCEN
 40
0.0
  9
$DIMTSZ
 40
0.0
  9
$DIMTOL
 70
     0
  9
$DIMLIM
 70
     0
  9
$DIMTIH
 70
     0
  9
$DIMTOH
 70
     0
  9
$DIMSE1
 70
     0
  9
$DIMSE2
 70
     0
  9
$DIMTAD
 70
     1
  9
$DIMZIN
 70
     0
  9
$DIMBLK
  1

  9
$DIMASO
 70
     0
  9
$DIMSHO
 70
     0
  9
$DIMPOST
  1

  9
$DIMAPOST
  1

  9
$DIMALT
 70
     0
  9
$DIMALTD
 70
     2
  9
$DIMALTF
 40
25.399999999999999
  9
$DIMLFAC
 40
1.0
  9
$DIMTOFL
 70
     1
  9
$DIMTVP
 40
0.0
  9
$DIMTIX
 70
     1
  9
$DIMSOXD
 70
     0
  9
$DIMSAH
 70
     0
  9
$DIMBLK1
  1

  9
$DIMBLK2
  1

  9
$DIMSTYLE
  2
STANDARD
  9
$DIMCLRD
 70
     0
  9
$DIMCLRE
 70
     0
  9
$DIMCLRT
 70
     4
  9
$DIMTFAC
 40
1.0
  9
$DIMGAP
 40
1.0
  9
$LUNITS
 70
     2
  9
$LUPREC
 70
     4
  9
$SKETCHINC
 40
0.1
  9
$FILLETRAD
 40
2.0
  9
$AUNITS
 70
     0
  9
$AUPREC
 70
     0
  9
$MENU
  1
C:\R13\WIN\SUPPORT\ACAD-I
  9
$ELEVATION
 40
0.0
  9
$PELEVATION
 40
0.0
  9
$THICKNESS
 40
0.0
  9
$LIMCHECK
 70
     0
  9
$BLIPMODE
 70
     0
  9
$CHAMFERA
 40
0.0
  9
$CHAMFERB
 40
0.0
  9
$SKPOLY
 70
     0
  9
$TDCREATE
 40
2451962.4672158798
  9
$TDUPDATE
 40
2456597.6184889581
  9
$TDINDWG
 40
0.0343883102
  9
$TDUSRTIMER
 40
2456555.2207246879
  9
$USRTIMER
 70
     1
  9
$ANGBASE
 50
0.0
  9
$ANGDIR
 70
     0
  9
$PDMODE
 70
     0
  9
$PDSIZE
 40
0.0
  9
$PLINEWID
 40
0.0
  9
$COORDS
 70
     1
  9
$SPLFRAME
 70
     0
  9
$SPLINETYPE
 70
     6
  9
$SPLINESEGS
 70
     8
  9
$ATTDIA
 70
     0
  9
$ATTREQ
 70
     1
  9
$HANDLING
 70
     1
  9
$HANDSEED
  5
69D8
  9
$SURFTAB1
 70
     6
  9
$SURFTAB2
 70
     6
  9
$SURFTYPE
 70
     6
  9
$SURFU
 70
     6
  9
$SURFV
 70
     6
  9
$UCSNAME
  2

  9
$UCSORG
 10
0.0
 20
0.0
 30
0.0
  9
$UCSXDIR
 10
1.0
 20
0.0
 30
0.0
  9
$UCSYDIR
 10
0.0
 20
1.0
 30
0.0
  9
$PUCSNAME
  2

  9
$PUCSORG
 10
0.0
 20
0.0
 30
0.0
  9
$PUCSXDIR
 10
1.0
 20
0.0
 30
0.0
  9
$PUCSYDIR
 10
0.0
 20
1.0
 30
0.0
  9
$USERI1
 70
     4
  9
$USERI2
 70
     1
  9
$USERI3
 70
     0
  9
$USERI4
 70
     0
  9
$USERI5
 70
     0
  9
$USERR1
 40
1.0
  9
$USERR2
 40
3.0
  9
$USERR3
 40
3.0
  9
$USERR4
 40
3.0
  9
$USERR5
 40
10.0
  9
$WORLDVIEW
 70
     1
  9
$SHADEDGE
 70
     3
  9
$SHADEDIF
 70
    70
  9
$TILEMODE
 70
     1
  9
$MAXACTVP
 70
    16
  9
$PLIMCHECK
 70
     0
  9
$PEXTMIN
 10
1.0000000000000000E+020
 20
1.0000000000000000E+020
 30
1.0000000000000000E+020
  9
$PEXTMAX
 10
-1.0000000000000000E+020
 20
-1.0000000000000000E+020
 30
-1.0000000000000000E+020
  9
$PLIMMIN
 10
0.0
 20
0.0
  9
$PLIMMAX
 10
12.0
 20
9.0
  9
$UNITMODE
 70
     0
  9
$VISRETAIN
 70
     0
  9
$PLINEGEN
 70
     0
  9
$PSLTSCALE
 70
     0
  0
ENDSEC
  0
SECTION
  2
TABLES
  0
TABLE
  2
VPORT
 70
     1
  0
VPORT
  2
*ACTIVE
 70
     0
 10
0.0
 20
0.0
 11
1.0
 21
1.0
 12
187.49427839065231
 22
141.456231454727
 13
0.0
 23
0.0
 14
10.0
 24
10.0
 15
10.0
 25
10.0
 16
0.0
 26
0.0
 36
1.0
 17
0.0
 27
0.0
 37
0.0
 40
292.14191004867178
 41
2.304913294797688
 42
50.0
 43
0.0
 44
0.0
 50
0.0
 51
0.0
 71
    16
 72
   100
 73
     1
 74
     0
 75
     0
 76
     0
 77
     0
 78
     0
  0
ENDTAB
  0
TABLE
  2
LTYPE
 70
     4
  0
LTYPE
  2
CONTINUOUS
 70
     0
  3
Solid Line
 72
    65
 73
     0
 40
0.0
  0
LTYPE
  2
PHANTOM2
 70
     0
  3
___ _ _ ___ _ _ ___ _ _ ___ _ _
 72
    65
 73
     6
 40
1.25
 49
0.625
 49
-0.125
 49
0.125
 49
-0.125
 49
0.125
 49
-0.125
  0
LTYPE
  2
CENTER
 70
     0
  3
____ _ ____ _ ____ _ ____ _ ____ _ ____ _ ____
 72
    65
 73
     4
 40
2.0
 49
1.25
 49
-0.25
 49
0.25
 49
-0.25
  0
LTYPE
  2
HIDDEN
 70
     0
  3
_ _ _ _ _ _ _ _ _ _ _ _ _ _ _ _ _ _ _ _ _ _ _
 72
    65
 73
     2
 40
0.375
 49
0.25
 49
-0.125
  0
ENDTAB
  0
TABLE
  2
LAYER
 70
     5
  0
LAYER
  2
0
 70
     0
 62
     7
  6
CONTINUOUS
  0
LAYER
  2
1
 70
     0
 62
     1
  6
CENTER
  0
LAYER
  2
3
 70
     0
 62
     3
  6
CONTINUOUS
  0
LAYER
  2
2
 70
     0
 62
     2
  6
HIDDEN
  0
LAYER
  2
DEFPOINTS
 70
     0
 62
     7
  6
CONTINUOUS
  0
ENDTAB
  0
TABLE
  2
STYLE
 70
     3
  0
STYLE
  2
STANDARD
 70
     0
 40
0.0
 41
1.0
 50
0.0
 71
     0
 42
0.2
  3
SIMPLEX
  4
BIGFONT
  0
STYLE
  2
ANNOTATIVE
 70
     0
 40
0.0
 41
1.0
 50
0.0
 71
     0
 42
0.2
  3
txt
  4

  0
STYLE
  2
STANDARD1
 70
     0
 40
0.0
 41
1.0
 50
0.0
 71
     0
 42
3.0
  3
txt
  4

  0
ENDTAB
  0
TABLE
  2
VIEW
 70
     0
  0
ENDTAB
  0
TABLE
  2
UCS
 70
     0
  0
ENDTAB
  0
TABLE
  2
APPID
 70
    29
  0
APPID
  2
ACAD
 70
     0
  0
APPID
  2
ACADANNOTATIVE
 70
     0
  0
APPID
  2
GENIUS_GENOREF_13
 70
     0
  0
APPID
  2
GENIUS_GENOENT_13
 70
     0
  0
APPID
  2
GENIUS_GENBH_13
 70
     0
  0
APPID
  2
GENIUS_GENOBJ_13
 70
     0
  0
APPID
  2
GENIUS_GENODEF_13
 70
     0
  0
APPID
  2
GENIUS_GENOLIS_13
 70
     0
  0
APPID
  2
GENIUS_GENOBJ-NBEHI-BHF_13
 70
     0
  0
APPID
  2
GENIUS_GENOBJ-NBEHI-BHB_13
 70
     0
  0
APPID
  2
GENIUS_GENOBJ-F-PART_13
 70
     0
  0
APPID
  2
GENIUS_GEFSTDP_13
 70
     0
  0
APPID
  2
GENIUS_GENOBJ-N-RSSYM_13
 70
     0
  0
APPID
  2
GENIUS_GENSYMENT_13
 70
     0
  0
APPID
  2
GENIUS_GENOBJ-N-TIT_13
 70
     0
  0
APPID
  2
GENIUS_GENTITLE_13
 70
     0
  0
APPID
  2
GENIUS_GENZVEED_13
 70
     0
  0
APPID
  2
GENIUS_GENOBJ-N-LEADER_13
 70
     0
  0
APPID
  2
GENIUS_GENOBJ-N-FIL_13
 70
     0
  0
APPID
  2
GENIUS_GENOBJ-N-SEC_13
 70
     0
  0
APPID
  2
GENIUS_GENOBJ-N-CRS_13
 70
     0
  0
APPID
  2
GENIUS_GENOBJ-N-ZOO_13
 70
     0
  0
APPID
  2
GENIUS_GENZOO_13
 70
     0
  0
APPID
  2
GENIUS_GENOBJ-F-TOL_13
 70
     0
  0
APPID
  2
GENIUS_GENFIL_13
 70
     0
  0
APPID
  2
GENIUS_GENOBJ-N-CHA_13
 70
     0
  0
APPID
  2
ACAD_EXEMPT_FROM_CAD_STANDARDS
 70
     0
  0
APPID
  2
ACAD_MLEADERVER
 70
     0
  0
APPID
  2
ACAD_NAV_VCDISPLAY
 70
     0
  0
ENDTAB
  0
TABLE
  2
DIMSTYLE
 70
     2
  0
DIMSTYLE
  2
STANDARD
 70
     0
  3

  4

  5

  6

  7

 40
1.0
 41
0.18
 42
0.0625
 43
0.38
 44
0.18
 45
0.0
 46
0.0
 47
0.0
 48
0.0
140
0.18
141
0.09
142
0.0
143
25.399999999999999
144
1.0
145
0.0
146
1.0
147
0.09
 71
     0
 72
     0
 73
     1
 74
     1
 75
     0
 76
     0
 77
     0
 78
     0
170
     0
171
     2
172
     0
173
     0
174
     0
175
     0
176
     0
177
     0
178
     0
  0
DIMSTYLE
  2
ANNOTATIVE
 70
     0
  3

  4

  5

  6

  7

 40
1.0
 41
0.18
 42
0.0625
 43
0.38
 44
0.18
 45
0.0
 46
0.0
 47
0.0
 48
0.0
140
0.18
141
0.09
142
0.0
143
25.399999999999999
144
1.0
145
0.0
146
1.0
147
0.09
 71
     0
 72
     0
 73
     1
 74
     1
 75
     0
 76
     0
 77
     0
 78
     0
170
     0
171
     2
172
     0
173
     0
174
     0
175
     0
176
     0
177
     0
178
     0
  0
ENDTAB
  0
ENDSEC
  0
SECTION
  2
BLOCKS
  0
BLOCK
  8
0
  2
$MODEL_SPACE
 70
     0
 10
0.0
 20
0.0
 30
0.0
  3
$MODEL_SPACE
  1

  0
ENDBLK
  5
68E7
  8
0
  0
BLOCK
 67
     1
  8
0
  2
$PAPER_SPACE
 70
     0
 10
0.0
 20
0.0
 30
0.0
  3
$PAPER_SPACE
  1

  0
ENDBLK
  5
68E3
 67
     1
  8
0
  0
ENDSEC
  0
SECTION
  2
ENTITIES
  0
LINE
  5
6427
  8
1
 10
148.39167847254879
 20
246.15623410573551
 30
0.0
 11
148.39167847254879
 21
231.65623410573551
 31
0.0
  0
LINE
  5
6428
  8
1
 10
94.391678472548847
 20
246.15623410573551
 30
0.0
 11
94.391678472548847
 21
231.65623410573551
 31
0.0
  0
CIRCLE
  5
6429
  8
0
 10
121.3916784725488
 20
238.90623410573559
 30
0.0
 40
15.0
  0
LINE
  5
642A
  8
0
 10
110.6795358297346
 20
249.40623410573559
 30
0.0
 11
94.391678472548847
 21
249.40623410573559
 31
0.0
  0
LINE
  5
642B
  8
0
 10
110.6795358297346
 20
228.40623410573559
 30
0.0
 11
94.391678472548847
 21
228.40623410573559
 31
0.0
  0
ARC
  5
642C
  8
0
 10
94.391678472548847
 20
238.90623410573559
 30
0.0
 40
10.5
 50
90.0
 51
270.0
  0
ARC
  5
642E
  8
0
 10
121.3916784725488
 20
238.90623410573559
 30
0.0
 40
33.5
 50
15.759509562175911
 51
164.24049043782409
  0
ARC
  5
642F
  8
0
 10
121.3916784725488
 20
238.90623410573559
 30
0.0
 40
27.5
 50
202.44635058144991
 51
337.55364941855021
  0
ARC
  5
6430
  8
0
 10
121.3916784725488
 20
238.90623410573559
 30
0.0
 40
20.850443051075668
 50
210.2375607467059
 51
329.76243925329419
  0
ARC
  5
6431
  8
0
 10
148.39167847254879
 20
238.90623410573559
 30
0.0
 40
10.5
 50
270.0
 51
90.0
  0
LINE
  5
6432
  8
0
 10
148.39167847254879
 20
228.40623410573559
 30
0.0
 11
132.10382111536299
 21
228.40623410573559
 31
0.0
  0
LINE
  5
6433
  8
0
 10
148.39167847254879
 20
249.40623410573559
 30
0.0
 11
132.10382111536299
 21
249.40623410573559
 31
0.0
  0
LINE
  5
643B
  8
1
 10
94.391678472548847
 20
89.800386740285163
 30
0.0
 11
94.391678472548847
 21
61.800386740285262
 31
0.0
  0
LINE
  5
643C
  8
1
 10
148.39167847254879
 20
89.800386740285163
 30
0.0
 11
148.39167847254879
 21
61.800386740285177
 31
0.0
  0
LINE
  5
643D
  8
0
 10
106.3916784725488
 20
88.800386740285219
 30
0.0
 11
83.891678472548833
 21
88.800386740285205
 31
0.0
  0
LINE
  5
643E
  8
0
 10
158.89167847254879
 20
76.29342896835827
 30
0.0
 11
158.89167847254879
 21
88.800386740285191
 31
0.0
  0
LINE
  5
643F
  8
0
 10
83.891678472548833
 20
76.29342896835827
 30
0.0
 11
83.891678472548833
 21
88.800386740285219
 31
0.0
  0
LINE
  5
6440
  8
0
 10
158.89167847254879
 20
88.800386740285191
 30
0.0
 11
136.39167847254879
 21
88.800386740285191
 31
0.0
  0
LINE
  5
6441
  8
0
 10
249.1694653757346
 20
89.800386740285205
 30
0.0
 11
249.1694653757346
 21
93.800386740285305
 31
0.0
  0
LINE
  5
6442
  8
0
 10
238.1694653757346
 20
89.800386740285205
 30
0.0
 11
238.1694653757346
 21
93.800386740285305
 31
0.0
  0
LINE
  5
6443
  8
0
 10
240.86946537573451
 20
166.80038674028521
 30
0.0
 11
246.46946537573459
 21
166.80038674028521
 31
0.0
  0
LINE
  5
6444
  8
0
 10
247.66946537573449
 20
98.800386740285205
 30
0.0
 11
247.66946537573449
 21
131.80038674028501
 31
0.0
  0
LINE
  5
6445
  8
3
 10
246.9929653757346
 20
100.80038674028521
 30
0.0
 11
246.9929653757346
 21
131.80038674028501
 31
0.0
  0
LINE
  5
6446
  8
3
 10
240.34596537573441
 20
100.80038674028521
 30
0.0
 11
240.34596537573441
 21
131.80038674028501
 31
0.0
  0
LINE
  5
6447
  8
0
 10
239.66946537573449
 20
98.800386740285205
 30
0.0
 11
239.6694653757346
 21
131.80038674028501
 31
0.0
  0
LINE
  5
6448
  8
0
 10
239.6694653757346
 20
165.60038674028519
 30
0.0
 11
240.86946537573451
 21
166.80038674028521
 31
0.0
  0
LINE
  5
6449
  8
0
 10
246.46946537573459
 20
166.80038674028521
 30
0.0
 11
247.66946537573449
 21
165.6003867402851
 31
0.0
  0
LINE
  5
644A
  8
0
 10
239.66946537573449
 20
165.60038674028519
 30
0.0
 11
247.66946537573449
 21
165.6003867402851
 31
0.0
  0
LINE
  5
644B
  8
0
 10
239.66946537573449
 20
100.80038674028521
 30
0.0
 11
247.66946537573449
 21
100.80038674028521
 31
0.0
  0
LINE
  5
644C
  8
3
 10
240.34596537573441
 20
100.80038674028521
 30
0.0
 11
239.66946537573449
 21
99.628654368965144
 31
0.0
  0
LINE
  5
644D
  8
3
 10
246.9929653757346
 20
100.80038674028521
 30
0.0
 11
247.66946537573449
 21
99.628654368965144
 31
0.0
  0
LINE
  5
644E
  8
0
 10
250.16946537573469
 20
138.15604917298711
 30
0.0
 11
249.91946537573349
 21
138.30038674028501
 31
0.0
  0
ARC
  5
644F
  8
0
 10
246.91946537573469
 20
128.76889703773841
 30
0.0
 40
9.3871521352487513
 50
69.743841999583083
 51
110.2561580004169
  0
ARC
  5
6450
  8
0
 10
246.91946537573469
 20
141.33187644283191
 30
0.0
 40
9.3871521352487513
 50
249.74384199958311
 51
290.25615800041692
  0
LINE
  5
6451
  8
0
 10
250.16946537573469
 20
131.94472430758319
 30
0.0
 11
249.91946537573349
 21
131.80038674028501
 31
0.0
  0
LINE
  5
6452
  8
0
 10
250.16946537573469
 20
138.15604917298711
 30
0.0
 11
250.16946537573469
 21
131.94472430758319
 31
0.0
  0
LINE
  5
6453
  8
0
 10
243.66946537573489
 20
137.5754925893859
 30
0.0
 11
243.66946537573489
 21
132.52528089118391
 31
0.0
  0
LINE
  5
6454
  8
0
 10
237.16946537573509
 20
138.15604917298711
 30
0.0
 11
237.16946537573509
 21
131.94472430758319
 31
0.0
  0
LINE
  5
6455
  8
0
 10
237.16946537573509
 20
131.94472430758319
 30
0.0
 11
237.41946537573631
 21
131.80038674028501
 31
0.0
  0
ARC
  5
6456
  8
0
 10
240.41946537573509
 20
141.33187644283191
 30
0.0
 40
9.3871521352487513
 50
249.74384199958311
 51
290.25615800041692
  0
ARC
  5
6457
  8
0
 10
240.41946537573509
 20
128.76889703773841
 30
0.0
 40
9.3871521352487513
 50
69.743841999583083
 51
110.2561580004169
  0
LINE
  5
6458
  8
0
 10
237.16946537573509
 20
138.15604917298711
 30
0.0
 11
237.41946537573631
 21
138.30038674028501
 31
0.0
  0
LINE
  5
6459
  8
0
 10
237.41946537573631
 20
138.30038674028501
 30
0.0
 11
249.91946537573349
 21
138.30038674028501
 31
0.0
  0
LINE
  5
645A
  8
0
 10
249.91946537573349
 20
131.80038674028501
 30
0.0
 11
237.41946537573631
 21
131.80038674028501
 31
0.0
  0
ARC
  5
645B
  8
0
 10
237.60728754924361
 20
95.066794435402514
 30
0.0
 40
3.5781518477924039
 50
55.615752531961313
 51
115.6157525321738
  0
ARC
  5
645C
  8
0
 10
243.66946537573551
 20
85.270161065541174
 30
0.0
 40
13.374785217653811
 50
72.412046225996932
 51
107.5879537740046
  0
LINE
  5
645D
  8
0
 10
235.58656160707969
 20
98.019731500855698
 30
0.0
 11
236.93869614496651
 21
98.800386740285205
 31
0.0
  0
LINE
  5
645E
  8
0
 10
235.58656160707969
 20
94.581041979714854
 30
0.0
 11
236.93869614496651
 21
93.800386740285305
 31
0.0
  0
ARC
  5
645F
  8
0
 10
237.60728754924361
 20
97.533979045167996
 30
0.0
 40
3.5781518477924039
 50
244.38424746782599
 51
304.38424746803872
  0
ARC
  5
6460
  8
0
 10
243.66946537573551
 20
107.33061241502929
 30
0.0
 40
13.374785217653811
 50
252.4120462259954
 51
287.5879537740031
  0
LINE
  5
6461
  8
0
 10
235.58656160707969
 20
98.019731500855698
 30
0.0
 11
235.58656160707969
 21
94.581041979714854
 31
0.0
  0
LINE
  5
6462
  8
0
 10
239.62801349140889
 20
98.019731500854505
 30
0.0
 11
239.6280134914071
 21
94.581041979716517
 31
0.0
  0
LINE
  5
6463
  8
0
 10
247.71091726006011
 20
98.019731500856224
 30
0.0
 11
247.71091726006199
 21
94.581041979716517
 31
0.0
  0
LINE
  5
6464
  8
0
 10
251.75236914438921
 20
98.019731500855698
 30
0.0
 11
251.75236914438921
 21
94.581041979714854
 31
0.0
  0
ARC
  5
6465
  8
0
 10
249.7316432022254
 20
97.533979045167996
 30
0.0
 40
3.5781518477924039
 50
235.61575253196131
 51
295.61575253217387
  0
LINE
  5
6466
  8
0
 10
251.75236914438921
 20
94.581041979714854
 30
0.0
 11
250.40023460650249
 21
93.800386740285305
 31
0.0
  0
LINE
  5
6467
  8
0
 10
251.75236914438921
 20
98.019731500855698
 30
0.0
 11
250.40023460650249
 21
98.800386740285205
 31
0.0
  0
ARC
  5
6468
  8
0
 10
249.7316432022254
 20
95.066794435402514
 30
0.0
 40
3.5781518477924039
 50
64.384247467825773
 51
124.38424746803869
  0
LINE
  5
6469
  8
0
 10
236.93869614496529
 20
98.800386740285205
 30
0.0
 11
250.40023460650229
 21
98.800386740285205
 31
0.0
  0
LINE
  5
646A
  8
0
 10
250.40023460650249
 20
93.800386740285305
 30
0.0
 11
236.93869614496671
 21
93.800386740285305
 31
0.0
  0
LINE
  5
646B
  8
3
 10
246.9929653757346
 20
138.30038674028501
 30
0.0
 11
246.9929653757346
 21
166.27688674028511
 31
0.0
  0
LINE
  5
646C
  8
0
 10
247.66946537573449
 20
138.30038674028501
 30
0.0
 11
247.66946537573449
 21
165.6003867402851
 31
0.0
  0
LINE
  5
646D
  8
3
 10
240.34596537573441
 20
138.30038674028501
 30
0.0
 11
240.34596537573441
 21
166.27688674028511
 31
0.0
  0
LINE
  5
646E
  8
0
 10
239.6694653757346
 20
138.30038674028501
 30
0.0
 11
239.6694653757346
 21
165.60038674028519
 31
0.0
  0
LINE
  5
646F
  8
0
 10
283.6694653757346
 20
65.800386740285191
 30
0.0
 11
203.6694653757344
 21
65.800386740285205
 31
0.0
  0
LINE
  5
6470
  8
0
 10
283.6694653757346
 20
65.800386740285205
 30
0.0
 11
283.6694653757346
 21
74.645091408574842
 31
0.0
  0
LINE
  5
6471
  8
0
 10
277.16946537573449
 20
65.800386740285205
 30
0.0
 11
277.16946537573449
 21
62.80038674028517
 31
0.0
  0
LINE
  5
6472
  8
0
 10
277.16946537573449
 20
77.831890506819789
 30
0.0
 11
252.76807166946651
 21
77.831890506819789
 31
0.0
  0
LINE
  5
6473
  8
0
 10
271.16946537573449
 20
82.202915468885124
 30
0.0
 11
254.16946537573449
 21
82.202915468885124
 31
0.0
  0
LINE
  5
6474
  8
0
 10
264.51990842681028
 20
85.099125338545306
 30
0.0
 11
254.16946537573449
 21
85.099125338545306
 31
0.0
  0
LINE
  5
6475
  8
0
 10
257.66946537573449
 20
89.800386740285205
 30
0.0
 11
229.66946537573449
 21
89.800386740285205
 31
0.0
  0
LINE
  5
6476
  8
0
 10
277.16946537573449
 20
77.831890506819789
 30
0.0
 11
277.16946537573449
 21
78.673277587567185
 31
0.0
  0
LINE
  5
6477
  8
0
 10
277.16946537573449
 20
77.831890506819789
 30
0.0
 11
283.02844445504343
 21
75.578437014777904
 31
0.0
  0
LINE
  5
6478
  8
0
 10
271.16946537573449
 20
82.202915468885166
 30
0.0
 11
276.60494155812262
 21
79.573477840051424
 31
0.0
  0
LINE
  5
6479
  8
0
 10
264.51990842681028
 20
85.099125338545306
 30
0.0
 11
270.39756448920258
 21
83.722136919159055
 31
0.0
  0
LINE
  5
647A
  8
0
 10
258.66946537573438
 20
88.202915468885124
 30
0.0
 11
254.1694653757346
 21
88.202915468885152
 31
0.0
  0
LINE
  5
647B
  8
0
 10
258.66946537573449
 20
88.202915468885124
 30
0.0
 11
263.8296289255245
 21
86.522055184093986
 31
0.0
  0
LINE
  5
647C
  8
0
 10
258.66946537573449
 20
88.800386740285177
 30
0.0
 11
258.66946537573449
 21
88.202915468885152
 31
0.0
  0
LINE
  5
647D
  8
0
 10
271.16946537573449
 20
82.202915468885124
 30
0.0
 11
271.16946537573449
 21
82.748499001637811
 31
0.0
  0
LINE
  5
647E
  8
0
 10
264.51990842681028
 20
85.099125338545306
 30
0.0
 11
264.51990842681028
 21
85.571227537947706
 31
0.0
  0
ARC
  5
647F
  8
0
 10
257.66946537573449
 20
88.800386740285205
 30
0.0
 40
1.0
 50
359.99999999999892
 51
90.0
  0
ARC
  5
6480
  8
0
 10
263.5199084268101
 20
85.571227537947706
 30
0.0
 40
1.0
 50
0.0
 51
71.957612741641853
  0
ARC
  5
6481
  8
0
 10
270.16946537573449
 20
82.748499001637811
 30
0.0
 40
1.0
 50
0.0
 51
76.814815600247044
  0
ARC
  5
6482
  8
0
 10
282.66946537573472
 20
74.645091408574842
 30
0.0
 40
1.0
 50
0.0
 51
68.962488974578235
  0
ARC
  5
6483
  8
0
 10
276.16946537573449
 20
78.673277587567185
 30
0.0
 40
1.0
 50
0.0
 51
64.18440202834887
  0
LINE
  5
6484
  8
0
 10
277.16946537573449
 20
62.80038674028517
 30
0.0
 11
210.16946537573449
 21
62.800386740285241
 31
0.0
  0
ARC
  5
6485
  8
0
 10
211.16946537573449
 20
78.673277587567185
 30
0.0
 40
1.0
 50
115.8155979716511
 51
180.0
  0
ARC
  5
6486
  8
0
 10
204.6694653757344
 20
74.645091408574842
 30
0.0
 40
1.0
 50
111.03751102542169
 51
180.0
  0
ARC
  5
6487
  8
0
 10
217.16946537573449
 20
82.748499001637811
 30
0.0
 40
1.0
 50
103.1851843997529
 51
180.0
  0
ARC
  5
6488
  8
0
 10
223.81902232465879
 20
85.571227537947706
 30
0.0
 40
1.0
 50
108.0423872583581
 51
180.0
  0
ARC
  5
6489
  8
0
 10
229.66946537573449
 20
88.800386740285205
 30
0.0
 40
1.0
 50
90.0
 51
180.00000000000099
  0
LINE
  5
648A
  8
0
 10
222.81902232465879
 20
85.099125338545306
 30
0.0
 11
222.81902232465879
 21
85.571227537947706
 31
0.0
  0
LINE
  5
648B
  8
0
 10
216.1694653757344
 20
82.202915468885124
 30
0.0
 11
216.1694653757344
 21
82.748499001637811
 31
0.0
  0
LINE
  5
648C
  8
0
 10
228.66946537573449
 20
88.800386740285177
 30
0.0
 11
228.66946537573449
 21
88.202915468885152
 31
0.0
  0
LINE
  5
648D
  8
0
 10
228.66946537573449
 20
88.202915468885124
 30
0.0
 11
223.5093018259445
 21
86.522055184093986
 31
0.0
  0
LINE
  5
648E
  8
0
 10
222.81902232465879
 20
85.099125338545306
 30
0.0
 11
216.9413662622664
 21
83.722136919159055
 31
0.0
  0
LINE
  5
648F
  8
0
 10
216.16946537573449
 20
82.202915468885166
 30
0.0
 11
210.73398919334639
 21
79.573477840051424
 31
0.0
  0
LINE
  5
6490
  8
0
 10
210.16946537573449
 20
77.831890506819789
 30
0.0
 11
204.31048629642549
 21
75.578437014777904
 31
0.0
  0
LINE
  5
6491
  8
0
 10
210.16946537573449
 20
77.831890506819789
 30
0.0
 11
210.16946537573449
 21
78.673277587567185
 31
0.0
  0
LINE
  5
6492
  8
0
 10
203.6694653757344
 20
65.800386740285205
 30
0.0
 11
203.6694653757344
 21
74.645091408574842
 31
0.0
  0
LINE
  5
6493
  8
0
 10
210.16946537573449
 20
65.800386740285205
 30
0.0
 11
210.16946537573449
 21
62.80038674028517
 31
0.0
  0
LINE
  5
6494
  8
1
 10
243.66946537573449
 20
57.800386740285212
 30
0.0
 11
243.66946537573449
 21
171.80038674028509
 31
0.0
  0
LINE
  5
6495
  8
1
 10
121.3916784725488
 20
57.800386740285212
 30
0.0
 11
121.3916784725488
 21
171.80038674028509
 31
0.0
  0
ARC
  5
6496
  8
0
 10
124.8916784725487
 20
104.0650679584128
 30
0.0
 40
10.10924076103746
 50
249.74384199958311
 51
290.25615800041692
  0
LINE
  5
6497
  8
0
 10
128.39167847254879
 20
93.955827197375413
 30
0.0
 11
128.12244770331679
 21
93.800386740285205
 31
0.0
  0
LINE
  5
6498
  8
0
 10
114.3916784725488
 20
93.955827197375413
 30
0.0
 11
114.6609092417808
 21
93.800386740285205
 31
0.0
  0
ARC
  5
6499
  8
0
 10
117.891678472549
 20
104.0650679584128
 30
0.0
 40
10.10924076103746
 50
249.74384199958311
 51
290.25615800041692
  0
LINE
  5
649A
  8
0
 10
128.12244770331679
 20
93.800386740285205
 30
0.0
 11
114.6609092417808
 21
93.800386740285205
 31
0.0
  0
ARC
  5
649B
  8
0
 10
124.8916784725487
 20
88.535705522157556
 30
0.0
 40
10.10924076103746
 50
69.743841999583083
 51
110.2561580004169
  0
LINE
  5
649C
  8
0
 10
128.39167847254879
 20
98.64494628319494
 30
0.0
 11
128.12244770331679
 21
98.800386740285205
 31
0.0
  0
LINE
  5
649D
  8
0
 10
114.3916784725488
 20
98.64494628319494
 30
0.0
 11
114.6609092417808
 21
98.800386740285205
 31
0.0
  0
ARC
  5
649E
  8
0
 10
117.891678472549
 20
88.535705522157556
 30
0.0
 40
10.10924076103746
 50
69.743841999583083
 51
110.2561580004169
  0
LINE
  5
649F
  8
0
 10
128.12244770331679
 20
98.800386740285205
 30
0.0
 11
114.6609092417808
 21
98.800386740285205
 31
0.0
  0
LINE
  5
64A0
  8
0
 10
128.39167847254879
 20
98.64494628319494
 30
0.0
 11
128.39167847254879
 21
93.955827197375413
 31
0.0
  0
LINE
  5
64A1
  8
0
 10
114.3916784725488
 20
98.64494628319494
 30
0.0
 11
114.3916784725488
 21
93.955827197375413
 31
0.0
  0
LINE
  5
64A2
  8
0
 10
121.3916784725488
 20
98.019731500855784
 30
0.0
 11
121.3916784725488
 21
94.581041979714627
 31
0.0
  0
LINE
  5
64A3
  8
3
 10
124.7151784725489
 20
100.80038674028521
 30
0.0
 11
125.3916784725488
 21
99.628654368965144
 31
0.0
  0
LINE
  5
64A4
  8
3
 10
118.06817847254869
 20
100.80038674028521
 30
0.0
 11
117.3916784725488
 21
99.628654368965144
 31
0.0
  0
LINE
  5
64A5
  8
0
 10
117.3916784725488
 20
100.80038674028521
 30
0.0
 11
125.3916784725489
 21
100.80038674028521
 31
0.0
  0
LINE
  5
64A6
  8
0
 10
117.3916784725488
 20
165.60038674028519
 30
0.0
 11
125.3916784725489
 21
165.6003867402851
 31
0.0
  0
LINE
  5
64A7
  8
0
 10
124.1916784725489
 20
166.80038674028521
 30
0.0
 11
125.3916784725489
 21
165.6003867402851
 31
0.0
  0
LINE
  5
64A8
  8
0
 10
117.3916784725489
 20
165.60038674028519
 30
0.0
 11
118.59167847254891
 21
166.80038674028521
 31
0.0
  0
LINE
  5
64A9
  8
0
 10
117.3916784725488
 20
98.800386740285205
 30
0.0
 11
117.3916784725488
 21
131.80038674028501
 31
0.0
  0
LINE
  5
64AA
  8
3
 10
118.06817847254879
 20
100.80038674028521
 30
0.0
 11
118.06817847254879
 21
131.80038674028501
 31
0.0
  0
LINE
  5
64AB
  8
3
 10
124.715178472549
 20
100.80038674028521
 30
0.0
 11
124.715178472549
 21
131.80038674028521
 31
0.0
  0
LINE
  5
64AC
  8
0
 10
125.3916784725489
 20
98.800386740285205
 30
0.0
 11
125.3916784725488
 21
131.80038674028501
 31
0.0
  0
LINE
  5
64AD
  8
0
 10
118.59167847254891
 20
166.80038674028521
 30
0.0
 11
124.1916784725489
 21
166.80038674028521
 31
0.0
  0
LINE
  5
64AE
  8
0
 10
115.8916784725489
 20
89.800386740285205
 30
0.0
 11
115.891678472549
 21
93.800386740285205
 31
0.0
  0
LINE
  5
64AF
  8
0
 10
126.8916784725489
 20
89.800386740285205
 30
0.0
 11
126.891678472549
 21
93.800386740285205
 31
0.0
  0
ARC
  5
64B0
  8
0
 10
115.7625133479514
 20
134.83347960003701
 30
0.0
 40
3.3225695729499729
 50
55.615752531961313
 51
115.6157525321757
  0
ARC
  5
64B1
  8
0
 10
121.39167847255079
 20
125.7366057565947
 30
0.0
 40
12.41944341639239
 50
72.412046225996932
 51
107.5879537740046
  0
LINE
  5
64B2
  8
0
 10
113.886124973085
 20
137.5754925893863
 30
0.0
 11
115.14167847255131
 21
138.30038674028501
 31
0.0
  0
LINE
  5
64B3
  8
0
 10
113.886124973085
 20
132.52528089118391
 30
0.0
 11
115.14167847255131
 21
131.80038674028501
 31
0.0
  0
ARC
  5
64B4
  8
0
 10
115.7625133479514
 20
135.2672938805332
 30
0.0
 40
3.3225695729499729
 50
244.38424746782431
 51
304.38424746803872
  0
ARC
  5
64B5
  8
0
 10
121.39167847255079
 20
144.36416772397561
 30
0.0
 40
12.41944341639239
 50
252.4120462259954
 51
287.5879537740031
  0
LINE
  5
64B6
  8
0
 10
113.886124973085
 20
137.5754925893863
 30
0.0
 11
113.886124973085
 21
132.52528089118391
 31
0.0
  0
LINE
  5
64B7
  8
0
 10
117.6389017228193
 20
137.5754925893863
 30
0.0
 11
117.63890172281749
 21
132.5252808911855
 31
0.0
  0
LINE
  5
64B8
  8
0
 10
125.1444552222805
 20
137.5754925893863
 30
0.0
 11
125.1444552222823
 21
132.5252808911855
 31
0.0
  0
LINE
  5
64B9
  8
0
 10
128.89723197201479
 20
137.5754925893863
 30
0.0
 11
128.89723197201479
 21
132.52528089118391
 31
0.0
  0
ARC
  5
64BA
  8
0
 10
127.0208435971485
 20
135.2672938805332
 30
0.0
 40
3.3225695729499729
 50
235.61575253196131
 51
295.61575253217569
  0
LINE
  5
64BB
  8
0
 10
128.89723197201479
 20
132.52528089118391
 30
0.0
 11
127.64167847254851
 21
131.80038674028501
 31
0.0
  0
LINE
  5
64BC
  8
0
 10
128.89723197201479
 20
137.5754925893863
 30
0.0
 11
127.64167847254851
 21
138.30038674028501
 31
0.0
  0
ARC
  5
64BD
  8
0
 10
127.0208435971485
 20
134.83347960003701
 30
0.0
 40
3.3225695729499729
 50
64.384247467824295
 51
124.38424746803869
  0
LINE
  5
64BE
  8
0
 10
115.1416784725501
 20
138.30038674028501
 30
0.0
 11
127.64167847254831
 21
138.30038674028501
 31
0.0
  0
LINE
  5
64BF
  8
0
 10
127.64167847254851
 20
131.80038674028501
 30
0.0
 11
115.1416784725515
 21
131.80038674028501
 31
0.0
  0
LINE
  5
64C0
  8
0
 10
125.3916784725488
 20
138.30038674028501
 30
0.0
 11
125.3916784725489
 21
165.6003867402851
 31
0.0
  0
LINE
  5
64C1
  8
3
 10
124.715178472549
 20
138.30038674028501
 30
0.0
 11
124.715178472549
 21
166.27688674028511
 31
0.0
  0
LINE
  5
64C2
  8
3
 10
118.06817847254879
 20
138.30038674028501
 30
0.0
 11
118.06817847254879
 21
166.27688674028511
 31
0.0
  0
LINE
  5
64C3
  8
0
 10
117.3916784725488
 20
138.30038674028501
 30
0.0
 11
117.3916784725489
 21
165.60038674028519
 31
0.0
  0
CIRCLE
  5
64C4
  8
0
 10
121.3916784725488
 20
238.90623410573559
 30
0.0
 40
4.0
  0
CIRCLE
  5
64C5
  8
3
 10
121.3916784725488
 20
238.90623410573559
 30
0.0
 40
3.3235000000000001
  0
CIRCLE
  5
64C6
  8
0
 10
121.3916784725488
 20
238.90623410573559
 30
0.0
 40
6.25
  0
LINE
  5
64C7
  8
0
 10
113.88612497308399
 20
238.90623410573559
 30
0.0
 11
117.6389017228164
 21
232.40623410573571
 31
0.0
  0
LINE
  5
64C8
  8
0
 10
117.6389017228164
 20
245.40623410573531
 30
0.0
 11
113.88612497308399
 21
238.90623410573559
 31
0.0
  0
LINE
  5
64C9
  8
0
 10
125.1444552222812
 20
245.40623410573531
 30
0.0
 11
117.6389017228164
 21
245.40623410573531
 31
0.0
  0
LINE
  5
64CA
  8
0
 10
128.8972319720136
 20
238.90623410573559
 30
0.0
 11
125.1444552222812
 21
245.40623410573531
 31
0.0
  0
LINE
  5
64CB
  8
0
 10
125.1444552222812
 20
232.40623410573571
 30
0.0
 11
128.8972319720136
 21
238.90623410573559
 31
0.0
  0
LINE
  5
64CC
  8
0
 10
117.6389017228164
 20
232.40623410573571
 30
0.0
 11
125.1444552222812
 21
232.40623410573571
 31
0.0
  0
ARC
  5
64CD
  8
0
 10
121.3916784725488
 20
238.90623410573559
 30
0.0
 40
20.850443051075668
 50
30.237560746705888
 51
149.7624392532941
  0
ARC
  5
64CE
  8
0
 10
121.3916784725488
 20
238.90623410573559
 30
0.0
 40
27.5
 50
22.44635058144987
 51
157.55364941855009
  0
ARC
  5
64CF
  8
0
 10
121.3916784725488
 20
238.90623410573559
 30
0.0
 40
33.5
 50
195.75950956217591
 51
344.24049043782401
  0
LINE
  5
64D0
  8
0
 10
87.891678472548847
 20
65.800386740285205
 30
0.0
 11
87.891678472548833
 21
62.80038674028517
 31
0.0
  0
LINE
  5
64D1
  8
0
 10
81.391678472548804
 20
65.800386740285205
 30
0.0
 11
81.391678472548762
 21
74.645091408574842
 31
0.0
  0
LINE
  5
64D2
  8
0
 10
87.891678472548833
 20
77.831890506819789
 30
0.0
 11
87.891678472548833
 21
78.673277587567185
 31
0.0
  0
LINE
  5
64D3
  8
0
 10
87.891678472548833
 20
77.831890506819789
 30
0.0
 11
82.032699393239881
 21
75.578437014777904
 31
0.0
  0
LINE
  5
64D4
  8
0
 10
93.891678472548847
 20
82.202915468885166
 30
0.0
 11
88.456202290160775
 21
79.573477840051424
 31
0.0
  0
LINE
  5
64D5
  8
0
 10
100.5412354214731
 20
85.099125338545306
 30
0.0
 11
94.663579359080728
 21
83.722136919159055
 31
0.0
  0
LINE
  5
64D6
  8
0
 10
106.3916784725488
 20
88.202915468885124
 30
0.0
 11
101.23151492275881
 21
86.522055184093986
 31
0.0
  0
LINE
  5
64D7
  8
0
 10
106.3916784725488
 20
88.800386740285177
 30
0.0
 11
106.3916784725488
 21
88.202915468885152
 31
0.0
  0
LINE
  5
64D8
  8
0
 10
93.891678472548804
 20
82.202915468885124
 30
0.0
 11
93.891678472548804
 21
82.748499001637811
 31
0.0
  0
LINE
  5
64D9
  8
0
 10
100.5412354214731
 20
85.099125338545306
 30
0.0
 11
100.5412354214731
 21
85.571227537947706
 31
0.0
  0
ARC
  5
64DA
  8
0
 10
107.3916784725488
 20
88.800386740285205
 30
0.0
 40
1.0
 50
90.0
 51
180.00000000000099
  0
ARC
  5
64DB
  8
0
 10
101.5412354214731
 20
85.571227537947706
 30
0.0
 40
1.0
 50
108.0423872583581
 51
180.0
  0
ARC
  5
64DC
  8
0
 10
94.89167847254879
 20
82.748499001637811
 30
0.0
 40
1.0
 50
103.1851843997529
 51
180.0
  0
ARC
  5
64DD
  8
0
 10
82.391678472548762
 20
74.645091408574842
 30
0.0
 40
1.0
 50
111.03751102542169
 51
180.0
  0
ARC
  5
64DE
  8
0
 10
88.891678472548833
 20
78.673277587567185
 30
0.0
 40
1.0
 50
115.8155979716511
 51
180.0
  0
LINE
  5
64DF
  8
0
 10
154.89167847254879
 20
62.80038674028517
 30
0.0
 11
87.891678472548833
 21
62.800386740285241
 31
0.0
  0
ARC
  5
64E0
  8
0
 10
153.89167847254879
 20
78.673277587567185
 30
0.0
 40
1.0
 50
0.0
 51
64.18440202834887
  0
ARC
  5
64E1
  8
0
 10
160.3916784725489
 20
74.645091408574842
 30
0.0
 40
1.0
 50
0.0
 51
68.962488974578235
  0
ARC
  5
64E2
  8
0
 10
147.89167847254879
 20
82.748499001637811
 30
0.0
 40
1.0
 50
0.0
 51
76.814815600247044
  0
ARC
  5
64E3
  8
0
 10
141.24212152362449
 20
85.571227537947706
 30
0.0
 40
1.0
 50
0.0
 51
71.957612741641853
  0
ARC
  5
64E4
  8
0
 10
135.39167847254879
 20
88.800386740285205
 30
0.0
 40
1.0
 50
359.99999999999892
 51
90.0
  0
LINE
  5
64E5
  8
0
 10
142.24212152362449
 20
85.099125338545306
 30
0.0
 11
142.24212152362449
 21
85.571227537947706
 31
0.0
  0
LINE
  5
64E6
  8
0
 10
148.89167847254879
 20
82.202915468885124
 30
0.0
 11
148.89167847254879
 21
82.748499001637811
 31
0.0
  0
LINE
  5
64E7
  8
0
 10
136.39167847254879
 20
88.800386740285177
 30
0.0
 11
136.39167847254879
 21
88.202915468885152
 31
0.0
  0
LINE
  5
64E8
  8
0
 10
136.39167847254879
 20
88.202915468885124
 30
0.0
 11
141.5518420223388
 21
86.522055184093986
 31
0.0
  0
LINE
  5
64E9
  8
0
 10
136.39167847254879
 20
88.202915468885124
 30
0.0
 11
106.3916784725488
 21
88.202915468885095
 31
0.0
  0
LINE
  5
64EA
  8
0
 10
142.24212152362449
 20
85.099125338545306
 30
0.0
 11
148.11977758601691
 21
83.722136919159055
 31
0.0
  0
LINE
  5
64EB
  8
0
 10
148.89167847254879
 20
82.202915468885166
 30
0.0
 11
154.32715465493681
 21
79.573477840051424
 31
0.0
  0
LINE
  5
64EC
  8
0
 10
154.89167847254879
 20
77.831890506819789
 30
0.0
 11
160.75065755185781
 21
75.578437014777904
 31
0.0
  0
LINE
  5
64ED
  8
0
 10
154.89167847254879
 20
77.831890506819789
 30
0.0
 11
154.89167847254879
 21
78.673277587567185
 31
0.0
  0
LINE
  5
64EE
  8
0
 10
135.39167847254879
 20
89.800386740285205
 30
0.0
 11
107.3916784725488
 21
89.800386740285205
 31
0.0
  0
LINE
  5
64EF
  8
0
 10
142.2421215236246
 20
85.099125338545306
 30
0.0
 11
100.5412354214731
 21
85.099125338545306
 31
0.0
  0
LINE
  5
64F0
  8
0
 10
148.89167847254879
 20
82.202915468885124
 30
0.0
 11
93.891678472548804
 21
82.202915468885166
 31
0.0
  0
LINE
  5
64F1
  8
0
 10
154.89167847254879
 20
77.831890506819789
 30
0.0
 11
87.891678472548833
 21
77.831890506819803
 31
0.0
  0
LINE
  5
64F2
  8
1
 10
167.1059641868346
 20
238.90623410573559
 30
0.0
 11
75.677392758263068
 21
238.90623410573559
 31
0.0
  0
LINE
  5
64F3
  8
1
 10
121.3916784725488
 20
284.62051982002129
 30
0.0
 11
121.3916784725488
 21
193.1919483914497
 31
0.0
  0
CIRCLE
  5
64F4
  8
0
 10
121.3916784725488
 20
238.90623410573559
 30
0.0
 40
40.00000000000005
  0
LINE
  5
64F5
  8
0
 10
154.89167847254879
 20
65.800386740285205
 30
0.0
 11
154.89167847254879
 21
62.80038674028517
 31
0.0
  0
LINE
  5
64F6
  8
0
 10
161.3916784725489
 20
65.800386740285205
 30
0.0
 11
161.3916784725489
 21
74.645091408574842
 31
0.0
  0
LINE
  5
64F7
  8
0
 10
161.3916784725489
 20
65.800386740285191
 30
0.0
 11
81.391678472548804
 21
65.800386740285205
 31
0.0
  0
CIRCLE
  5
65C9
  8
2
 10
94.391678472548847
 20
238.90623410573559
 30
0.0
 40
4.25
  0
CIRCLE
  5
65CA
  8
2
 10
148.39167847254879
 20
238.90623410573559
 30
0.0
 40
4.25
  0
LINE
  5
670F
  8
0
 10
233.16946537573449
 20
88.800386740285177
 30
0.0
 11
254.16946537573449
 21
88.800386740285177
 31
0.0
  0
POLYLINE
  5
6710
  8
0
 66
     1
 10
0.0
 20
0.0
 30
0.0
 70
   128
  0
VERTEX
  5
6989
  8
0
 10
252.76807166946651
 20
77.831890506819803
 30
0.0
  0
VERTEX
  5
698A
  8
0
 10
251.77326978122201
 20
77.394708833324742
 30
0.0
  0
VERTEX
  5
698B
  8
0
 10
250.54506098139871
 20
77.021925840424942
 30
0.0
  0
VERTEX
  5
698C
  8
0
 10
249.10765022009591
 20
76.720486497446544
 30
0.0
  0
VERTEX
  5
698D
  8
0
 10
247.5053590054072
 20
76.495826613886905
 30
0.0
  0
VERTEX
  5
698E
  8
0
 10
245.8306620309736
 20
76.356101180062012
 30
0.0
  0
VERTEX
  5
698F
  8
0
 10
244.0921134741441
 20
76.295785694926934
 30
0.0
  0
VERTEX
  5
6990
  8
0
 10
242.38037120284051
 20
76.31569055671126
 30
0.0
  0
VERTEX
  5
6991
  8
0
 10
240.70514337956641
 20
76.412198971761924
 30
0.0
  0
VERTEX
  5
6992
  8
0
 10
239.1197571090585
 20
76.583770590556426
 30
0.0
  0
VERTEX
  5
6993
  8
0
 10
237.65966806056849
 20
76.826667001888623
 30
0.0
  0
VERTEX
  5
6994
  8
0
 10
236.34524009385589
 20
77.143035988660273
 30
0.0
  0
VERTEX
  5
6995
  8
0
 10
235.23054632947191
 20
77.523415275684002
 30
0.0
  0
VERTEX
  5
6996
  8
0
 10
234.5708590820025
 20
77.831890506819803
 30
0.0
  0
SEQEND
  5
6997
  8
0
  0
ARC
  5
6711
  8
0
 10
253.98969680204991
 20
78.700938796276347
 30
0.0
 40
1.2219382582710441
 50
134.43366307173761
 51
181.2971243796529
  0
LINE
  5
6712
  8
0
 10
252.76807166946651
 20
78.673277587567199
 30
0.0
 11
252.76807166946651
 21
77.831890506819803
 31
0.0
  0
LINE
  5
6713
  8
0
 10
234.5708590820025
 20
77.831890506819803
 30
0.0
 11
234.5708590820025
 21
78.673277587567199
 31
0.0
  0
ARC
  5
6714
  8
0
 10
233.3729606610186
 20
78.710589912559954
 30
0.0
 40
1.1984793851343281
 50
358.21591903933722
 51
46.053293509278397
  0
ARC
  5
6715
  8
0
 10
235.6128492453725
 20
81.571881566874779
 30
0.0
 40
2.4446930022312561
 50
181.87515281252641
 51
234.82990765753141
  0
LINE
  5
6716
  8
0
 10
233.16946537573449
 20
88.800386740285177
 30
0.0
 11
233.16946537573449
 21
81.491886937356284
 31
0.0
  0
LINE
  5
6717
  8
0
 10
254.16946537573449
 20
88.800386740285177
 30
0.0
 11
254.16946537573449
 21
81.491886937356284
 31
0.0
  0
ARC
  5
6718
  8
0
 10
251.6136295516965
 20
81.632563761093365
 30
0.0
 40
2.559704422032516
 50
306.44540145010711
 51
356.84953807984039
  0
LINE
  5
672B
  8
0
 10
128.3916784725487
 20
234.86478222140801
 30
0.0
 11
128.3916784725487
 21
238.03058975871801
 31
0.0
  0
LINE
  5
672C
  8
0
 10
128.3916784725487
 20
239.78187845275301
 30
0.0
 11
128.3916784725487
 21
242.94768599006289
 31
0.0
  0
LINE
  5
672D
  8
0
 10
114.3916784725488
 20
234.86478222140801
 30
0.0
 11
114.3916784725488
 21
238.03058975871829
 31
0.0
  0
LINE
  5
672E
  8
0
 10
114.3916784725488
 20
239.78187845275289
 30
0.0
 11
114.3916784725488
 21
242.94768599006281
 31
0.0
  0
LINE
  5
672F
  8
0
 10
128.3916784725487
 20
242.94768599006301
 30
0.0
 11
125.6500087217462
 21
244.53058975871789
 31
0.0
  0
LINE
  5
6730
  8
0
 10
124.1333482233514
 20
245.40623410573531
 30
0.0
 11
121.3916784725488
 21
246.9891378743902
 31
0.0
  0
LINE
  5
6731
  8
0
 10
121.3916784725487
 20
230.82333033708079
 30
0.0
 11
118.65000872174581
 21
232.40623410573571
 31
0.0
  0
LINE
  5
6732
  8
0
 10
117.1333482233519
 20
233.28187845275281
 30
0.0
 11
114.3916784725488
 21
234.86478222140801
 31
0.0
  0
LINE
  5
6733
  8
0
 10
128.3916784725487
 20
234.86478222140809
 30
0.0
 11
125.6500087217461
 21
233.28187845275309
 31
0.0
  0
LINE
  5
6734
  8
0
 10
124.1333482233515
 20
232.40623410573571
 30
0.0
 11
121.3916784725487
 21
230.82333033708079
 31
0.0
  0
LINE
  5
6735
  8
0
 10
121.3916784725489
 20
246.9891378743902
 30
0.0
 11
118.6500087217463
 21
245.40623410573531
 31
0.0
  0
LINE
  5
6736
  8
0
 10
117.1333482233515
 20
244.53058975871781
 30
0.0
 11
114.3916784725488
 21
242.94768599006289
 31
0.0
  0
LINE
  5
6737
  8
0
 10
234.5708590820025
 20
77.831890506819789
 30
0.0
 11
210.16946537573449
 21
77.831890506819803
 31
0.0
  0
LINE
  5
673A
  8
0
 10
233.16946537573449
 20
82.202915468885166
 30
0.0
 11
216.1694653757344
 21
82.202915468885166
 31
0.0
  0
LINE
  5
673B
  8
0
 10
233.16946537573449
 20
85.099125338545306
 30
0.0
 11
222.81902232465879
 21
85.099125338545306
 31
0.0
  0
LINE
  5
673C
  8
0
 10
233.16946537573449
 20
88.202915468885095
 30
0.0
 11
228.66946537573449
 21
88.202915468885095
 31
0.0
  0
TEXT
  5
696C
  8
0
 62
     3
 10
0.0
 20
0.0
 30
0.0
 40
10.0
  1
LVFR80S8B
  7
STANDARD1
  0
ENDSEC
  0
EOF
