  0
SECTION
  2
HEADER
  9
$ACADVER
  1
AC1009
  9
$INSBASE
 10
0.0
 20
0.0
 30
0.0
  9
$EXTMIN
 10
0.0
 20
-2.960436562073669
 30
0.0
  9
$EXTMAX
 10
345.58412419391902
 20
209.3674237304671
 30
0.0
  9
$LIMMIN
 10
0.0
 20
0.0
  9
$LIMMAX
 10
375.0
 20
270.0
  9
$ORTHOMODE
 70
     0
  9
$REGENMODE
 70
     1
  9
$FILLMODE
 70
     1
  9
$QTEXTMODE
 70
     0
  9
$MIRRTEXT
 70
     0
  9
$DRAGMODE
 70
     2
  9
$LTSCALE
 40
10.0
  9
$OSMODE
 70
  3071
  9
$ATTMODE
 70
     1
  9
$TEXTSIZE
 40
0.2
  9
$TRACEWID
 40
0.05
  9
$TEXTSTYLE
  7
STANDARD
  9
$CLAYER
  8
0
  9
$CELTYPE
  6
BYLAYER
  9
$CECOLOR
 62
   256
  9
$DIMSCALE
 40
1.0
  9
$DIMASZ
 40
3.0
  9
$DIMEXO
 40
2.0
  9
$DIMDLI
 40
0.3799999999999999
  9
$DIMRND
 40
0.0
  9
$DIMDLE
 40
0.0
  9
$DIMEXE
 40
2.0
  9
$DIMTP
 40
0.0
  9
$DIMTM
 40
0.0
  9
$DIMTXT
 40
3.0
  9
$DIMCEN
 40
0.09
  9
$DIMTSZ
 40
0.0
  9
$DIMTOL
 70
     0
  9
$DIMLIM
 70
     0
  9
$DIMTIH
 70
     0
  9
$DIMTOH
 70
     0
  9
$DIMSE1
 70
     0
  9
$DIMSE2
 70
     0
  9
$DIMTAD
 70
     1
  9
$DIMZIN
 70
     0
  9
$DIMBLK
  1

  9
$DIMASO
 70
     0
  9
$DIMSHO
 70
     0
  9
$DIMPOST
  1

  9
$DIMAPOST
  1

  9
$DIMALT
 70
     0
  9
$DIMALTD
 70
     2
  9
$DIMALTF
 40
25.399999999999999
  9
$DIMLFAC
 40
1.0
  9
$DIMTOFL
 70
     0
  9
$DIMTVP
 40
0.0
  9
$DIMTIX
 70
     0
  9
$DIMSOXD
 70
     0
  9
$DIMSAH
 70
     0
  9
$DIMBLK1
  1

  9
$DIMBLK2
  1

  9
$DIMSTYLE
  2
STANDARD
  9
$DIMCLRD
 70
     0
  9
$DIMCLRE
 70
     0
  9
$DIMCLRT
 70
     0
  9
$DIMTFAC
 40
1.0
  9
$DIMGAP
 40
0.09
  9
$LUNITS
 70
     2
  9
$LUPREC
 70
     4
  9
$SKETCHINC
 40
0.1
  9
$FILLETRAD
 40
1.5
  9
$AUNITS
 70
     0
  9
$AUPREC
 70
     0
  9
$MENU
  1
E:\r13\win\SUPPORT\ACAD
  9
$ELEVATION
 40
0.0
  9
$PELEVATION
 40
0.0
  9
$THICKNESS
 40
0.0
  9
$LIMCHECK
 70
     0
  9
$BLIPMODE
 70
     0
  9
$CHAMFERA
 40
0.0
  9
$CHAMFERB
 40
0.0
  9
$SKPOLY
 70
     0
  9
$TDCREATE
 40
2449840.6486805561
  9
$TDUPDATE
 40
2456597.6344930441
  9
$TDINDWG
 40
0.0052531019
  9
$TDUSRTIMER
 40
0.0052531019
  9
$USRTIMER
 70
     1
  9
$ANGBASE
 50
0.0
  9
$ANGDIR
 70
     0
  9
$PDMODE
 70
     0
  9
$PDSIZE
 40
0.0
  9
$PLINEWID
 40
0.0
  9
$COORDS
 70
     1
  9
$SPLFRAME
 70
     0
  9
$SPLINETYPE
 70
     6
  9
$SPLINESEGS
 70
     8
  9
$ATTDIA
 70
     0
  9
$ATTREQ
 70
     1
  9
$HANDLING
 70
     1
  9
$HANDSEED
  5
2AA
  9
$SURFTAB1
 70
     6
  9
$SURFTAB2
 70
     6
  9
$SURFTYPE
 70
     6
  9
$SURFU
 70
     6
  9
$SURFV
 70
     6
  9
$UCSNAME
  2

  9
$UCSORG
 10
0.0
 20
0.0
 30
0.0
  9
$UCSXDIR
 10
1.0
 20
0.0
 30
0.0
  9
$UCSYDIR
 10
0.0
 20
1.0
 30
0.0
  9
$PUCSNAME
  2

  9
$PUCSORG
 10
0.0
 20
0.0
 30
0.0
  9
$PUCSXDIR
 10
1.0
 20
0.0
 30
0.0
  9
$PUCSYDIR
 10
0.0
 20
1.0
 30
0.0
  9
$USERI1
 70
     0
  9
$USERI2
 70
     1
  9
$USERI3
 70
     1
  9
$USERI4
 70
     0
  9
$USERI5
 70
     0
  9
$USERR1
 40
0.0
  9
$USERR2
 40
0.0
  9
$USERR3
 40
0.0
  9
$USERR4
 40
0.0
  9
$USERR5
 40
0.0
  9
$WORLDVIEW
 70
     1
  9
$SHADEDGE
 70
     3
  9
$SHADEDIF
 70
    70
  9
$TILEMODE
 70
     1
  9
$MAXACTVP
 70
    16
  9
$PLIMCHECK
 70
     0
  9
$PEXTMIN
 10
1.0000000000000000E+020
 20
1.0000000000000000E+020
 30
1.0000000000000000E+020
  9
$PEXTMAX
 10
-1.0000000000000000E+020
 20
-1.0000000000000000E+020
 30
-1.0000000000000000E+020
  9
$PLIMMIN
 10
0.0
 20
0.0
  9
$PLIMMAX
 10
12.0
 20
9.0
  9
$UNITMODE
 70
     0
  9
$VISRETAIN
 70
     0
  9
$PLINEGEN
 70
     0
  9
$PSLTSCALE
 70
     0
  0
ENDSEC
  0
SECTION
  2
TABLES
  0
TABLE
  2
VPORT
 70
     1
  0
VPORT
  2
*ACTIVE
 70
     0
 10
0.0
 20
0.0
 11
1.0
 21
1.0
 12
187.49427839065231
 22
134.10366293909439
 13
0.0
 23
0.0
 14
10.0
 24
10.0
 15
10.0
 25
10.0
 16
0.0
 26
0.0
 36
1.0
 17
0.0
 27
0.0
 37
0.0
 40
277.29405978699532
 41
2.304913294797688
 42
50.0
 43
0.0
 44
0.0
 50
0.0
 51
0.0
 71
     0
 72
   100
 73
     1
 74
     0
 75
     0
 76
     0
 77
     0
 78
     0
  0
ENDTAB
  0
TABLE
  2
LTYPE
 70
     3
  0
LTYPE
  2
CONTINUOUS
 70
     0
  3
Solid Line
 72
    65
 73
     0
 40
0.0
  0
LTYPE
  2
CENTER
 70
     0
  3
____ _ ____ _ ____ _ ____ _ ____ _ ____ _ ____
 72
    65
 73
     4
 40
2.0
 49
1.25
 49
-0.25
 49
0.25
 49
-0.25
  0
LTYPE
  2
PHANTOM2
 70
     0
  3
___ _ _ ___ _ _ ___ _ _ ___ _ _
 72
    65
 73
     6
 40
1.25
 49
0.625
 49
-0.125
 49
0.125
 49
-0.125
 49
0.125
 49
-0.125
  0
ENDTAB
  0
TABLE
  2
LAYER
 70
     2
  0
LAYER
  2
0
 70
     0
 62
     7
  6
CONTINUOUS
  0
LAYER
  2
1
 70
     0
 62
     1
  6
CENTER
  0
ENDTAB
  0
TABLE
  2
STYLE
 70
     2
  0
STYLE
  2
STANDARD
 70
     0
 40
0.0
 41
1.0
 50
0.0
 71
     0
 42
0.2
  3
TXT
  4
BIGFONT
  0
STYLE
  2
STANDARD1
 70
     0
 40
0.0
 41
1.0
 50
0.0
 71
     0
 42
3.0
  3
txt
  4

  0
ENDTAB
  0
TABLE
  2
VIEW
 70
     1
  0
VIEW
  2
ALL
 70
     0
 40
290.0
 10
224.19471299093661
 20
135.0
 41
0.0
 11
0.0
 21
0.0
 31
1.0
 12
0.0
 22
0.0
 32
0.0
 42
0.0
 43
0.0
 44
0.0
 50
0.0
 71
     0
  0
ENDTAB
  0
TABLE
  2
UCS
 70
     0
  0
ENDTAB
  0
TABLE
  2
APPID
 70
     3
  0
APPID
  2
ACAD
 70
     0
  0
APPID
  2
ACAD_MLEADERVER
 70
     0
  0
APPID
  2
ACAD_NAV_VCDISPLAY
 70
     0
  0
ENDTAB
  0
TABLE
  2
DIMSTYLE
 70
     1
  0
DIMSTYLE
  2
STANDARD
 70
     0
  3

  4

  5

  6

  7

 40
1.0
 41
0.18
 42
0.0625
 43
0.38
 44
0.18
 45
0.0
 46
0.0
 47
0.0
 48
0.0
140
0.18
141
0.09
142
0.0
143
25.399999999999999
144
1.0
145
0.0
146
1.0
147
0.09
 71
     0
 72
     0
 73
     1
 74
     1
 75
     0
 76
     0
 77
     0
 78
     0
170
     0
171
     2
172
     0
173
     0
174
     0
175
     0
176
     0
177
     0
178
     0
  0
ENDTAB
  0
ENDSEC
  0
SECTION
  2
BLOCKS
  0
BLOCK
  8
0
  2
$MODEL_SPACE
 70
     0
 10
0.0
 20
0.0
 30
0.0
  3
$MODEL_SPACE
  1

  0
ENDBLK
  5
132
  8
0
  0
BLOCK
 67
     1
  8
0
  2
$PAPER_SPACE
 70
     0
 10
0.0
 20
0.0
 30
0.0
  3
$PAPER_SPACE
  1

  0
ENDBLK
  5
130
 67
     1
  8
0
  0
ENDSEC
  0
SECTION
  2
ENTITIES
  0
ARC
  5
35
  8
0
 10
266.93716012084599
 20
200.7655135390533
 30
0.0
 40
1.0
 50
0.0
 51
90.0
  0
ARC
  5
36
  8
0
 10
243.93716012084599
 20
200.7655135390533
 30
0.0
 40
1.0
 50
90.0
 51
179.99999999999989
  0
LINE
  5
37
  8
0
 10
250.43716012084599
 20
181.0531439279446
 30
0.0
 11
242.93716012084599
 21
181.0531439279446
 31
0.0
  0
LINE
  5
38
  8
0
 10
265.93716012084599
 20
199.2655135390533
 30
0.0
 11
259.76003577637817
 21
199.2655135390533
 31
0.0
  0
LINE
  5
39
  8
0
 10
265.93716012084599
 20
184.05314392794469
 30
0.0
 11
260.43716012084599
 21
184.05314392794469
 31
0.0
  0
LINE
  5
3A
  8
0
 10
265.93716012084599
 20
185.05314392794469
 30
0.0
 11
260.43716012084599
 21
185.05314392794469
 31
0.0
  0
LINE
  5
3B
  8
0
 10
265.93716012084599
 20
186.05314392794469
 30
0.0
 11
260.43716012084599
 21
186.05314392794469
 31
0.0
  0
LINE
  5
3C
  8
0
 10
265.93716012084599
 20
187.05314392794469
 30
0.0
 11
260.43716012084599
 21
187.05314392794469
 31
0.0
  0
LINE
  5
3D
  8
0
 10
265.93716012084599
 20
188.05314392794469
 30
0.0
 11
260.43716012084599
 21
188.05314392794469
 31
0.0
  0
LINE
  5
3E
  8
0
 10
265.93716012084599
 20
189.05314392794469
 30
0.0
 11
260.43716012084599
 21
189.05314392794469
 31
0.0
  0
LINE
  5
3F
  8
0
 10
265.93716012084599
 20
190.05314392794469
 30
0.0
 11
260.43716012084599
 21
190.05314392794469
 31
0.0
  0
LINE
  5
40
  8
0
 10
265.93716012084599
 20
191.05314392794469
 30
0.0
 11
260.43716012084599
 21
191.05314392794469
 31
0.0
  0
LINE
  5
41
  8
0
 10
265.93716012084599
 20
192.05314392794469
 30
0.0
 11
260.43716012084599
 21
192.05314392794469
 31
0.0
  0
LINE
  5
42
  8
0
 10
265.93716012084599
 20
193.05314392794469
 30
0.0
 11
260.43716012084599
 21
193.05314392794469
 31
0.0
  0
LINE
  5
43
  8
0
 10
265.93716012084599
 20
194.0531439279446
 30
0.0
 11
260.43716012084599
 21
194.0531439279446
 31
0.0
  0
LINE
  5
44
  8
0
 10
265.93716012084599
 20
195.05314392794469
 30
0.0
 11
260.43716012084599
 21
195.05314392794469
 31
0.0
  0
LINE
  5
45
  8
0
 10
265.93716012084599
 20
196.05314392794469
 30
0.0
 11
260.43716012084599
 21
196.05314392794469
 31
0.0
  0
LINE
  5
46
  8
0
 10
265.93716012084599
 20
197.05314392794469
 30
0.0
 11
260.43716012084599
 21
197.05314392794469
 31
0.0
  0
LINE
  5
47
  8
0
 10
265.93716012084599
 20
198.05314392794469
 30
0.0
 11
260.43716012084599
 21
198.05314392794469
 31
0.0
  0
LINE
  5
48
  8
0
 10
244.93716012084599
 20
198.05314392794469
 30
0.0
 11
250.43716012084599
 21
198.05314392794469
 31
0.0
  0
LINE
  5
49
  8
0
 10
244.93716012084599
 20
197.05314392794469
 30
0.0
 11
250.43716012084599
 21
197.05314392794469
 31
0.0
  0
LINE
  5
4A
  8
0
 10
244.93716012084599
 20
196.05314392794469
 30
0.0
 11
250.43716012084599
 21
196.05314392794469
 31
0.0
  0
LINE
  5
4B
  8
0
 10
244.93716012084599
 20
195.05314392794469
 30
0.0
 11
250.43716012084599
 21
195.05314392794469
 31
0.0
  0
LINE
  5
4C
  8
0
 10
244.93716012084599
 20
194.0531439279446
 30
0.0
 11
250.43716012084599
 21
194.0531439279446
 31
0.0
  0
LINE
  5
4D
  8
0
 10
244.93716012084599
 20
193.05314392794469
 30
0.0
 11
250.43716012084599
 21
193.05314392794469
 31
0.0
  0
LINE
  5
4E
  8
0
 10
244.93716012084599
 20
192.05314392794469
 30
0.0
 11
250.43716012084599
 21
192.05314392794469
 31
0.0
  0
LINE
  5
4F
  8
0
 10
244.93716012084599
 20
191.05314392794469
 30
0.0
 11
250.43716012084599
 21
191.05314392794469
 31
0.0
  0
LINE
  5
50
  8
0
 10
244.93716012084599
 20
190.05314392794469
 30
0.0
 11
250.43716012084599
 21
190.05314392794469
 31
0.0
  0
LINE
  5
51
  8
0
 10
244.93716012084599
 20
189.05314392794469
 30
0.0
 11
250.43716012084599
 21
189.05314392794469
 31
0.0
  0
LINE
  5
52
  8
0
 10
244.93716012084599
 20
188.05314392794469
 30
0.0
 11
250.43716012084599
 21
188.05314392794469
 31
0.0
  0
LINE
  5
53
  8
0
 10
244.93716012084599
 20
187.05314392794469
 30
0.0
 11
250.43716012084599
 21
187.05314392794469
 31
0.0
  0
LINE
  5
54
  8
0
 10
244.93716012084599
 20
186.05314392794469
 30
0.0
 11
250.43716012084599
 21
186.05314392794469
 31
0.0
  0
LINE
  5
55
  8
0
 10
244.93716012084599
 20
185.05314392794469
 30
0.0
 11
250.43716012084599
 21
185.05314392794469
 31
0.0
  0
LINE
  5
56
  8
0
 10
244.93716012084599
 20
184.05314392794469
 30
0.0
 11
250.43716012084599
 21
184.05314392794469
 31
0.0
  0
LINE
  5
57
  8
0
 10
244.93716012084599
 20
199.2655135390533
 30
0.0
 11
251.11428446531369
 21
199.2655135390533
 31
0.0
  0
ARC
  5
58
  8
0
 10
258.43716012084599
 20
197.7655135390533
 30
0.0
 40
2.0
 50
0.0
 51
90.0
  0
ARC
  5
59
  8
0
 10
252.43716012084599
 20
197.7655135390533
 30
0.0
 40
2.0
 50
90.0
 51
179.99999999999989
  0
LINE
  5
5A
  8
0
 10
260.43716012084599
 20
197.2225175588859
 30
0.0
 11
250.43716012084599
 21
197.2225175588859
 31
0.0
  0
LINE
  5
5B
  8
0
 10
267.93716012084599
 20
181.0531439279446
 30
0.0
 11
260.43716012084599
 21
181.0531439279446
 31
0.0
  0
LINE
  5
5C
  8
0
 10
266.93716012084599
 20
201.7655135390533
 30
0.0
 11
243.93716012084599
 21
201.7655135390533
 31
0.0
  0
LINE
  5
5D
  8
0
 10
242.93716012084599
 20
181.0531439279446
 30
0.0
 11
242.93716012084599
 21
200.7655135390533
 31
0.0
  0
LINE
  5
5E
  8
0
 10
244.93716012084599
 20
181.0531439279446
 30
0.0
 11
244.93716012084599
 21
201.7655135390533
 31
0.0
  0
LINE
  5
5F
  8
0
 10
250.43716012084599
 20
181.0531439279446
 30
0.0
 11
250.43716012084599
 21
197.7655135390533
 31
0.0
  0
LINE
  5
60
  8
0
 10
260.43716012084599
 20
181.0531439279446
 30
0.0
 11
260.43716012084599
 21
197.7655135390533
 31
0.0
  0
LINE
  5
61
  8
0
 10
265.93716012084599
 20
181.0531439279446
 30
0.0
 11
265.93716012084599
 21
201.7655135390533
 31
0.0
  0
LINE
  5
62
  8
0
 10
267.93716012084599
 20
181.0531439279446
 30
0.0
 11
267.93716012084599
 21
200.7655135390533
 31
0.0
  0
LINE
  5
63
  8
0
 10
258.43716012084599
 20
199.7655135390533
 30
0.0
 11
252.43716012084599
 21
199.7655135390533
 31
0.0
  0
ARC
  5
64
  8
0
 10
264.43716012084599
 20
101.0634441087613
 30
0.0
 40
3.5
 50
270.0
 51
0.0
  0
ARC
  5
65
  8
0
 10
246.43716012084599
 20
101.0634441087613
 30
0.0
 40
3.5
 50
180.0
 51
269.99999999999989
  0
LINE
  5
66
  8
0
 10
244.93716012084599
 20
116.14075722099589
 30
0.0
 11
250.43716012084599
 21
116.14075722099589
 31
0.0
  0
LINE
  5
67
  8
0
 10
250.43716012084599
 20
114.14075722099599
 30
0.0
 11
242.93716012084599
 21
114.14075722099599
 31
0.0
  0
LINE
  5
68
  8
0
 10
250.43716012084599
 20
117.14075722099589
 30
0.0
 11
242.93716012084599
 21
117.14075722099589
 31
0.0
  0
LINE
  5
69
  8
0
 10
265.93716012084599
 20
116.14075722099589
 30
0.0
 11
265.93716012084599
 21
117.14075722099589
 31
0.0
  0
LINE
  5
6A
  8
0
 10
244.93716012084599
 20
116.14075722099589
 30
0.0
 11
244.93716012084599
 21
117.14075722099589
 31
0.0
  0
LINE
  5
6B
  8
0
 10
250.43716012084599
 20
117.14075722099589
 30
0.0
 11
250.43716012084599
 21
112.12899895094171
 31
0.0
  0
LINE
  5
6C
  8
0
 10
267.93716012084599
 20
114.14075722099599
 30
0.0
 11
260.43716012084599
 21
114.14075722099599
 31
0.0
  0
LINE
  5
6D
  8
0
 10
264.43716012084599
 20
97.563444108761317
 30
0.0
 11
246.43716012084599
 21
97.563444108761317
 31
0.0
  0
LINE
  5
6E
  8
0
 10
267.93716012084599
 20
117.14075722099589
 30
0.0
 11
260.43716012084599
 21
117.14075722099589
 31
0.0
  0
LINE
  5
6F
  8
0
 10
267.93716012084599
 20
117.14075722099589
 30
0.0
 11
267.93716012084599
 21
101.0634441087613
 31
0.0
  0
LINE
  5
70
  8
0
 10
242.93716012084599
 20
117.14075722099589
 30
0.0
 11
242.93716012084599
 21
101.0634441087613
 31
0.0
  0
ARC
  5
71
  8
0
 10
340.79419546605891
 20
98.313444108761317
 30
0.0
 40
0.75
 50
172.66067093552371
 51
354.15486943260589
  0
LINE
  5
72
  8
0
 10
331.83222927325932
 20
114.14075722099599
 30
0.0
 11
323.87552870090639
 21
114.14075722099599
 31
0.0
  0
ARC
  5
73
  8
0
 10
325.37552870090639
 20
115.64075722099599
 30
0.0
 40
1.5
 50
90.0
 51
179.99999999999989
  0
LINE
  5
74
  8
0
 10
323.87552870090639
 20
114.14075722099599
 30
0.0
 11
334.87552870090627
 21
114.14075722099599
 31
0.0
  0
LINE
  5
75
  8
0
 10
323.87552870090639
 20
115.64075722099599
 30
0.0
 11
323.87552870090639
 21
114.14075722099599
 31
0.0
  0
LINE
  5
76
  8
0
 10
325.37552870090639
 20
117.14075722099589
 30
0.0
 11
334.8755287009065
 21
117.14075722099589
 31
0.0
  0
ARC
  5
77
  8
0
 10
79.652567975830834
 20
112.0634441087613
 30
0.0
 40
0.5
 50
0.0
 51
90.0
  0
ARC
  5
78
  8
0
 10
79.652567975830834
 20
98.063444108761317
 30
0.0
 40
0.5
 50
270.0
 51
0.0
  0
ARC
  5
79
  8
0
 10
55.652567975830827
 20
98.063444108761317
 30
0.0
 40
0.5
 50
180.0
 51
269.99999999999989
  0
ARC
  5
7A
  8
0
 10
55.652567975830827
 20
112.0634441087613
 30
0.0
 40
0.5
 50
90.0
 51
179.99999999999989
  0
LINE
  5
7B
  8
0
 10
152.99093655589121
 20
112.3634441087613
 30
0.0
 11
130.99093655589121
 21
112.3634441087613
 31
0.0
  0
ARC
  5
7C
  8
0
 10
147.24093655589121
 20
111.8634441087613
 30
0.0
 40
0.5
 50
0.0
 51
89.999999999999943
  0
ARC
  5
7D
  8
0
 10
131.74093655589121
 20
111.8634441087613
 30
0.0
 40
0.5
 50
90.0
 51
179.99999999999989
  0
ARC
  5
7E
  8
0
 10
147.24093655589121
 20
97.863444108761314
 30
0.0
 40
0.5
 50
270.0
 51
0.0
  0
ARC
  5
7F
  8
0
 10
147.24093655589121
 20
97.863444108761314
 30
0.0
 40
0.5
 50
270.0
 51
0.0
  0
ARC
  5
80
  8
0
 10
131.74093655589121
 20
97.863444108761314
 30
0.0
 40
0.5
 50
180.0
 51
269.99999999999989
  0
ARC
  5
81
  8
0
 10
79.652567975830834
 20
181.86742373046701
 30
0.0
 40
0.5
 50
270.0
 51
0.0
  0
ARC
  5
82
  8
0
 10
79.652567975830834
 20
197.86742373046701
 30
0.0
 40
0.5
 50
0.0
 51
90.0
  0
ARC
  5
83
  8
0
 10
55.652567975830827
 20
197.86742373046701
 30
0.0
 40
0.5
 50
90.0
 51
179.99999999999989
  0
ARC
  5
84
  8
0
 10
55.652567975830827
 20
181.86742373046701
 30
0.0
 40
0.5
 50
180.0
 51
269.99999999999989
  0
LINE
  5
85
  8
0
 10
55.152567975830827
 20
197.86742373046701
 30
0.0
 11
55.152567975830827
 21
181.86742373046701
 31
0.0
  0
LINE
  5
86
  8
0
 10
80.152567975830834
 20
197.86742373046701
 30
0.0
 11
80.152567975830834
 21
181.86742373046701
 31
0.0
  0
LINE
  5
87
  8
0
 10
57.652567975830827
 20
198.36742373046701
 30
0.0
 11
55.652567975830827
 21
198.36742373046701
 31
0.0
  0
LINE
  5
88
  8
0
 10
79.652567975830834
 20
181.36742373046701
 30
0.0
 11
77.652567975830834
 21
181.36742373046701
 31
0.0
  0
LINE
  5
89
  8
0
 10
77.652567975830834
 20
204.36742373046701
 30
0.0
 11
57.652567975830827
 21
204.36742373046701
 31
0.0
  0
LINE
  5
8A
  8
0
 10
77.652567975830834
 20
180.36742373046701
 30
0.0
 11
57.652567975830827
 21
180.36742373046701
 31
0.0
  0
LINE
  5
8B
  8
0
 10
57.652567975830827
 20
180.36742373046701
 30
0.0
 11
57.652567975830827
 21
204.36742373046701
 31
0.0
  0
LINE
  5
8C
  8
0
 10
57.652567975830827
 20
181.36742373046701
 30
0.0
 11
55.652567975830827
 21
181.36742373046701
 31
0.0
  0
LINE
  5
8D
  8
0
 10
77.652567975830834
 20
180.36742373046701
 30
0.0
 11
77.652567975830834
 21
204.36742373046701
 31
0.0
  0
LINE
  5
8E
  8
0
 10
79.652567975830834
 20
198.36742373046701
 30
0.0
 11
77.652567975830834
 21
198.36742373046701
 31
0.0
  0
LINE
  5
8F
  8
0
 10
71.652567975830834
 20
201.73808856400859
 30
0.0
 11
71.652567975830834
 21
184.61357306741141
 31
0.0
  0
LINE
  5
90
  8
0
 10
145.74093655589121
 20
110.3634441087613
 30
0.0
 11
145.74093655589121
 21
99.863444108761314
 31
0.0
  0
LINE
  5
91
  8
0
 10
133.2409365558913
 20
110.3634441087613
 30
0.0
 11
145.74093655589121
 21
110.3634441087613
 31
0.0
  0
LINE
  5
92
  8
0
 10
133.24093655589121
 20
99.863444108761314
 30
0.0
 11
133.24093655589121
 21
110.3634441087613
 31
0.0
  0
LINE
  5
93
  8
0
 10
145.74093655589121
 20
99.8634441087613
 30
0.0
 11
133.2409365558913
 21
99.863444108761314
 31
0.0
  0
LINE
  5
94
  8
0
 10
147.74093655589121
 20
97.863444108761314
 30
0.0
 11
147.74093655589121
 21
111.8634441087613
 31
0.0
  0
LINE
  5
95
  8
0
 10
131.74093655589121
 20
97.363444108761314
 30
0.0
 11
147.24093655589121
 21
97.363444108761314
 31
0.0
  0
LINE
  5
96
  8
0
 10
131.24093655589121
 20
111.8634441087613
 30
0.0
 11
131.24093655589121
 21
97.863444108761314
 31
0.0
  0
ARC
  5
97
  8
0
 10
130.99093655589121
 20
113.3634441087613
 30
0.0
 40
1.0
 50
180.00000000000011
 51
269.99999999999989
  0
ARC
  5
98
  8
0
 10
152.99093655589121
 20
113.3634441087613
 30
0.0
 40
1.0
 50
270.0
 51
0.0
  0
ARC
  5
99
  8
0
 10
152.99093655589121
 20
116.3634441087613
 30
0.0
 40
1.0
 50
0.0
 51
89.999999999999943
  0
ARC
  5
9A
  8
0
 10
130.99093655589121
 20
116.3634441087613
 30
0.0
 40
1.0
 50
90.0
 51
179.99999999999989
  0
LINE
  5
9B
  8
0
 10
129.99093655589121
 20
116.3634441087613
 30
0.0
 11
129.99093655589121
 21
113.3634441087613
 31
0.0
  0
LINE
  5
9C
  8
0
 10
153.99093655589121
 20
116.3634441087613
 30
0.0
 11
153.99093655589121
 21
113.3634441087613
 31
0.0
  0
LINE
  5
9D
  8
0
 10
136.99093655589121
 20
115.3634441087613
 30
0.0
 11
135.99093655589121
 21
116.3634441087613
 31
0.0
  0
LINE
  5
9E
  8
0
 10
136.99093655589121
 20
116.3634441087613
 30
0.0
 11
136.99093655589121
 21
115.3634441087613
 31
0.0
  0
LINE
  5
9F
  8
0
 10
135.99093655589121
 20
116.3634441087613
 30
0.0
 11
135.99093655589121
 21
115.3634441087613
 31
0.0
  0
LINE
  5
A0
  8
0
 10
135.99093655589121
 20
115.3634441087613
 30
0.0
 11
134.99093655589121
 21
116.3634441087613
 31
0.0
  0
LINE
  5
A1
  8
0
 10
134.99093655589121
 20
116.3634441087613
 30
0.0
 11
134.99093655589121
 21
115.3634441087613
 31
0.0
  0
LINE
  5
A2
  8
0
 10
134.99093655589121
 20
115.3634441087613
 30
0.0
 11
133.99093655589121
 21
116.3634441087613
 31
0.0
  0
LINE
  5
A3
  8
0
 10
133.99093655589121
 20
116.3634441087613
 30
0.0
 11
133.99093655589121
 21
115.3634441087613
 31
0.0
  0
LINE
  5
A4
  8
0
 10
133.99093655589121
 20
115.3634441087613
 30
0.0
 11
132.99093655589121
 21
116.3634441087613
 31
0.0
  0
LINE
  5
A5
  8
0
 10
132.99093655589121
 20
116.3634441087613
 30
0.0
 11
132.99093655589121
 21
115.3634441087613
 31
0.0
  0
LINE
  5
A6
  8
0
 10
132.99093655589121
 20
115.3634441087613
 30
0.0
 11
131.99093655589121
 21
116.3634441087613
 31
0.0
  0
LINE
  5
A7
  8
0
 10
131.99093655589121
 20
116.3634441087613
 30
0.0
 11
131.99093655589121
 21
115.3634441087613
 31
0.0
  0
LINE
  5
A8
  8
0
 10
131.99093655589121
 20
115.3634441087613
 30
0.0
 11
130.99093655589121
 21
116.3634441087613
 31
0.0
  0
LINE
  5
A9
  8
0
 10
130.99093655589121
 20
116.3634441087613
 30
0.0
 11
130.99093655589121
 21
115.3634441087613
 31
0.0
  0
LINE
  5
AA
  8
0
 10
130.99093655589121
 20
115.3634441087613
 30
0.0
 11
129.99093655589121
 21
116.3634441087613
 31
0.0
  0
LINE
  5
AB
  8
0
 10
152.99093655589121
 20
115.3634441087613
 30
0.0
 11
153.99093655589121
 21
116.3634441087613
 31
0.0
  0
LINE
  5
AC
  8
0
 10
152.99093655589121
 20
116.3634441087613
 30
0.0
 11
152.99093655589121
 21
115.3634441087613
 31
0.0
  0
LINE
  5
AD
  8
0
 10
151.99093655589121
 20
115.3634441087613
 30
0.0
 11
152.99093655589121
 21
116.3634441087613
 31
0.0
  0
LINE
  5
AE
  8
0
 10
151.99093655589121
 20
116.3634441087613
 30
0.0
 11
151.99093655589121
 21
115.3634441087613
 31
0.0
  0
LINE
  5
AF
  8
0
 10
150.99093655589121
 20
115.3634441087613
 30
0.0
 11
151.99093655589121
 21
116.3634441087613
 31
0.0
  0
LINE
  5
B0
  8
0
 10
150.99093655589121
 20
116.3634441087613
 30
0.0
 11
150.99093655589121
 21
115.3634441087613
 31
0.0
  0
LINE
  5
B1
  8
0
 10
149.99093655589121
 20
115.3634441087613
 30
0.0
 11
150.99093655589121
 21
116.3634441087613
 31
0.0
  0
LINE
  5
B2
  8
0
 10
149.99093655589121
 20
116.3634441087613
 30
0.0
 11
149.99093655589121
 21
115.3634441087613
 31
0.0
  0
LINE
  5
B3
  8
0
 10
148.99093655589121
 20
115.3634441087613
 30
0.0
 11
149.99093655589121
 21
116.3634441087613
 31
0.0
  0
LINE
  5
B4
  8
0
 10
148.99093655589121
 20
116.3634441087613
 30
0.0
 11
148.99093655589121
 21
115.3634441087613
 31
0.0
  0
LINE
  5
B5
  8
0
 10
147.99093655589121
 20
115.3634441087613
 30
0.0
 11
148.99093655589121
 21
116.3634441087613
 31
0.0
  0
LINE
  5
B6
  8
0
 10
147.99093655589121
 20
116.3634441087613
 30
0.0
 11
147.99093655589121
 21
115.3634441087613
 31
0.0
  0
LINE
  5
B7
  8
0
 10
146.99093655589121
 20
116.3634441087613
 30
0.0
 11
146.99093655589121
 21
115.3634441087613
 31
0.0
  0
LINE
  5
B8
  8
0
 10
146.99093655589121
 20
115.3634441087613
 30
0.0
 11
147.99093655589121
 21
116.3634441087613
 31
0.0
  0
LINE
  5
B9
  8
0
 10
152.99093655589121
 20
117.3634441087613
 30
0.0
 11
146.99093655589121
 21
117.3634441087613
 31
0.0
  0
LINE
  5
BA
  8
0
 10
129.99093655589121
 20
116.3634441087613
 30
0.0
 11
153.99093655589121
 21
116.3634441087613
 31
0.0
  0
LINE
  5
BB
  8
0
 10
146.99093655589121
 20
117.3634441087613
 30
0.0
 11
130.99093655589121
 21
117.3634441087613
 31
0.0
  0
LINE
  5
BC
  8
0
 10
77.652567975830834
 20
115.5634441087613
 30
0.0
 11
72.652567975830834
 21
115.5634441087613
 31
0.0
  0
LINE
  5
BD
  8
0
 10
77.652567975830834
 20
116.5634441087613
 30
0.0
 11
77.652567975830834
 21
115.5634441087613
 31
0.0
  0
LINE
  5
BE
  8
0
 10
57.652567975830827
 20
115.5634441087613
 30
0.0
 11
62.652567975830827
 21
115.5634441087613
 31
0.0
  0
LINE
  5
BF
  8
0
 10
57.652567975830827
 20
116.5634441087613
 30
0.0
 11
57.652567975830827
 21
115.5634441087613
 31
0.0
  0
LINE
  5
C0
  8
0
 10
55.652567975830827
 20
112.5634441087613
 30
0.0
 11
79.652567975830834
 21
112.5634441087613
 31
0.0
  0
LINE
  5
C1
  8
0
 10
80.152567975830834
 20
98.063444108761317
 30
0.0
 11
80.152567975830834
 21
112.0634441087613
 31
0.0
  0
LINE
  5
C2
  8
0
 10
55.652567975830827
 20
97.563444108761317
 30
0.0
 11
79.652567975830834
 21
97.563444108761317
 31
0.0
  0
LINE
  5
C3
  8
0
 10
55.152567975830827
 20
112.0634441087613
 30
0.0
 11
55.152567975830827
 21
98.063444108761317
 31
0.0
  0
LINE
  5
C4
  8
0
 10
72.652567975830834
 20
112.5634441087613
 30
0.0
 11
72.652567975830834
 21
116.5634441087613
 31
0.0
  0
LINE
  5
C5
  8
0
 10
62.652567975830827
 20
116.5634441087613
 30
0.0
 11
62.652567975830827
 21
112.5634441087613
 31
0.0
  0
LINE
  5
C6
  8
0
 10
77.652567975830834
 20
116.5634441087613
 30
0.0
 11
77.652567975830834
 21
117.5634441087613
 31
0.0
  0
LINE
  5
C7
  8
0
 10
57.652567975830827
 20
116.5634441087613
 30
0.0
 11
77.652567975830834
 21
116.5634441087613
 31
0.0
  0
LINE
  5
C8
  8
0
 10
57.652567975830827
 20
117.5634441087613
 30
0.0
 11
57.652567975830827
 21
116.5634441087613
 31
0.0
  0
LINE
  5
C9
  8
0
 10
152.29093655589131
 20
122.96344410876129
 30
0.0
 11
151.3532365558913
 21
122.96344410876129
 31
0.0
  0
LINE
  5
CA
  8
0
 10
151.3532365558913
 20
122.96344410876129
 30
0.0
 11
151.3532365558913
 21
121.96344410876129
 31
0.0
  0
LINE
  5
CB
  8
0
 10
144.9993436411342
 20
128.46344410876131
 30
0.0
 11
151.3532365558913
 21
122.96344410876129
 31
0.0
  0
LINE
  5
CC
  8
0
 10
140.58252947064821
 20
128.46344410876131
 30
0.0
 11
134.2286365558912
 21
122.96344410876129
 31
0.0
  0
LINE
  5
CD
  8
0
 10
134.2286365558912
 20
122.96344410876129
 30
0.0
 11
134.2286365558912
 21
121.96344410876129
 31
0.0
  0
LINE
  5
CE
  8
0
 10
133.29093655589119
 20
122.96344410876129
 30
0.0
 11
134.2286365558912
 21
122.96344410876129
 31
0.0
  0
LINE
  5
CF
  8
0
 10
71.652567975830834
 20
122.8262217087613
 30
0.0
 11
63.652567975830827
 21
122.8262217087613
 31
0.0
  0
ARC
  5
D0
  8
0
 10
67.652567975830834
 20
193.97583081571
 30
0.0
 40
5.0
 50
216.86989764584399
 51
323.13010235415589
  0
ARC
  5
D1
  8
0
 10
67.652567975830834
 20
192.37583081571
 30
0.0
 40
5.0
 50
36.869897645844119
 51
143.13010235415601
  0
LINE
  5
D2
  8
0
 10
63.652567975830827
 20
201.73808856400859
 30
0.0
 11
63.652567975830827
 21
184.61357306741141
 31
0.0
  0
ARC
  5
D3
  8
0
 10
67.652567975830834
 20
192.67583081570999
 30
0.0
 40
9.0
 50
243.61220003875701
 51
296.3877999612431
  0
ARC
  5
D4
  8
0
 10
67.652567975830834
 20
193.67583081570999
 30
0.0
 40
9.0
 50
63.612200038757003
 51
116.387799961243
  0
LINE
  5
D5
  8
0
 10
138.58252947064821
 20
128.46344410876131
 30
0.0
 11
146.9993436411342
 21
128.46344410876131
 31
0.0
  0
LINE
  5
D6
  8
0
 10
133.29093655589119
 20
121.96344410876129
 30
0.0
 11
133.29093655589119
 21
122.96344410876129
 31
0.0
  0
LINE
  5
D7
  8
0
 10
133.29093655589119
 20
122.96344410876129
 30
0.0
 11
138.58252947064821
 21
128.46344410876131
 31
0.0
  0
LINE
  5
D8
  8
0
 10
152.29093655589131
 20
122.96344410876129
 30
0.0
 11
146.9993436411342
 21
128.46344410876131
 31
0.0
  0
LINE
  5
D9
  8
0
 10
152.29093655589131
 20
121.96344410876129
 30
0.0
 11
152.29093655589131
 21
122.96344410876129
 31
0.0
  0
LINE
  5
DA
  8
0
 10
146.99093655589121
 20
121.96344410876129
 30
0.0
 11
146.99093655589121
 21
117.3634441087613
 31
0.0
  0
LINE
  5
DB
  8
0
 10
152.29093655589131
 20
121.96344410876129
 30
0.0
 11
146.99093655589121
 21
121.96344410876129
 31
0.0
  0
LINE
  5
DC
  8
0
 10
138.5909365558912
 20
121.96344410876129
 30
0.0
 11
133.29093655589119
 21
121.96344410876129
 31
0.0
  0
LINE
  5
DD
  8
0
 10
138.5909365558912
 20
117.3634441087613
 30
0.0
 11
138.5909365558912
 21
121.96344410876129
 31
0.0
  0
LINE
  5
DE
  8
0
 10
71.652567975830834
 20
122.0634441087613
 30
0.0
 11
63.652567975830827
 21
122.0634441087613
 31
0.0
  0
LINE
  5
DF
  8
0
 10
71.652567975830834
 20
128.5634441087613
 30
0.0
 11
71.652567975830834
 21
117.5634441087613
 31
0.0
  0
LINE
  5
E0
  8
0
 10
63.652567975830827
 20
128.5634441087613
 30
0.0
 11
71.652567975830834
 21
128.5634441087613
 31
0.0
  0
LINE
  5
E1
  8
0
 10
63.652567975830827
 20
117.5634441087613
 30
0.0
 11
63.652567975830827
 21
128.5634441087613
 31
0.0
  0
LINE
  5
E2
  8
0
 10
57.652567975830827
 20
117.5634441087613
 30
0.0
 11
77.652567975830834
 21
117.5634441087613
 31
0.0
  0
LINE
  5
E3
  8
0
 10
341.54029606642428
 20
98.237064175962132
 30
0.0
 11
345.58412419391891
 21
113.9513581661605
 31
0.0
  0
LINE
  5
E4
  8
0
 10
342.21583439410921
 20
112.1289952289691
 30
0.0
 11
340.05034022429493
 21
98.409253186098582
 31
0.0
  0
LINE
  5
E5
  8
0
 10
334.87552870090627
 20
114.14075722099599
 30
0.0
 11
341.36022648928798
 21
113.2761308492117
 31
0.0
  0
LINE
  5
E6
  8
0
 10
334.87552870090622
 20
117.14075722099589
 30
0.0
 11
344.34021157560852
 21
115.81058278959181
 31
0.0
  0
ARC
  5
E7
  8
0
 10
341.22806276919698
 20
112.28490294852909
 30
0.0
 40
1.0
 50
351.0305552050736
 51
82.405356631408495
  0
ARC
  5
E8
  8
0
 10
344.1314519241684
 20
114.3251806864795
 30
0.0
 40
1.5
 50
345.56893439566409
 51
81.999999999999929
  0
LINE
  5
E9
  8
0
 10
260.43716012084599
 20
117.14075722099589
 30
0.0
 11
260.43716012084599
 21
112.12899895094171
 31
0.0
  0
LINE
  5
EA
  8
0
 10
260.43716012084599
 20
114.8257750365796
 30
0.0
 11
250.4371601208461
 21
114.8257750365796
 31
0.0
  0
LINE
  5
EB
  8
0
 10
260.43716012084599
 20
116.14075722099589
 30
0.0
 11
265.93716012084599
 21
116.14075722099589
 31
0.0
  0
LINE
  5
EC
  8
0
 10
244.4716643975799
 20
112.0590904658028
 30
0.0
 11
249.15867005468129
 21
112.0590904658028
 31
0.0
  0
LINE
  5
ED
  8
0
 10
266.40265584411219
 20
112.0590904658028
 30
0.0
 11
261.71565018701062
 21
112.0590904658028
 31
0.0
  0
LINE
  5
F1
  8
1
 10
67.652567975830834
 20
209.3674237304671
 30
0.0
 11
67.652567975830834
 21
175.36742373046701
 31
0.0
  0
LINE
  5
F2
  8
1
 10
67.652567975830834
 20
133.5634441087613
 30
0.0
 11
67.652567975830834
 21
92.563444108761317
 31
0.0
  0
LINE
  5
F3
  8
1
 10
255.43716012084599
 20
176.0531439279446
 30
0.0
 11
255.43716012084599
 21
206.7655135390533
 31
0.0
  0
LINE
  5
F4
  8
1
 10
255.43716012084599
 20
92.563444108761317
 30
0.0
 11
255.43716012084599
 21
122.14075722099599
 31
0.0
  0
LINE
  5
F5
  8
1
 10
58.652567975830152
 20
193.17583081570999
 30
0.0
 11
76.652567975830465
 21
193.17583081570999
 31
0.0
  0
LINE
  5
F6
  8
1
 10
142.79093655589131
 20
133.46344410876131
 30
0.0
 11
142.79093655589131
 21
107.3634441087615
 31
0.0
  0
TEXT
  5
219
  8
0
 62
     3
 10
0.0
 20
0.0
 30
0.0
 40
10.0
  1
MBC2524
  7
STANDARD1
  0
ENDSEC
  0
EOF
