  0
SECTION
  2
HEADER
  9
$ACADVER
  1
AC1009
  9
$INSBASE
 10
0.0
 20
0.0
 30
0.0
  9
$EXTMIN
 10
0.0
 20
-2.960436562073669
 30
0.0
  9
$EXTMAX
 10
687.8499999999998
 20
170.49999480000011
 30
0.0
  9
$LIMMIN
 10
0.0
 20
0.0
  9
$LIMMAX
 10
12.0
 20
9.0
  9
$ORTHOMODE
 70
     1
  9
$REGENMODE
 70
     1
  9
$FILLMODE
 70
     1
  9
$QTEXTMODE
 70
     0
  9
$MIRRTEXT
 70
     0
  9
$DRAGMODE
 70
     2
  9
$LTSCALE
 40
1.0
  9
$OSMODE
 70
  3071
  9
$ATTMODE
 70
     1
  9
$TEXTSIZE
 40
0.2
  9
$TRACEWID
 40
0.05
  9
$TEXTSTYLE
  7
STANDARD
  9
$CLAYER
  8
0
  9
$CELTYPE
  6
BYLAYER
  9
$CECOLOR
 62
   256
  9
$DIMSCALE
 40
1.0
  9
$DIMASZ
 40
1.0
  9
$DIMEXO
 40
2.54
  9
$DIMDLI
 40
0.38
  9
$DIMRND
 40
0.0
  9
$DIMDLE
 40
0.0
  9
$DIMEXE
 40
2.54
  9
$DIMTP
 40
0.0
  9
$DIMTM
 40
0.0
  9
$DIMTXT
 40
3.2000000000000002
  9
$DIMCEN
 40
0.09
  9
$DIMTSZ
 40
0.0
  9
$DIMTOL
 70
     0
  9
$DIMLIM
 70
     0
  9
$DIMTIH
 70
     0
  9
$DIMTOH
 70
     0
  9
$DIMSE1
 70
     0
  9
$DIMSE2
 70
     0
  9
$DIMTAD
 70
     1
  9
$DIMZIN
 70
     8
  9
$DIMBLK
  1

  9
$DIMASO
 70
     1
  9
$DIMSHO
 70
     0
  9
$DIMPOST
  1

  9
$DIMAPOST
  1

  9
$DIMALT
 70
     0
  9
$DIMALTD
 70
     2
  9
$DIMALTF
 40
25.399999999999999
  9
$DIMLFAC
 40
1.0
  9
$DIMTOFL
 70
     0
  9
$DIMTVP
 40
1.0
  9
$DIMTIX
 70
     0
  9
$DIMSOXD
 70
     0
  9
$DIMSAH
 70
     0
  9
$DIMBLK1
  1

  9
$DIMBLK2
  1

  9
$DIMSTYLE
  2
STANDARD
  9
$DIMCLRD
 70
     0
  9
$DIMCLRE
 70
     0
  9
$DIMCLRT
 70
     0
  9
$DIMTFAC
 40
1.0
  9
$DIMGAP
 40
1.6000000000000001
  9
$LUNITS
 70
     2
  9
$LUPREC
 70
     4
  9
$SKETCHINC
 40
0.1
  9
$FILLETRAD
 40
0.8
  9
$AUNITS
 70
     0
  9
$AUPREC
 70
     0
  9
$MENU
  1
.
  9
$ELEVATION
 40
0.0
  9
$PELEVATION
 40
0.0
  9
$THICKNESS
 40
0.0
  9
$LIMCHECK
 70
     0
  9
$BLIPMODE
 70
     0
  9
$CHAMFERA
 40
0.5
  9
$CHAMFERB
 40
0.5
  9
$SKPOLY
 70
     0
  9
$TDCREATE
 40
2453173.4709223039
  9
$TDUPDATE
 40
2456597.6348097338
  9
$TDINDWG
 40
1.2243208565000001
  9
$TDUSRTIMER
 40
1.2243208565000001
  9
$USRTIMER
 70
     1
  9
$ANGBASE
 50
0.0
  9
$ANGDIR
 70
     0
  9
$PDMODE
 70
     0
  9
$PDSIZE
 40
0.0
  9
$PLINEWID
 40
0.0
  9
$COORDS
 70
     1
  9
$SPLFRAME
 70
     0
  9
$SPLINETYPE
 70
     6
  9
$SPLINESEGS
 70
     8
  9
$ATTDIA
 70
     0
  9
$ATTREQ
 70
     1
  9
$HANDLING
 70
     1
  9
$HANDSEED
  5
3DD
  9
$SURFTAB1
 70
     6
  9
$SURFTAB2
 70
     6
  9
$SURFTYPE
 70
     6
  9
$SURFU
 70
     6
  9
$SURFV
 70
     6
  9
$UCSNAME
  2

  9
$UCSORG
 10
0.0
 20
0.0
 30
0.0
  9
$UCSXDIR
 10
1.0
 20
0.0
 30
0.0
  9
$UCSYDIR
 10
0.0
 20
1.0
 30
0.0
  9
$PUCSNAME
  2

  9
$PUCSORG
 10
0.0
 20
0.0
 30
0.0
  9
$PUCSXDIR
 10
1.0
 20
0.0
 30
0.0
  9
$PUCSYDIR
 10
0.0
 20
1.0
 30
0.0
  9
$USERI1
 70
     0
  9
$USERI2
 70
     0
  9
$USERI3
 70
     0
  9
$USERI4
 70
     0
  9
$USERI5
 70
     0
  9
$USERR1
 40
0.0
  9
$USERR2
 40
0.0
  9
$USERR3
 40
0.0
  9
$USERR4
 40
0.0
  9
$USERR5
 40
0.0
  9
$WORLDVIEW
 70
     1
  9
$SHADEDGE
 70
     3
  9
$SHADEDIF
 70
    70
  9
$TILEMODE
 70
     1
  9
$MAXACTVP
 70
    64
  9
$PLIMCHECK
 70
     0
  9
$PEXTMIN
 10
1.0000000000000000E+020
 20
1.0000000000000000E+020
 30
1.0000000000000000E+020
  9
$PEXTMAX
 10
-1.0000000000000000E+020
 20
-1.0000000000000000E+020
 30
-1.0000000000000000E+020
  9
$PLIMMIN
 10
0.0
 20
0.0
  9
$PLIMMAX
 10
12.0
 20
9.0
  9
$UNITMODE
 70
     0
  9
$VISRETAIN
 70
     1
  9
$PLINEGEN
 70
     0
  9
$PSLTSCALE
 70
     1
  0
ENDSEC
  0
SECTION
  2
TABLES
  0
TABLE
  2
VPORT
 70
     1
  0
VPORT
  2
*ACTIVE
 70
     0
 10
0.0
 20
0.0
 11
1.0
 21
1.0
 12
343.92500160152571
 22
84.40624379835856
 13
0.0
 23
0.0
 14
1.0
 24
1.0
 15
0.0
 25
0.0
 16
0.0
 26
0.0
 36
1.0
 17
0.0
 27
0.0
 37
0.0
 40
299.9278873284855
 41
2.304913294797688
 42
50.0
 43
0.0
 44
0.0
 50
0.0
 51
0.0
 71
     0
 72
   100
 73
     1
 74
     1
 75
     0
 76
     0
 77
     0
 78
     0
  0
ENDTAB
  0
TABLE
  2
LTYPE
 70
     4
  0
LTYPE
  2
CONTINUOUS
 70
     0
  3
Solid line
 72
    65
 73
     0
 40
0.0
  0
LTYPE
  2
CENTER
 70
     0
  3
Center ____ _ ____ _ ____ _ ____ _ ____ _ ____
 72
    65
 73
     4
 40
12.0
 49
7.5
 49
-1.5
 49
1.5
 49
-1.5
  0
LTYPE
  2
PHANTOM
 70
     0
  3
Phantom ______  __  __  ______  __  __  ______
 72
    65
 73
     6
 40
15.0
 49
7.5
 49
-1.5
 49
1.5
 49
-1.5
 49
1.5
 49
-1.5
  0
LTYPE
  2
PHANTOM2
 70
     0
  3
___ _ _ ___ _ _ ___ _ _ ___ _ _
 72
    65
 73
     6
 40
1.25
 49
0.625
 49
-0.125
 49
0.125
 49
-0.125
 49
0.125
 49
-0.125
  0
ENDTAB
  0
TABLE
  2
LAYER
 70
     4
  0
LAYER
  2
0
 70
     0
 62
     7
  6
CONTINUOUS
  0
LAYER
  2
1
 70
     0
 62
     1
  6
CENTER
  0
LAYER
  2
5
 70
     0
 62
     3
  6
PHANTOM
  0
LAYER
  2
DEFPOINTS
 70
     0
 62
     7
  6
CONTINUOUS
  0
ENDTAB
  0
TABLE
  2
STYLE
 70
     2
  0
STYLE
  2
STANDARD
 70
     0
 40
0.0
 41
1.0
 50
0.0
 71
     0
 42
0.2
  3
simplex.shx
  4
bigfont.shx
  0
STYLE
  2
STANDARD1
 70
     0
 40
0.0
 41
1.0
 50
0.0
 71
     0
 42
3.0
  3
txt
  4

  0
ENDTAB
  0
TABLE
  2
VIEW
 70
     0
  0
ENDTAB
  0
TABLE
  2
UCS
 70
     0
  0
ENDTAB
  0
TABLE
  2
APPID
 70
     6
  0
APPID
  2
ACAD
 70
     0
  0
APPID
  2
ACAD_EXEMPT_FROM_CAD_STANDARDS
 70
     0
  0
APPID
  2
ACAD_DSTYLE_DIMJAG
 70
     0
  0
APPID
  2
ACAD_DSTYLE_DIMTALN
 70
     0
  0
APPID
  2
ACAD_MLEADERVER
 70
     0
  0
APPID
  2
ACAD_NAV_VCDISPLAY
 70
     0
  0
ENDTAB
  0
TABLE
  2
DIMSTYLE
 70
     1
  0
DIMSTYLE
  2
STANDARD
 70
     0
  3

  4

  5

  6

  7

 40
1.0
 41
0.18
 42
0.0625
 43
0.38
 44
0.18
 45
0.0
 46
0.0
 47
0.0
 48
0.0
140
0.18
141
0.09
142
0.0
143
25.399999999999999
144
1.0
145
0.0
146
1.0
147
0.09
 71
     0
 72
     0
 73
     1
 74
     1
 75
     0
 76
     0
 77
     0
 78
     0
170
     0
171
     2
172
     0
173
     0
174
     0
175
     0
176
     0
177
     0
178
     0
  0
ENDTAB
  0
ENDSEC
  0
SECTION
  2
BLOCKS
  0
BLOCK
  8
0
  2
$MODEL_SPACE
 70
     0
 10
0.0
 20
0.0
 30
0.0
  3
$MODEL_SPACE
  1

  0
ENDBLK
  5
9
  8
0
  0
BLOCK
 67
     1
  8
0
  2
$PAPER_SPACE
 70
     0
 10
0.0
 20
0.0
 30
0.0
  3
$PAPER_SPACE
  1

  0
ENDBLK
  5
E
 67
     1
  8
0
  0
ENDSEC
  0
SECTION
  2
ENTITIES
  0
LINE
  5
28
  8
5
 10
83.402247186947079
 20
75.479695680893144
 30
0.0
 11
82.936158185072884
 21
75.463419494296033
 31
0.0
  0
ARC
  5
2B
  8
5
 10
83.332448193542078
 20
77.478477334931327
 30
0.0
 40
2.0
 50
272.0000199999987
 51
23.99999999999995
  0
LINE
  5
2C
  8
5
 10
78.953530752123328
 20
66.300001499999965
 30
0.0
 11
78.666697226252765
 21
74.513838996860031
 31
0.0
  0
LINE
  5
2D
  8
5
 10
82.455664157169181
 20
66.300001499999979
 30
0.0
 11
82.164565120819617
 21
74.635987235318765
 31
0.0
  0
ARC
  5
2E
  8
5
 10
74.694354548682824
 20
99.440382813683485
 30
0.0
 40
1.1500013
 50
24.000193000000699
 51
181.99997999999971
  0
LINE
  5
2F
  8
5
 10
74.361702076761986
 20
76.014510001065076
 30
0.0
 11
73.54505409821995
 21
99.400248357576103
 31
0.0
  0
LINE
  5
30
  8
5
 10
75.240846818244236
 20
75.194693299887803
 30
0.0
 11
77.839264967275497
 21
75.285432061113283
 31
0.0
  0
ARC
  5
31
  8
5
 10
75.211182280946602
 20
76.044174503463196
 30
0.0
 40
0.8499984699999998
 50
181.99997999999971
 51
272.0000199999987
  0
LINE
  5
41
  8
0
 10
174.84999999999971
 20
75.400001500000002
 30
0.0
 11
682.8499999999998
 21
75.400001500000045
 31
0.0
  0
LINE
  5
4E
  8
0
 10
174.8499999999998
 20
100.79999479999999
 30
0.0
 11
174.8499999999998
 21
50.000007499999981
 31
0.0
  0
LINE
  5
4F
  8
0
 10
174.8499999999998
 20
100.79999479999989
 30
0.0
 11
682.8499999999998
 21
100.79999479999989
 31
0.0
  0
LINE
  5
50
  8
0
 10
174.84999999999991
 20
50.000007499999981
 30
0.0
 11
682.84999999999991
 21
50.000007499999981
 31
0.0
  0
LINE
  5
52
  8
0
 10
682.8499999999998
 20
123.01625698694789
 30
0.0
 11
174.8499999999998
 21
123.01625698694789
 31
0.0
  0
LINE
  5
53
  8
0
 10
682.8499999999998
 20
168.28373261305271
 30
0.0
 11
174.84999999999971
 21
168.28373261305259
 31
0.0
  0
LINE
  5
5D
  8
0
 10
682.8499999999998
 20
120.79999480000011
 30
0.0
 11
682.8499999999998
 21
170.49999480000011
 31
0.0
  0
LINE
  5
5E
  8
0
 10
682.8499999999998
 20
120.79999480000011
 30
0.0
 11
174.8499999999998
 21
120.79999480000011
 31
0.0
  0
LINE
  5
5F
  8
0
 10
682.8499999999998
 20
170.4999948
 30
0.0
 11
174.8499999999998
 21
170.49999480000011
 31
0.0
  0
LINE
  5
96
  8
1
 10
687.8499999999998
 20
145.64999480000009
 30
0.0
 11
169.8499999999998
 21
145.64999480000009
 31
0.0
  0
LINE
  5
98
  8
1
 10
100.0
 20
45.000007499999981
 30
0.0
 11
100.0
 21
105.79999479999989
 31
0.0
  0
LINE
  5
99
  8
0
 10
80.200000000000074
 20
50.000007499999988
 30
0.0
 11
119.7999999999999
 21
50.000007500000009
 31
0.0
  0
LINE
  5
9B
  8
0
 10
84.500000000000014
 20
56.400001499999981
 30
0.0
 11
115.5
 21
56.400001500000023
 31
0.0
  0
LINE
  5
B4
  8
5
 10
75.744931436973729
 20
99.908134020833927
 30
0.0
 11
85.159539108827275
 21
78.291950621082933
 31
0.0
  0
ARC
  5
CC
  8
5
 10
77.867184564637483
 20
74.485919399498016
 30
0.0
 40
0.8
 50
2.000000000000187
 51
91.999999999999986
  0
ARC
  5
CD
  8
0
 10
80.200000000000074
 20
50.800007499999992
 30
0.0
 40
0.8
 50
180.0000000000002
 51
270.00000000000011
  0
ARC
  5
CE
  8
0
 10
84.500000000000014
 20
58.000001499999982
 30
0.0
 40
1.6000000000000001
 50
180.0
 51
270.00000000000011
  0
ARC
  5
CF
  8
5
 10
82.964077782434885
 20
74.663906832680766
 30
0.0
 40
0.8
 50
91.999999999999986
 51
182.0
  0
LINE
  5
DD
  8
0
 10
124.84999999999989
 20
76.250000499999999
 30
0.0
 11
124.84999999999989
 21
99.649993499999994
 31
0.0
  0
ARC
  5
DE
  8
0
 10
123.69999899999991
 20
99.649993499999994
 30
0.0
 40
1.1500013
 50
0.0000200000003844
 51
157.99980699999921
  0
LINE
  5
DF
  8
0
 10
122.63373781305209
 20
100.0807951611046
 30
0.0
 11
113.97925918709841
 21
78.149214686831826
 31
0.0
  0
ARC
  5
E0
  8
0
 10
116.3
 20
74.600001499999991
 30
0.0
 40
0.8
 50
0.0
 51
90.0
  0
ARC
  5
E1
  8
0
 10
121.40000000000001
 20
74.600001500000005
 30
0.0
 40
0.8
 50
90.0
 51
179.9999999999998
  0
ARC
  5
E2
  8
0
 10
124.0000019999999
 20
76.250000499999999
 30
0.0
 40
0.8499984699999998
 50
269.99998000000119
 51
0.0000200000003844
  0
LINE
  5
E3
  8
0
 10
124.0000019999999
 20
75.400001500000002
 30
0.0
 11
121.40000000000001
 21
75.400001500000002
 31
0.0
  0
LINE
  5
E4
  8
0
 10
117.09999999999999
 20
58.000001499999982
 30
0.0
 11
117.09999999999999
 21
74.600001499999991
 31
0.0
  0
LINE
  5
E5
  8
0
 10
120.59999999999989
 20
50.800007499999992
 30
0.0
 11
120.59999999999999
 21
74.600001500000005
 31
0.0
  0
ARC
  5
E6
  8
0
 10
115.83362689623191
 20
77.400001500000002
 30
0.0
 40
2.0
 50
158.0
 51
269.99998000000119
  0
LINE
  5
E7
  8
0
 10
115.83362689623191
 20
75.400001500000002
 30
0.0
 11
116.3
 21
75.400001499999988
 31
0.0
  0
ARC
  5
E8
  8
0
 10
115.5
 20
58.000001499999982
 30
0.0
 40
1.6000000000000001
 50
269.99999999999989
 51
0.0
  0
ARC
  5
E9
  8
0
 10
119.7999999999999
 20
50.800007499999992
 30
0.0
 40
0.8
 50
269.99999999999989
 51
359.99999999999977
  0
ARC
  5
EE
  8
5
 10
117.0359222175651
 20
74.663906832680766
 30
0.0
 40
0.8
 50
358.0
 51
88.000000000000014
  0
ARC
  5
EF
  8
5
 10
122.1328154353625
 20
74.485919399498016
 30
0.0
 40
0.8
 50
88.000000000000014
 51
177.9999999999998
  0
LINE
  5
F0
  8
5
 10
124.2550685630263
 20
99.908134020833927
 30
0.0
 11
114.8404608911727
 21
78.291950621082933
 31
0.0
  0
ARC
  5
F1
  8
5
 10
124.7888177190534
 20
76.044174503463196
 30
0.0
 40
0.8499984699999998
 50
267.99998000000119
 51
358.00002000000029
  0
LINE
  5
F2
  8
5
 10
124.75915318175571
 20
75.194693299887803
 30
0.0
 11
122.1607350327245
 21
75.285432061113283
 31
0.0
  0
LINE
  5
F3
  8
5
 10
125.638297923238
 20
76.014510001065076
 30
0.0
 11
126.45494590177999
 21
99.400248357576103
 31
0.0
  0
LINE
  5
F4
  8
5
 10
117.5443358428308
 20
66.300001499999979
 30
0.0
 11
117.8354348791804
 21
74.635987235318765
 31
0.0
  0
LINE
  5
F5
  8
5
 10
121.0464692478766
 20
66.300001499999965
 30
0.0
 11
121.33330277374721
 21
74.513838996860031
 31
0.0
  0
ARC
  5
F6
  8
5
 10
116.66755180645789
 20
77.478477334931327
 30
0.0
 40
2.0
 50
156.0
 51
267.99998000000119
  0
LINE
  5
F7
  8
5
 10
116.59775281305291
 20
75.479695680893144
 30
0.0
 11
117.0638418149271
 21
75.463419494296033
 31
0.0
  0
ARC
  5
F8
  8
5
 10
125.3056454513171
 20
99.440382813683485
 30
0.0
 40
1.1500013
 50
358.00002000000029
 51
155.99980699999929
  0
LINE
  5
F9
  8
0
 10
77.366262186947836
 20
100.0807951611046
 30
0.0
 11
86.020740812901593
 21
78.149214686831826
 31
0.0
  0
ARC
  5
FA
  8
0
 10
76.300001000000094
 20
99.649993499999994
 30
0.0
 40
1.1500013
 50
22.000193000000831
 51
179.9999799999996
  0
LINE
  5
FB
  8
0
 10
75.15000000000002
 20
76.250000499999999
 30
0.0
 11
75.15000000000002
 21
99.649993499999994
 31
0.0
  0
LINE
  5
FC
  8
0
 10
84.166373103768038
 20
75.400001500000002
 30
0.0
 11
83.700000000000017
 21
75.400001499999988
 31
0.0
  0
ARC
  5
FD
  8
0
 10
84.166373103768038
 20
77.400001500000002
 30
0.0
 40
2.0
 50
270.0000199999987
 51
21.999999999999989
  0
LINE
  5
FE
  8
0
 10
79.400000000000091
 20
50.800007499999992
 30
0.0
 11
79.400000000000006
 21
74.600001500000005
 31
0.0
  0
LINE
  5
FF
  8
0
 10
82.90000000000002
 20
58.000001499999982
 30
0.0
 11
82.90000000000002
 21
74.600001499999991
 31
0.0
  0
LINE
  5
100
  8
0
 10
75.999998000000048
 20
75.400001500000002
 30
0.0
 11
78.600000000000009
 21
75.400001500000002
 31
0.0
  0
ARC
  5
101
  8
0
 10
75.999998000000048
 20
76.250000499999999
 30
0.0
 40
0.8499984699999998
 50
179.9999799999996
 51
270.0000199999987
  0
ARC
  5
102
  8
0
 10
78.600000000000009
 20
74.600001500000005
 30
0.0
 40
0.8
 50
0.0000000000002036
 51
90.0
  0
ARC
  5
103
  8
0
 10
83.700000000000017
 20
74.600001499999991
 30
0.0
 40
0.8
 50
90.0
 51
180.0
  0
LINE
  5
1EF
  8
0
 10
682.8499999999998
 20
131.81636790376811
 30
0.0
 11
174.8499999999998
 21
131.81636790376811
 31
0.0
  0
LINE
  5
1F0
  8
0
 10
682.8499999999998
 20
159.48362169623209
 30
0.0
 11
174.84999999999971
 21
159.48362169623209
 31
0.0
  0
LINE
  5
1FA
  8
0
 10
174.8499999999998
 20
120.79999479999999
 30
0.0
 11
174.84999999999971
 21
170.4999948
 31
0.0
  0
LINE
  5
219
  8
0
 10
682.8499999999998
 20
100.79999479999999
 30
0.0
 11
682.84999999999991
 21
50.000007500000038
 31
0.0
  0
TEXT
  5
37B
  8
0
 62
     3
 10
0.0
 20
0.0
 30
0.0
 40
10.0
  1
MBDE16LB
  7
STANDARD1
  0
ENDSEC
  0
EOF
