  0
SECTION
  2
HEADER
  9
$ACADVER
  1
AC1009
  9
$INSBASE
 10
0.0
 20
0.0
 30
0.0
  9
$EXTMIN
 10
0.0
 20
-1.4802182810368341
 30
0.0
  9
$EXTMAX
 10
63.328974236698848
 20
96.103104765632452
 30
0.0
  9
$LIMMIN
 10
0.0
 20
0.0
  9
$LIMMAX
 10
192.5
 20
135.0
  9
$ORTHOMODE
 70
     1
  9
$REGENMODE
 70
     1
  9
$FILLMODE
 70
     1
  9
$QTEXTMODE
 70
     0
  9
$MIRRTEXT
 70
     0
  9
$DRAGMODE
 70
     2
  9
$LTSCALE
 40
5.0
  9
$OSMODE
 70
  3071
  9
$ATTMODE
 70
     1
  9
$TEXTSIZE
 40
0.2
  9
$TRACEWID
 40
0.05
  9
$TEXTSTYLE
  7
STANDARD
  9
$CLAYER
  8
0
  9
$CELTYPE
  6
BYLAYER
  9
$CECOLOR
 62
   256
  9
$DIMSCALE
 40
0.5
  9
$DIMASZ
 40
3.0
  9
$DIMEXO
 40
1.0
  9
$DIMDLI
 40
6.0
  9
$DIMRND
 40
0.0
  9
$DIMDLE
 40
0.0
  9
$DIMEXE
 40
1.0
  9
$DIMTP
 40
495.0
  9
$DIMTM
 40
0.0
  9
$DIMTXT
 40
3.0
  9
$DIMCEN
 40
0.0
  9
$DIMTSZ
 40
0.0
  9
$DIMTOL
 70
     0
  9
$DIMLIM
 70
     0
  9
$DIMTIH
 70
     0
  9
$DIMTOH
 70
     0
  9
$DIMSE1
 70
     0
  9
$DIMSE2
 70
     0
  9
$DIMTAD
 70
     1
  9
$DIMZIN
 70
     0
  9
$DIMBLK
  1

  9
$DIMASO
 70
     0
  9
$DIMSHO
 70
     0
  9
$DIMPOST
  1

  9
$DIMAPOST
  1

  9
$DIMALT
 70
     0
  9
$DIMALTD
 70
     2
  9
$DIMALTF
 40
25.399999999999999
  9
$DIMLFAC
 40
1.0
  9
$DIMTOFL
 70
     1
  9
$DIMTVP
 40
0.0
  9
$DIMTIX
 70
     1
  9
$DIMSOXD
 70
     0
  9
$DIMSAH
 70
     0
  9
$DIMBLK1
  1

  9
$DIMBLK2
  1

  9
$DIMSTYLE
  2
STANDARD
  9
$DIMCLRD
 70
     0
  9
$DIMCLRE
 70
     0
  9
$DIMCLRT
 70
     4
  9
$DIMTFAC
 40
1.0
  9
$DIMGAP
 40
1.0
  9
$LUNITS
 70
     2
  9
$LUPREC
 70
     4
  9
$SKETCHINC
 40
0.1
  9
$FILLETRAD
 40
0.0
  9
$AUNITS
 70
     0
  9
$AUPREC
 70
     0
  9
$MENU
  1
E:\r13\win\SUPPORT\ACAD
  9
$ELEVATION
 40
0.0
  9
$PELEVATION
 40
0.0
  9
$THICKNESS
 40
0.0
  9
$LIMCHECK
 70
     0
  9
$BLIPMODE
 70
     0
  9
$CHAMFERA
 40
0.5
  9
$CHAMFERB
 40
0.5
  9
$SKPOLY
 70
     0
  9
$TDCREATE
 40
2450647.4165519681
  9
$TDUPDATE
 40
2456597.6350361458
  9
$TDINDWG
 40
0.0101811921
  9
$TDUSRTIMER
 40
0.0101811921
  9
$USRTIMER
 70
     1
  9
$ANGBASE
 50
0.0
  9
$ANGDIR
 70
     0
  9
$PDMODE
 70
     0
  9
$PDSIZE
 40
0.0
  9
$PLINEWID
 40
0.0
  9
$COORDS
 70
     1
  9
$SPLFRAME
 70
     0
  9
$SPLINETYPE
 70
     6
  9
$SPLINESEGS
 70
     8
  9
$ATTDIA
 70
     0
  9
$ATTREQ
 70
     1
  9
$HANDLING
 70
     1
  9
$HANDSEED
  5
1059
  9
$SURFTAB1
 70
     6
  9
$SURFTAB2
 70
     6
  9
$SURFTYPE
 70
     6
  9
$SURFU
 70
     6
  9
$SURFV
 70
     6
  9
$UCSNAME
  2

  9
$UCSORG
 10
0.0
 20
0.0
 30
0.0
  9
$UCSXDIR
 10
1.0
 20
0.0
 30
0.0
  9
$UCSYDIR
 10
0.0
 20
1.0
 30
0.0
  9
$PUCSNAME
  2

  9
$PUCSORG
 10
0.0
 20
0.0
 30
0.0
  9
$PUCSXDIR
 10
1.0
 20
0.0
 30
0.0
  9
$PUCSYDIR
 10
0.0
 20
1.0
 30
0.0
  9
$USERI1
 70
     3
  9
$USERI2
 70
     1
  9
$USERI3
 70
     0
  9
$USERI4
 70
     0
  9
$USERI5
 70
     0
  9
$USERR1
 40
0.5
  9
$USERR2
 40
3.0
  9
$USERR3
 40
3.0
  9
$USERR4
 40
3.0
  9
$USERR5
 40
10.0
  9
$WORLDVIEW
 70
     1
  9
$SHADEDGE
 70
     3
  9
$SHADEDIF
 70
    70
  9
$TILEMODE
 70
     1
  9
$MAXACTVP
 70
    16
  9
$PLIMCHECK
 70
     0
  9
$PEXTMIN
 10
1.0000000000000000E+020
 20
1.0000000000000000E+020
 30
1.0000000000000000E+020
  9
$PEXTMAX
 10
-1.0000000000000000E+020
 20
-1.0000000000000000E+020
 30
-1.0000000000000000E+020
  9
$PLIMMIN
 10
0.0
 20
0.0
  9
$PLIMMAX
 10
12.0
 20
9.0
  9
$UNITMODE
 70
     0
  9
$VISRETAIN
 70
     0
  9
$PLINEGEN
 70
     0
  9
$PSLTSCALE
 70
     0
  0
ENDSEC
  0
SECTION
  2
TABLES
  0
TABLE
  2
VPORT
 70
     1
  0
VPORT
  2
*ACTIVE
 70
     0
 10
0.0
 20
0.0
 11
1.0
 21
1.0
 12
96.247062907201553
 22
67.05183146954721
 13
0.0
 23
0.0
 14
2.5
 24
2.5
 15
10.0
 25
10.0
 16
0.0
 26
0.0
 36
1.0
 17
0.0
 27
0.0
 37
0.0
 40
138.6470298934976
 41
2.304913294797688
 42
50.0
 43
0.0
 44
0.0
 50
0.0
 51
0.0
 71
     0
 72
   100
 73
     1
 74
     0
 75
     0
 76
     0
 77
     0
 78
     0
  0
ENDTAB
  0
TABLE
  2
LTYPE
 70
     3
  0
LTYPE
  2
CONTINUOUS
 70
     0
  3
Solid Line
 72
    65
 73
     0
 40
0.0
  0
LTYPE
  2
CENTER
 70
     0
  3
____ _ ____ _ ____ _ ____ _ ____ _ ____ _ ____
 72
    65
 73
     4
 40
2.0
 49
1.25
 49
-0.25
 49
0.25
 49
-0.25
  0
LTYPE
  2
PHANTOM2
 70
     0
  3
___ _ _ ___ _ _ ___ _ _ ___ _ _
 72
    65
 73
     6
 40
1.25
 49
0.625
 49
-0.125
 49
0.125
 49
-0.125
 49
0.125
 49
-0.125
  0
ENDTAB
  0
TABLE
  2
LAYER
 70
     3
  0
LAYER
  2
0
 70
     0
 62
     7
  6
CONTINUOUS
  0
LAYER
  2
1
 70
     0
 62
     1
  6
CENTER
  0
LAYER
  2
3
 70
     0
 62
     3
  6
CONTINUOUS
  0
ENDTAB
  0
TABLE
  2
STYLE
 70
     2
  0
STYLE
  2
STANDARD
 70
     0
 40
0.0
 41
1.0
 50
0.0
 71
     0
 42
0.2
  3
SIMPLEX
  4
BIGFONT
  0
STYLE
  2
STANDARD1
 70
     0
 40
0.0
 41
1.0
 50
0.0
 71
     0
 42
3.0
  3
txt
  4

  0
ENDTAB
  0
TABLE
  2
VIEW
 70
     0
  0
ENDTAB
  0
TABLE
  2
UCS
 70
     0
  0
ENDTAB
  0
TABLE
  2
APPID
 70
     3
  0
APPID
  2
ACAD
 70
     0
  0
APPID
  2
ACAD_MLEADERVER
 70
     0
  0
APPID
  2
ACAD_NAV_VCDISPLAY
 70
     0
  0
ENDTAB
  0
TABLE
  2
DIMSTYLE
 70
     1
  0
DIMSTYLE
  2
STANDARD
 70
     0
  3

  4

  5

  6

  7

 40
1.0
 41
0.18
 42
0.0625
 43
0.38
 44
0.18
 45
0.0
 46
0.0
 47
0.0
 48
0.0
140
0.18
141
0.09
142
0.0
143
25.399999999999999
144
1.0
145
0.0
146
1.0
147
0.09
 71
     0
 72
     0
 73
     1
 74
     1
 75
     0
 76
     0
 77
     0
 78
     0
170
     0
171
     2
172
     0
173
     0
174
     0
175
     0
176
     0
177
     0
178
     0
  0
ENDTAB
  0
ENDSEC
  0
SECTION
  2
BLOCKS
  0
BLOCK
  8
0
  2
$MODEL_SPACE
 70
     0
 10
0.0
 20
0.0
 30
0.0
  3
$MODEL_SPACE
  1

  0
ENDBLK
  5
329
  8
0
  0
BLOCK
 67
     1
  8
0
  2
$PAPER_SPACE
 70
     0
 10
0.0
 20
0.0
 30
0.0
  3
$PAPER_SPACE
  1

  0
ENDBLK
  5
327
 67
     1
  8
0
  0
ENDSEC
  0
SECTION
  2
ENTITIES
  0
CIRCLE
  5
ECB
  8
0
 10
50.328974236698862
 20
83.103104765632452
 30
0.0
 40
7.4803847577290981
  0
LINE
  5
EE3
  8
0
 10
53.828974236698848
 20
85.123834765632296
 30
0.0
 11
50.328974236698862
 21
87.144554765632279
 31
0.0
  0
LINE
  5
EE4
  8
0
 10
50.328974236698862
 20
87.144554765632279
 30
0.0
 11
46.828974236698848
 21
85.123834765632296
 31
0.0
  0
LINE
  5
EE5
  8
0
 10
46.828974236698848
 20
85.123834765632296
 30
0.0
 11
46.828974236698848
 21
81.082374765632366
 31
0.0
  0
LINE
  5
EE6
  8
0
 10
46.828974236698848
 20
81.082374765632366
 30
0.0
 11
50.328974236698862
 21
79.061654765632397
 31
0.0
  0
LINE
  5
EE7
  8
0
 10
50.328974236698862
 20
79.061654765632397
 30
0.0
 11
53.828974236698848
 21
81.082374765632366
 31
0.0
  0
LINE
  5
EE8
  8
0
 10
53.828974236698848
 20
81.082374765632366
 30
0.0
 11
53.828974236698848
 21
85.123834765632296
 31
0.0
  0
LINE
  5
EE9
  8
0
 10
42.328974236698627
 20
47.103104765632331
 30
0.0
 11
58.328974236698848
 21
47.103104765632452
 31
0.0
  0
LINE
  5
EEA
  8
0
 10
44.078974236699082
 20
47.103104765632452
 30
0.0
 11
44.078974236699082
 21
44.103104765632338
 31
0.0
  0
LINE
  5
EEB
  8
0
 10
56.578974236699082
 20
47.103104765632452
 30
0.0
 11
56.578974236699082
 21
44.103104765632217
 31
0.0
  0
LINE
  5
EEC
  8
3
 10
46.140974236698298
 20
43.103104765632452
 30
0.0
 11
45.563623967508533
 21
44.103104765632558
 31
0.0
  0
LINE
  5
EED
  8
3
 10
54.516974236698502
 20
43.103104765632452
 30
0.0
 11
55.094324505888267
 21
44.103104765632452
 31
0.0
  0
LINE
  5
EEE
  8
0
 10
55.3289742366984
 20
43.103104765632452
 30
0.0
 11
45.328974236698393
 21
43.103104765632452
 31
0.0
  0
LINE
  5
EEF
  8
1
 10
50.328974236698862
 20
55.103104765632452
 30
0.0
 11
50.328974236699082
 21
19.103104765632452
 31
0.0
  0
LINE
  5
EF0
  8
1
 10
50.328974236698862
 20
96.103104765632452
 30
0.0
 11
50.328974236698862
 21
70.103104765632452
 31
0.0
  0
LINE
  5
EF1
  8
1
 10
63.328974236698848
 20
83.103104765632452
 30
0.0
 11
37.328974236698862
 21
83.103104765632452
 31
0.0
  0
CIRCLE
  5
EF2
  8
0
 10
50.328974236698862
 20
83.103104765632452
 30
0.0
 40
8.0
  0
LINE
  5
EF3
  8
0
 10
58.328974236698848
 20
49.803104765632611
 30
0.0
 11
58.328974236699082
 21
47.103104765632573
 31
0.0
  0
LINE
  5
EF4
  8
0
 10
56.578974236698862
 20
44.103104765632452
 30
0.0
 11
44.078974236699082
 21
44.103104765632452
 31
0.0
  0
LINE
  5
EF5
  8
0
 10
42.328974236698848
 20
47.103104765632331
 30
0.0
 11
42.328974236698848
 21
49.803104765632384
 31
0.0
  0
LINE
  5
EF6
  8
0
 10
42.84858947896975
 20
50.103104765632558
 30
0.0
 11
57.809358994428408
 21
50.103104765632558
 31
0.0
  0
LINE
  5
EF7
  8
0
 10
42.328974236698848
 20
49.803104765632497
 30
0.0
 11
58.328974236698848
 21
49.803104765632497
 31
0.0
  0
LINE
  5
EF8
  8
0
 10
58.328974236698848
 20
49.803104765632497
 30
0.0
 11
57.809358994428408
 21
50.103104765632558
 31
0.0
  0
LINE
  5
EF9
  8
0
 10
42.328974236698848
 20
49.803104765632497
 30
0.0
 11
42.848589478969977
 21
50.103104765632558
 31
0.0
  0
LINE
  5
EFA
  8
0
 10
53.828974236698848
 20
24.103104765632452
 30
0.0
 11
46.828974236698848
 21
24.103104765632452
 31
0.0
  0
LINE
  5
EFB
  8
0
 10
45.328974236698862
 20
44.103104765632452
 30
0.0
 11
45.328974236698862
 21
25.603104765632452
 31
0.0
  0
LINE
  5
EFC
  8
3
 10
46.140974236698753
 20
43.103104765632452
 30
0.0
 11
46.140974236698753
 21
24.79110476563255
 31
0.0
  0
LINE
  5
EFD
  8
3
 10
54.51697423669895
 20
43.103104765632452
 30
0.0
 11
54.51697423669895
 21
24.79110476563255
 31
0.0
  0
LINE
  5
EFE
  8
0
 10
55.328974236698862
 20
44.103104765632452
 30
0.0
 11
55.328974236698862
 21
25.603104765632452
 31
0.0
  0
LINE
  5
EFF
  8
0
 10
55.328974236698862
 20
25.603104765632452
 30
0.0
 11
53.828974236698848
 21
24.103104765632452
 31
0.0
  0
LINE
  5
F00
  8
0
 10
46.828974236698848
 20
24.103104765632452
 30
0.0
 11
45.328974236698862
 21
25.603104765632452
 31
0.0
  0
LINE
  5
F01
  8
0
 10
55.328974236698862
 20
25.603104765632452
 30
0.0
 11
45.328974236698862
 21
25.603104765632452
 31
0.0
  0
TEXT
  5
FCB
  8
0
 62
     3
 10
0.0
 20
0.0
 30
0.0
 40
5.0
  1
MBFCS10-BT
  7
STANDARD1
  0
ENDSEC
  0
EOF
