  0
SECTION
  2
HEADER
  9
$ACADVER
  1
AC1009
  9
$INSBASE
 10
38.616621731141777
 20
631.6723385830511
 30
0.0
  9
$EXTMIN
 10
-0.0021356739083984
 20
-1.4834122618964609
 30
-0.0000000000112498
  9
$EXTMAX
 10
36.484539237943963
 20
92.001762793047874
 30
0.0000000000002956
  9
$LIMMIN
 10
0.0
 20
0.0
  9
$LIMMAX
 10
12.0
 20
9.0
  9
$ORTHOMODE
 70
     0
  9
$REGENMODE
 70
     1
  9
$FILLMODE
 70
     1
  9
$QTEXTMODE
 70
     0
  9
$MIRRTEXT
 70
     0
  9
$DRAGMODE
 70
     2
  9
$LTSCALE
 40
1.0
  9
$OSMODE
 70
    37
  9
$ATTMODE
 70
     1
  9
$TEXTSIZE
 40
0.2
  9
$TRACEWID
 40
0.05
  9
$TEXTSTYLE
  7
STANDARD
  9
$CLAYER
  8
0
  9
$CELTYPE
  6
BYLAYER
  9
$CECOLOR
 62
   256
  9
$DIMSCALE
 40
1.0
  9
$DIMASZ
 40
1.0
  9
$DIMEXO
 40
2.54
  9
$DIMDLI
 40
0.38
  9
$DIMRND
 40
0.0
  9
$DIMDLE
 40
0.0
  9
$DIMEXE
 40
2.54
  9
$DIMTP
 40
0.0
  9
$DIMTM
 40
0.0
  9
$DIMTXT
 40
3.2000000000000002
  9
$DIMCEN
 40
0.09
  9
$DIMTSZ
 40
0.0
  9
$DIMTOL
 70
     0
  9
$DIMLIM
 70
     0
  9
$DIMTIH
 70
     0
  9
$DIMTOH
 70
     0
  9
$DIMSE1
 70
     0
  9
$DIMSE2
 70
     0
  9
$DIMTAD
 70
     1
  9
$DIMZIN
 70
     0
  9
$DIMBLK
  1

  9
$DIMASO
 70
     1
  9
$DIMSHO
 70
     0
  9
$DIMPOST
  1

  9
$DIMAPOST
  1

  9
$DIMALT
 70
     0
  9
$DIMALTD
 70
     2
  9
$DIMALTF
 40
25.399999999999999
  9
$DIMLFAC
 40
1.0
  9
$DIMTOFL
 70
     0
  9
$DIMTVP
 40
1.0
  9
$DIMTIX
 70
     0
  9
$DIMSOXD
 70
     0
  9
$DIMSAH
 70
     1
  9
$DIMBLK1
  1

  9
$DIMBLK2
  1

  9
$DIMSTYLE
  2
STANDARD
  9
$DIMCLRD
 70
     0
  9
$DIMCLRE
 70
     0
  9
$DIMCLRT
 70
     0
  9
$DIMTFAC
 40
1.0
  9
$DIMGAP
 40
1.6000000000000001
  9
$LUNITS
 70
     2
  9
$LUPREC
 70
     4
  9
$SKETCHINC
 40
0.1
  9
$FILLETRAD
 40
0.5
  9
$AUNITS
 70
     0
  9
$AUPREC
 70
     0
  9
$MENU
  1
.
  9
$ELEVATION
 40
0.0
  9
$PELEVATION
 40
0.0
  9
$THICKNESS
 40
0.0
  9
$LIMCHECK
 70
     0
  9
$BLIPMODE
 70
     0
  9
$CHAMFERA
 40
0.2
  9
$CHAMFERB
 40
0.2
  9
$SKPOLY
 70
     0
  9
$TDCREATE
 40
2453173.4709223039
  9
$TDUPDATE
 40
2456892.6929408559
  9
$TDINDWG
 40
1.9672825231
  9
$TDUSRTIMER
 40
1.9672825231
  9
$USRTIMER
 70
     1
  9
$ANGBASE
 50
0.0
  9
$ANGDIR
 70
     0
  9
$PDMODE
 70
     0
  9
$PDSIZE
 40
0.0
  9
$PLINEWID
 40
0.0
  9
$COORDS
 70
     1
  9
$SPLFRAME
 70
     0
  9
$SPLINETYPE
 70
     6
  9
$SPLINESEGS
 70
     8
  9
$ATTDIA
 70
     0
  9
$ATTREQ
 70
     1
  9
$HANDLING
 70
     1
  9
$HANDSEED
  5
40B
  9
$SURFTAB1
 70
     6
  9
$SURFTAB2
 70
     6
  9
$SURFTYPE
 70
     6
  9
$SURFU
 70
     6
  9
$SURFV
 70
     6
  9
$UCSNAME
  2

  9
$UCSORG
 10
0.0
 20
0.0
 30
0.0
  9
$UCSXDIR
 10
1.0
 20
0.0
 30
0.0
  9
$UCSYDIR
 10
0.0
 20
1.0
 30
0.0
  9
$PUCSNAME
  2

  9
$PUCSORG
 10
0.0
 20
0.0
 30
0.0
  9
$PUCSXDIR
 10
1.0
 20
0.0
 30
0.0
  9
$PUCSYDIR
 10
0.0
 20
1.0
 30
0.0
  9
$USERI1
 70
     0
  9
$USERI2
 70
     0
  9
$USERI3
 70
     0
  9
$USERI4
 70
     0
  9
$USERI5
 70
     0
  9
$USERR1
 40
0.0
  9
$USERR2
 40
0.0
  9
$USERR3
 40
0.0
  9
$USERR4
 40
0.0
  9
$USERR5
 40
0.0
  9
$WORLDVIEW
 70
     1
  9
$SHADEDGE
 70
     3
  9
$SHADEDIF
 70
    70
  9
$TILEMODE
 70
     1
  9
$MAXACTVP
 70
    64
  9
$PLIMCHECK
 70
     0
  9
$PEXTMIN
 10
1.0000000000000000E+020
 20
1.0000000000000000E+020
 30
1.0000000000000000E+020
  9
$PEXTMAX
 10
-1.0000000000000000E+020
 20
-1.0000000000000000E+020
 30
-1.0000000000000000E+020
  9
$PLIMMIN
 10
0.0
 20
0.0
  9
$PLIMMAX
 10
12.0
 20
9.0
  9
$UNITMODE
 70
     0
  9
$VISRETAIN
 70
     1
  9
$PLINEGEN
 70
     0
  9
$PSLTSCALE
 70
     1
  0
ENDSEC
  0
SECTION
  2
TABLES
  0
TABLE
  2
VPORT
 70
     1
  0
VPORT
  2
*ACTIVE
 70
     0
 10
0.0
 20
0.0
 11
1.0
 21
1.0
 12
18.241201782017779
 22
45.259175265575692
 13
0.0
 23
0.0
 14
1.0
 24
1.0
 15
0.0
 25
0.0
 16
0.0
 26
0.0
 36
1.0
 17
0.0
 27
0.0
 37
0.0
 40
94.267477775069366
 41
1.368715083798882
 42
50.0
 43
0.0
 44
0.0
 50
0.0
 51
0.0
 71
     0
 72
   100
 73
     1
 74
     1
 75
     0
 76
     0
 77
     0
 78
     0
  0
ENDTAB
  0
TABLE
  2
LTYPE
 70
     5
  0
LTYPE
  2
CONTINUOUS
 70
     0
  3
Solid line
 72
    65
 73
     0
 40
0.0
  0
LTYPE
  2
CENTER
 70
     0
  3
Center ____ _ ____ _ ____ _ ____ _ ____ _ ____
 72
    65
 73
     4
 40
12.0
 49
7.5
 49
-1.5
 49
1.5
 49
-1.5
  0
LTYPE
  2
HIDDEN
 70
     0
  3
Hidden __ __ __ __ __ __ __ __ __ __ __ __ __ _
 72
    65
 73
     2
 40
4.5
 49
3.0
 49
-1.5
  0
LTYPE
  2
PHANTOM
 70
     0
  3
Phantom ______  __  __  ______  __  __  ______
 72
    65
 73
     6
 40
15.0
 49
7.5
 49
-1.5
 49
1.5
 49
-1.5
 49
1.5
 49
-1.5
  0
LTYPE
  2
PHANTOM2
 70
     0
  3
___ _ _ ___ _ _ ___ _ _ ___ _ _
 72
    65
 73
     6
 40
1.25
 49
0.625
 49
-0.125
 49
0.125
 49
-0.125
 49
0.125
 49
-0.125
  0
ENDTAB
  0
TABLE
  2
LAYER
 70
     5
  0
LAYER
  2
0
 70
     0
 62
     7
  6
CONTINUOUS
  0
LAYER
  2
1
 70
     0
 62
     1
  6
CENTER
  0
LAYER
  2
2
 70
     0
 62
     2
  6
HIDDEN
  0
LAYER
  2
3
 70
     0
 62
     3
  6
CONTINUOUS
  0
LAYER
  2
5
 70
     0
 62
     3
  6
PHANTOM
  0
ENDTAB
  0
TABLE
  2
STYLE
 70
     2
  0
STYLE
  2
STANDARD
 70
     0
 40
0.0
 41
1.0
 50
0.0
 71
     0
 42
0.2
  3
simplex.shx
  4
bigfont.shx
  0
STYLE
  2
STANDARD1
 70
     0
 40
0.0
 41
1.0
 50
0.0
 71
     0
 42
3.0
  3
txt
  4

  0
ENDTAB
  0
TABLE
  2
VIEW
 70
     0
  0
ENDTAB
  0
TABLE
  2
UCS
 70
     0
  0
ENDTAB
  0
TABLE
  2
APPID
 70
     4
  0
APPID
  2
ACAD
 70
     0
  0
APPID
  2
ACAD_MLEADERVER
 70
     0
  0
APPID
  2
ACAD_EXEMPT_FROM_CAD_STANDARDS
 70
     0
  0
APPID
  2
ACAD_NAV_VCDISPLAY
 70
     0
  0
ENDTAB
  0
TABLE
  2
DIMSTYLE
 70
     1
  0
DIMSTYLE
  2
STANDARD
 70
     0
  3

  4

  5

  6

  7

 40
1.0
 41
0.18
 42
0.0625
 43
0.38
 44
0.18
 45
0.0
 46
0.0
 47
0.0
 48
0.0
140
0.18
141
0.09
142
0.0
143
25.399999999999999
144
1.0
145
0.0
146
1.0
147
0.09
 71
     0
 72
     0
 73
     1
 74
     1
 75
     0
 76
     0
 77
     0
 78
     0
170
     0
171
     2
172
     0
173
     0
174
     0
175
     0
176
     0
177
     0
178
     0
  0
ENDTAB
  0
ENDSEC
  0
SECTION
  2
BLOCKS
  0
BLOCK
  8
0
  2
$MODEL_SPACE
 70
     0
 10
0.0
 20
0.0
 30
0.0
  3
$MODEL_SPACE
  1

  0
ENDBLK
  5
9
  8
0
  0
BLOCK
 67
     1
  8
0
  2
$PAPER_SPACE
 70
     0
 10
0.0
 20
0.0
 30
0.0
  3
$PAPER_SPACE
  1

  0
ENDBLK
  5
E
 67
     1
  8
0
  0
ENDSEC
  0
SECTION
  2
ENTITIES
  0
LINE
  5
5D
  8
0
 10
12.89469703241576
 20
56.0
 30
0.0
 11
23.105302967584151
 21
56.000000000005087
 31
0.0
  0
LINE
  5
61
  8
0
 10
23.499999999992891
 20
55.535082724888298
 30
0.0
 11
22.250000000000121
 21
48.0
 31
0.0
  0
LINE
  5
62
  8
0
 10
12.500000000014071
 20
55.535082724846639
 30
0.0
 11
13.75000000000011
 21
48.0
 31
0.0
  0
LINE
  5
63
  8
0
 10
14.00000000000005
 20
48.000000000000107
 30
0.0
 11
14.00000000000005
 21
19.200000000000038
 31
0.0
  0
LINE
  5
64
  8
3
 10
14.676499999999971
 20
46.828267628679903
 30
0.0
 11
14.676499999999971
 21
18.523500000000119
 31
0.0
  0
LINE
  5
65
  8
0
 10
22.00000000000006
 20
47.999999999999893
 30
0.0
 11
22.00000000000006
 21
19.200000000000038
 31
0.0
  0
LINE
  5
66
  8
3
 10
21.323500000000202
 20
46.828267628679988
 30
0.0
 11
21.323500000000202
 21
18.523500000000119
 31
0.0
  0
LINE
  5
6A
  8
0
 10
13.75000000000005
 20
48.000000000000107
 30
0.0
 11
22.25000000000006
 21
47.999999999999893
 31
0.0
  0
LINE
  5
6D
  8
3
 10
14.676499999999971
 20
46.828267628679889
 30
0.0
 11
14.00000000000005
 21
48.0
 31
0.0
  0
LINE
  5
6E
  8
3
 10
21.323500000000141
 20
46.828267628679889
 30
0.0
 11
22.00000000000006
 21
48.0
 31
0.0
  0
LINE
  5
6F
  8
3
 10
22.00000000000006
 20
46.828267628679889
 30
0.0
 11
14.00000000000005
 21
46.828267628679889
 31
0.0
  0
LINE
  5
70
  8
0
 10
22.00000000000006
 20
19.199999999999928
 30
0.0
 11
14.00000000000005
 21
19.200000000000038
 31
0.0
  0
LINE
  5
71
  8
0
 10
15.19999999999999
 20
18.0
 30
0.0
 11
14.00000000000005
 21
19.200000000000038
 31
0.0
  0
LINE
  5
72
  8
0
 10
22.00000000000006
 20
19.200000000000038
 30
0.0
 11
20.800000000000011
 21
18.0
 31
0.0
  0
LINE
  5
77
  8
0
 10
20.800000000000011
 20
18.0
 30
0.0
 11
15.19999999999999
 21
18.0
 31
0.0
  0
LINE
  5
A3
  8
1
 10
18.00000000000006
 20
61.000000000002537
 30
0.0
 11
18.00000000000006
 21
13.0
 31
0.0
  0
LINE
  5
B0
  8
0
 10
14.53589838768317
 20
81.500000000000497
 30
0.0
 11
16.26794919525133
 21
84.500000000000497
 31
0.0
  0
LINE
  5
B1
  8
0
 10
16.267949193840249
 20
78.5000000024434
 30
0.0
 11
14.53589838627118
 21
81.5000000024434
 31
0.0
  0
LINE
  5
B2
  8
0
 10
19.732050806158039
 20
78.5000000024434
 30
0.0
 11
16.26794919102036
 21
78.5000000024434
 31
0.0
  0
LINE
  5
B3
  8
0
 10
21.464101612316941
 20
81.500000000000497
 30
0.0
 11
19.732050804748781
 21
78.500000000000497
 31
0.0
  0
LINE
  5
B4
  8
0
 10
19.732050806159862
 20
84.499999997555776
 30
0.0
 11
21.464101613728928
 21
81.499999997557595
 31
0.0
  0
LINE
  5
B5
  8
0
 10
16.267949193839801
 20
84.499999997557595
 30
0.0
 11
19.732050808977469
 21
84.499999997557595
 31
0.0
  0
CIRCLE
  5
B6
  8
0
 10
18.00000000000006
 20
81.500000000002544
 30
0.0
 40
5.5
  0
TEXT
  5
185
  8
0
 62
     3
 10
0.0
 20
0.0
 30
0.0
 40
5.0
  1
MBID08-TB
  7
STANDARD1
  0
ARC
  5
1DA
  8
0
 10
23.105302967584411
 20
55.600000000000023
 30
0.0
 40
0.4000000000050719
 50
350.50191030309458
 51
90.000000000028493
  0
ARC
  5
1DB
  8
0
 10
12.89469703241549
 20
55.600000000000229
 30
0.0
 40
0.4000000000050719
 50
89.999999999969063
 51
189.49808969690301
  0
LINE
  5
1E2
  8
1
 10
7.500000000000056
 20
81.500000000002544
 30
0.0
 11
28.50000000000006
 21
81.500000000002544
 31
0.0
  0
LINE
  5
1E3
  8
1
 10
18.00000000000006
 20
71.000000000002544
 30
0.0
 11
18.00000000000006
 21
92.000000000002544
 31
0.0
  0
ENDSEC
  0
EOF
